  0
SECTION
  2
HEADER
  9
$ACADVER
  1
AC1006
  9
$EXTMIN
 10
3.808640
 20
0.953040
  9
$EXTMAX
 10
7.692960
 20
5.284400
  9
$LTSCALE
 40
0.044000
  9
$PDMODE
 70
    35
  9
$PDSIZE
 40
0.035200
  0
ENDSEC
  0
SECTION
  2
TABLES
  0
TABLE
  2
LTYPE
 70
     9
  0
LTYPE
  2
CONTINUOUS
 70
    64
  3
Solid line
 72
    65
 73
     0
 40
0.000000
  0
LTYPE
  2
DASHED
 70
    64
  3
__ __ __ __ __ __ __ __ __ __ __ __ __ __ __
 72
    65
 73
     2
 40
0.000330
 49
0.000220
 49
-0.000110
  0
LTYPE
  2
HIDDEN
 70
    64
  3
 _ _ _ _ _ _ _ _ _ _ _ _ _ _ _ _ _ _ _ _ _ _
 72
    65
 73
     2
 40
0.000165
 49
0.000110
 49
-0.000055
  0
LTYPE
  2
CENTER
 70
    64
  3
____ _ ____ _ ____ _ ____ _ ____ _ ____ _ ____
 72
    65
 73
     4
 40
0.000880
 49
0.000550
 49
-0.000110
 49
0.000110
 49
-0.000110
  0
LTYPE
  2
PHANTOM
 70
    64
  3
_____ _ _ _____ _ _ _____ _ _ _____ _ _ ____
 72
    65
 73
     6
 40
0.001100
 49
0.000550
 49
-0.000110
 49
0.000110
 49
-0.000110
 49
0.000110
 49
-0.000110
  0
LTYPE
  2
DOT
 70
    64
  3
...............................................
 72
    65
 73
     2
 40
0.000110
 49
0.000000
 49
-0.000110
  0
LTYPE
  2
DASHDOT
 70
    64
  3
__ . __ . __ . __ . __ . __ . __ . __ . __ . __
 72
    65
 73
     4
 40
0.000440
 49
0.000220
 49
-0.000110
 49
0.000000
 49
-0.000110
  0
LTYPE
  2
BORDER
 70
    64
  3
__ __ . __ __ . __ __ . __ __ . __ __ . __ __
 72
    65
 73
     6
 40
0.000770
 49
0.000220
 49
-0.000110
 49
0.000220
 49
-0.000110
 49
0.000000
 49
-0.000110
  0
LTYPE
  2
DIVIDE
 70
    64
  3
__ . . __ . . __ . . __ . . __ . . __ . . __
 72
    65
 73
     6
 40
0.000550
 49
0.000220
 49
-0.000110
 49
0.000000
 49
-0.000110
 49
0.000000
 49
-0.000110
  0
LTYPE
  2
DOTDOT
 70
    64
  3
 . .  . .  . .  . .  . .  . . 
 72
    65
 73
     5
 40
0.000242
 49
-0.000110
 49
0.000000
 49
-0.000110
 49
0.000000
 49
-0.000110
  0
ENDTAB
  0
TABLE
  2
STYLE
 70
     2
  0
STYLE
 70
     0
  2
SN0
 40
0.000000
 41
0.000440
 50
0.000000
 71
     0
 42
0.000000
  3
ROMAND
  0
STYLE
 70
    68
  2
SV0
 40
0.000000
 41
0.000440
 50
0.000000
 71
     0
 42
0.000000
  3
ROMAND
  0
ENDTAB
  0
TABLE
  2
LAYER
 70
     3
  0
LAYER
  2
FOREGROUND
 70
    64
 62
     7
  6
CONTINUOUS
  0
LAYER
  2
BACKGROUND
 70
    65
 62
    -7
  6
CONTINUOUS
  0
LAYER
  2
0
 70
    64
 62
     7
  6
CONTINUOUS
  0
ENDTAB
  0
ENDSEC
  0
SECTION
  2
ENTITIES
  0
POLYLINE
  8
FOREGROUND
  6
CONTINUOUS
 66
     1
 40
0.000000
 41
0.000000
  0
VERTEX
  8
FOREGROUND
  6
CONTINUOUS
 10
0.000000
 20
6.237440
  0
VERTEX
  8
FOREGROUND
  6
CONTINUOUS
 10
8.499920
 20
6.237440
  0
VERTEX
  8
FOREGROUND
  6
CONTINUOUS
 10
8.499920
 20
-4.762560
  0
VERTEX
  8
FOREGROUND
  6
CONTINUOUS
 10
0.000000
 20
-4.762560
  0
VERTEX
  8
FOREGROUND
  6
CONTINUOUS
 10
0.000000
 20
6.237440
  0
SEQEND
  8
0
  0
POLYLINE
  8
FOREGROUND
  6
CONTINUOUS
 66
     1
 40
0.000000
 41
0.000000
  0
VERTEX
  8
FOREGROUND
  6
CONTINUOUS
 10
0.000000
 20
6.237440
  0
VERTEX
  8
FOREGROUND
  6
CONTINUOUS
 10
8.499920
 20
6.237440
  0
VERTEX
  8
FOREGROUND
  6
CONTINUOUS
 10
8.499920
 20
-4.762560
  0
VERTEX
  8
FOREGROUND
  6
CONTINUOUS
 10
0.000000
 20
-4.762560
  0
VERTEX
  8
FOREGROUND
  6
CONTINUOUS
 10
0.000000
 20
6.237440
  0
SEQEND
  8
0
  0
POLYLINE
  8
0
  6
CONTINUOUS
 66
     1
 40
0.014080
 41
0.014080
  0
VERTEX
  8
0
  6
CONTINUOUS
 10
4.110920
 20
5.244360
  0
VERTEX
  8
0
  6
CONTINUOUS
 10
4.145680
 20
5.211360
  0
VERTEX
  8
0
  6
CONTINUOUS
 10
4.180880
 20
5.180560
  0
VERTEX
  8
0
  6
CONTINUOUS
 10
4.216520
 20
5.151960
  0
VERTEX
  8
0
  6
CONTINUOUS
 10
4.288680
 20
5.102240
  0
VERTEX
  8
0
  6
CONTINUOUS
 10
4.325200
 20
5.080240
  0
VERTEX
  8
0
  6
CONTINUOUS
 10
4.398680
 20
5.043280
  0
VERTEX
  8
0
  6
CONTINUOUS
 10
4.472600
 20
5.013360
  0
VERTEX
  8
0
  6
CONTINUOUS
 10
4.509560
 20
5.001040
  0
VERTEX
  8
0
  6
CONTINUOUS
 10
4.583040
 20
4.981240
  0
VERTEX
  8
0
  6
CONTINUOUS
 10
4.655640
 20
4.967600
  0
VERTEX
  8
0
  6
CONTINUOUS
 10
4.726920
 20
4.959240
  0
VERTEX
  8
0
  6
CONTINUOUS
 10
4.796000
 20
4.955720
  0
VERTEX
  8
0
  6
CONTINUOUS
 10
4.863320
 20
4.956160
  0
VERTEX
  8
0
  6
CONTINUOUS
 10
4.927560
 20
4.960120
  0
VERTEX
  8
0
  6
CONTINUOUS
 10
5.018200
 20
4.970680
  0
VERTEX
  8
0
  6
CONTINUOUS
 10
5.099600
 20
4.985640
  0
VERTEX
  8
0
  6
CONTINUOUS
 10
5.170880
 20
5.002360
  0
VERTEX
  8
0
  6
CONTINUOUS
 10
5.244360
 20
5.024360
  0
VERTEX
  8
0
  6
CONTINUOUS
 10
5.469200
 20
5.099600
  0
VERTEX
  8
0
  6
CONTINUOUS
 10
5.583600
 20
5.132600
  0
VERTEX
  8
0
  6
CONTINUOUS
 10
5.664120
 20
5.151960
  0
VERTEX
  8
0
  6
CONTINUOUS
 10
5.747280
 20
5.168240
  0
VERTEX
  8
0
  6
CONTINUOUS
 10
5.832640
 20
5.179680
  0
VERTEX
  8
0
  6
CONTINUOUS
 10
5.919320
 20
5.185400
  0
VERTEX
  8
0
  6
CONTINUOUS
 10
5.962880
 20
5.186280
  0
VERTEX
  8
0
  6
CONTINUOUS
 10
6.006880
 20
5.184960
  0
VERTEX
  8
0
  6
CONTINUOUS
 10
6.050440
 20
5.181440
  0
VERTEX
  8
0
  6
CONTINUOUS
 10
6.094440
 20
5.176160
  0
VERTEX
  8
0
  6
CONTINUOUS
 10
6.138000
 20
5.168680
  0
VERTEX
  8
0
  6
CONTINUOUS
 10
6.203120
 20
5.152400
  0
VERTEX
  8
0
  6
CONTINUOUS
 10
6.267800
 20
5.130840
  0
VERTEX
  8
0
  6
CONTINUOUS
 10
6.331160
 20
5.102680
  0
VERTEX
  8
0
  6
CONTINUOUS
 10
6.393200
 20
5.067480
  0
VERTEX
  8
0
  6
CONTINUOUS
 10
6.626840
 20
5.276920
  0
VERTEX
  8
0
  6
CONTINUOUS
 10
6.658520
 20
5.248760
  0
VERTEX
  8
0
  6
CONTINUOUS
 10
6.691960
 20
5.224120
  0
VERTEX
  8
0
  6
CONTINUOUS
 10
6.727160
 20
5.203000
  0
VERTEX
  8
0
  6
CONTINUOUS
 10
6.782600
 20
5.177480
  0
VERTEX
  8
0
  6
CONTINUOUS
 10
6.821320
 20
5.165160
  0
VERTEX
  8
0
  6
CONTINUOUS
 10
6.860920
 20
5.155920
  0
VERTEX
  8
0
  6
CONTINUOUS
 10
6.901400
 20
5.150640
  0
VERTEX
  8
0
  6
CONTINUOUS
 10
6.942760
 20
5.148880
  0
VERTEX
  8
0
  6
CONTINUOUS
 10
6.985000
 20
5.151080
  0
VERTEX
  8
0
  6
CONTINUOUS
 10
7.027240
 20
5.156800
  0
VERTEX
  8
0
  6
CONTINUOUS
 10
7.069920
 20
5.166040
  0
VERTEX
  8
0
  6
CONTINUOUS
 10
7.113040
 20
5.179240
  0
VERTEX
  8
0
  6
CONTINUOUS
 10
7.177280
 20
5.206960
  0
VERTEX
  8
0
  6
CONTINUOUS
 10
7.219520
 20
5.229840
  0
VERTEX
  8
0
  6
CONTINUOUS
 10
7.261760
 20
5.257120
  0
VERTEX
  8
0
  6
CONTINUOUS
 10
7.682840
 20
4.811400
  0
VERTEX
  8
0
  6
CONTINUOUS
 10
7.364280
 20
4.521000
  0
VERTEX
  8
0
  6
CONTINUOUS
 10
4.239400
 20
4.521000
  0
VERTEX
  8
0
  6
CONTINUOUS
 10
3.819200
 20
4.983440
  0
VERTEX
  8
0
  6
CONTINUOUS
 10
4.110920
 20
5.244360
  0
SEQEND
  8
0
  0
SOLID
  8
0
 62
    15
 10
5.602960
 20
2.540560
 11
6.243160
 21
2.169640
 12
5.504400
 22
2.399760
 13
6.144600
 23
2.028840
  0
POLYLINE
  8
0
  6
CONTINUOUS
 66
     1
 40
0.000000
 41
0.000000
  0
VERTEX
  8
0
  6
CONTINUOUS
 10
5.602960
 20
2.540560
  0
VERTEX
  8
0
  6
CONTINUOUS
 10
6.243160
 20
2.169640
  0
VERTEX
  8
0
  6
CONTINUOUS
 10
6.144600
 20
2.028840
  0
VERTEX
  8
0
  6
CONTINUOUS
 10
5.504400
 20
2.399760
  0
VERTEX
  8
0
  6
CONTINUOUS
 10
5.602960
 20
2.540560
  0
SEQEND
  8
0
  0
SOLID
  8
0
 62
    15
 10
6.563040
 20
3.631760
 11
7.202800
 21
3.260840
 12
6.402880
 22
3.580280
 13
7.042640
 23
3.209360
  0
POLYLINE
  8
0
  6
CONTINUOUS
 66
     1
 40
0.000000
 41
0.000000
  0
VERTEX
  8
0
  6
CONTINUOUS
 10
6.563040
 20
3.631760
  0
VERTEX
  8
0
  6
CONTINUOUS
 10
7.202800
 20
3.260840
  0
VERTEX
  8
0
  6
CONTINUOUS
 10
7.042640
 20
3.209360
  0
VERTEX
  8
0
  6
CONTINUOUS
 10
6.402880
 20
3.580280
  0
VERTEX
  8
0
  6
CONTINUOUS
 10
6.563040
 20
3.631760
  0
SEQEND
  8
0
  0
SOLID
  8
0
 62
    15
 10
6.402880
 20
3.580280
 11
7.042640
 21
3.209360
 12
6.263840
 22
3.507680
 13
6.904040
 23
3.136760
  0
POLYLINE
  8
0
  6
CONTINUOUS
 66
     1
 40
0.000000
 41
0.000000
  0
VERTEX
  8
0
  6
CONTINUOUS
 10
6.402880
 20
3.580280
  0
VERTEX
  8
0
  6
CONTINUOUS
 10
7.042640
 20
3.209360
  0
VERTEX
  8
0
  6
CONTINUOUS
 10
6.904040
 20
3.136760
  0
VERTEX
  8
0
  6
CONTINUOUS
 10
6.263840
 20
3.507680
  0
VERTEX
  8
0
  6
CONTINUOUS
 10
6.402880
 20
3.580280
  0
SEQEND
  8
0
  0
SOLID
  8
0
 62
    15
 10
6.263840
 20
3.507680
 11
6.904040
 21
3.136760
 12
6.145480
 22
3.419240
 13
6.785680
 23
3.048760
  0
POLYLINE
  8
0
  6
CONTINUOUS
 66
     1
 40
0.000000
 41
0.000000
  0
VERTEX
  8
0
  6
CONTINUOUS
 10
6.263840
 20
3.507680
  0
VERTEX
  8
0
  6
CONTINUOUS
 10
6.904040
 20
3.136760
  0
VERTEX
  8
0
  6
CONTINUOUS
 10
6.785680
 20
3.048760
  0
VERTEX
  8
0
  6
CONTINUOUS
 10
6.145480
 20
3.419240
  0
VERTEX
  8
0
  6
CONTINUOUS
 10
6.263840
 20
3.507680
  0
SEQEND
  8
0
  0
SOLID
  8
0
 62
    15
 10
6.145480
 20
3.419240
 11
6.785680
 21
3.048760
 12
6.046040
 22
3.322440
 13
6.686240
 23
2.951960
  0
POLYLINE
  8
0
  6
CONTINUOUS
 66
     1
 40
0.000000
 41
0.000000
  0
VERTEX
  8
0
  6
CONTINUOUS
 10
6.145480
 20
3.419240
  0
VERTEX
  8
0
  6
CONTINUOUS
 10
6.785680
 20
3.048760
  0
VERTEX
  8
0
  6
CONTINUOUS
 10
6.686240
 20
2.951960
  0
VERTEX
  8
0
  6
CONTINUOUS
 10
6.046040
 20
3.322440
  0
VERTEX
  8
0
  6
CONTINUOUS
 10
6.145480
 20
3.419240
  0
SEQEND
  8
0
  0
SOLID
  8
0
 62
    15
 10
6.046040
 20
3.322440
 11
6.686240
 21
2.951960
 12
5.964200
 22
3.223000
 13
6.604400
 23
2.852080
  0
POLYLINE
  8
0
  6
CONTINUOUS
 66
     1
 40
0.000000
 41
0.000000
  0
VERTEX
  8
0
  6
CONTINUOUS
 10
6.046040
 20
3.322440
  0
VERTEX
  8
0
  6
CONTINUOUS
 10
6.686240
 20
2.951960
  0
VERTEX
  8
0
  6
CONTINUOUS
 10
6.604400
 20
2.852080
  0
VERTEX
  8
0
  6
CONTINUOUS
 10
5.964200
 20
3.223000
  0
VERTEX
  8
0
  6
CONTINUOUS
 10
6.046040
 20
3.322440
  0
SEQEND
  8
0
  0
SOLID
  8
0
 62
    15
 10
5.964200
 20
3.223000
 11
6.604400
 21
2.852080
 12
5.899080
 22
3.126640
 13
6.539280
 23
2.756160
  0
POLYLINE
  8
0
  6
CONTINUOUS
 66
     1
 40
0.000000
 41
0.000000
  0
VERTEX
  8
0
  6
CONTINUOUS
 10
5.964200
 20
3.223000
  0
VERTEX
  8
0
  6
CONTINUOUS
 10
6.604400
 20
2.852080
  0
VERTEX
  8
0
  6
CONTINUOUS
 10
6.539280
 20
2.756160
  0
VERTEX
  8
0
  6
CONTINUOUS
 10
5.899080
 20
3.126640
  0
VERTEX
  8
0
  6
CONTINUOUS
 10
5.964200
 20
3.223000
  0
SEQEND
  8
0
  0
SOLID
  8
0
 62
    15
 10
5.899080
 20
3.126640
 11
6.539280
 21
2.756160
 12
5.849360
 22
3.040400
 13
6.489560
 23
2.669920
  0
POLYLINE
  8
0
  6
CONTINUOUS
 66
     1
 40
0.000000
 41
0.000000
  0
VERTEX
  8
0
  6
CONTINUOUS
 10
5.899080
 20
3.126640
  0
VERTEX
  8
0
  6
CONTINUOUS
 10
6.539280
 20
2.756160
  0
VERTEX
  8
0
  6
CONTINUOUS
 10
6.489560
 20
2.669920
  0
VERTEX
  8
0
  6
CONTINUOUS
 10
5.849360
 20
3.040400
  0
VERTEX
  8
0
  6
CONTINUOUS
 10
5.899080
 20
3.126640
  0
SEQEND
  8
0
  0
SOLID
  8
0
 62
    15
 10
5.849360
 20
3.040400
 11
6.489560
 21
2.669920
 12
5.803600
 22
2.944480
 13
6.443800
 23
2.574000
  0
POLYLINE
  8
0
  6
CONTINUOUS
 66
     1
 40
0.000000
 41
0.000000
  0
VERTEX
  8
0
  6
CONTINUOUS
 10
5.849360
 20
3.040400
  0
VERTEX
  8
0
  6
CONTINUOUS
 10
6.489560
 20
2.669920
  0
VERTEX
  8
0
  6
CONTINUOUS
 10
6.443800
 20
2.574000
  0
VERTEX
  8
0
  6
CONTINUOUS
 10
5.803600
 20
2.944480
  0
VERTEX
  8
0
  6
CONTINUOUS
 10
5.849360
 20
3.040400
  0
SEQEND
  8
0
  0
SOLID
  8
0
 62
    15
 10
5.803600
 20
2.944480
 11
6.443800
 21
2.574000
 12
5.784680
 22
2.901360
 13
6.424880
 23
2.530880
  0
POLYLINE
  8
0
  6
CONTINUOUS
 66
     1
 40
0.000000
 41
0.000000
  0
VERTEX
  8
0
  6
CONTINUOUS
 10
5.803600
 20
2.944480
  0
VERTEX
  8
0
  6
CONTINUOUS
 10
6.443800
 20
2.574000
  0
VERTEX
  8
0
  6
CONTINUOUS
 10
6.424880
 20
2.530880
  0
VERTEX
  8
0
  6
CONTINUOUS
 10
5.784680
 20
2.901360
  0
VERTEX
  8
0
  6
CONTINUOUS
 10
5.803600
 20
2.944480
  0
SEQEND
  8
0
  0
SOLID
  8
0
 62
    15
 10
5.784680
 20
2.901360
 11
6.424880
 21
2.530880
 12
5.778080
 22
2.886400
 13
6.418280
 23
2.515480
  0
POLYLINE
  8
0
  6
CONTINUOUS
 66
     1
 40
0.000000
 41
0.000000
  0
VERTEX
  8
0
  6
CONTINUOUS
 10
5.784680
 20
2.901360
  0
VERTEX
  8
0
  6
CONTINUOUS
 10
6.424880
 20
2.530880
  0
VERTEX
  8
0
  6
CONTINUOUS
 10
6.418280
 20
2.515480
  0
VERTEX
  8
0
  6
CONTINUOUS
 10
5.778080
 20
2.886400
  0
VERTEX
  8
0
  6
CONTINUOUS
 10
5.784680
 20
2.901360
  0
SEQEND
  8
0
  0
SOLID
  8
0
 62
    15
 10
5.778080
 20
2.886400
 11
6.418280
 21
2.515480
 12
5.749480
 22
2.822600
 13
6.389680
 23
2.452120
  0
POLYLINE
  8
0
  6
CONTINUOUS
 66
     1
 40
0.000000
 41
0.000000
  0
VERTEX
  8
0
  6
CONTINUOUS
 10
5.778080
 20
2.886400
  0
VERTEX
  8
0
  6
CONTINUOUS
 10
6.418280
 20
2.515480
  0
VERTEX
  8
0
  6
CONTINUOUS
 10
6.389680
 20
2.452120
  0
VERTEX
  8
0
  6
CONTINUOUS
 10
5.749480
 20
2.822600
  0
VERTEX
  8
0
  6
CONTINUOUS
 10
5.778080
 20
2.886400
  0
SEQEND
  8
0
  0
SOLID
  8
0
 62
    15
 10
5.749480
 20
2.822600
 11
6.389680
 21
2.452120
 12
5.683920
 22
2.684880
 13
6.324120
 23
2.313960
  0
POLYLINE
  8
0
  6
CONTINUOUS
 66
     1
 40
0.000000
 41
0.000000
  0
VERTEX
  8
0
  6
CONTINUOUS
 10
5.749480
 20
2.822600
  0
VERTEX
  8
0
  6
CONTINUOUS
 10
6.389680
 20
2.452120
  0
VERTEX
  8
0
  6
CONTINUOUS
 10
6.324120
 20
2.313960
  0
VERTEX
  8
0
  6
CONTINUOUS
 10
5.683920
 20
2.684880
  0
VERTEX
  8
0
  6
CONTINUOUS
 10
5.749480
 20
2.822600
  0
SEQEND
  8
0
  0
SOLID
  8
0
 62
    15
 10
5.683920
 20
2.684880
 11
6.324120
 21
2.313960
 12
5.602960
 22
2.540560
 13
6.243160
 23
2.169640
  0
POLYLINE
  8
0
  6
CONTINUOUS
 66
     1
 40
0.000000
 41
0.000000
  0
VERTEX
  8
0
  6
CONTINUOUS
 10
5.683920
 20
2.684880
  0
VERTEX
  8
0
  6
CONTINUOUS
 10
6.324120
 20
2.313960
  0
VERTEX
  8
0
  6
CONTINUOUS
 10
6.243160
 20
2.169640
  0
VERTEX
  8
0
  6
CONTINUOUS
 10
5.602960
 20
2.540560
  0
VERTEX
  8
0
  6
CONTINUOUS
 10
5.683920
 20
2.684880
  0
SEQEND
  8
0
  0
SOLID
  8
0
 62
    15
 10
6.745640
 20
3.655080
 11
7.385840
 21
3.284600
 12
6.563040
 22
3.631760
 13
7.202800
 23
3.260840
  0
POLYLINE
  8
0
  6
CONTINUOUS
 66
     1
 40
0.000000
 41
0.000000
  0
VERTEX
  8
0
  6
CONTINUOUS
 10
6.745640
 20
3.655080
  0
VERTEX
  8
0
  6
CONTINUOUS
 10
7.385840
 20
3.284600
  0
VERTEX
  8
0
  6
CONTINUOUS
 10
7.202800
 20
3.260840
  0
VERTEX
  8
0
  6
CONTINUOUS
 10
6.563040
 20
3.631760
  0
VERTEX
  8
0
  6
CONTINUOUS
 10
6.745640
 20
3.655080
  0
SEQEND
  8
0
  0
SOLID
  8
0
 62
    15
 10
5.504400
 20
2.399760
 11
6.144600
 21
2.028840
 12
5.384280
 22
2.272160
 13
6.024480
 23
1.901680
  0
POLYLINE
  8
0
  6
CONTINUOUS
 66
     1
 40
0.000000
 41
0.000000
  0
VERTEX
  8
0
  6
CONTINUOUS
 10
5.504400
 20
2.399760
  0
VERTEX
  8
0
  6
CONTINUOUS
 10
6.144600
 20
2.028840
  0
VERTEX
  8
0
  6
CONTINUOUS
 10
6.024480
 20
1.901680
  0
VERTEX
  8
0
  6
CONTINUOUS
 10
5.384280
 20
2.272160
  0
VERTEX
  8
0
  6
CONTINUOUS
 10
5.504400
 20
2.399760
  0
SEQEND
  8
0
  0
SOLID
  8
0
 62
    15
 10
5.384280
 20
2.272160
 11
6.024480
 21
1.901680
 12
5.239960
 22
2.168320
 13
5.880160
 23
1.797840
  0
POLYLINE
  8
0
  6
CONTINUOUS
 66
     1
 40
0.000000
 41
0.000000
  0
VERTEX
  8
0
  6
CONTINUOUS
 10
5.384280
 20
2.272160
  0
VERTEX
  8
0
  6
CONTINUOUS
 10
6.024480
 20
1.901680
  0
VERTEX
  8
0
  6
CONTINUOUS
 10
5.880160
 20
1.797840
  0
VERTEX
  8
0
  6
CONTINUOUS
 10
5.239960
 20
2.168320
  0
VERTEX
  8
0
  6
CONTINUOUS
 10
5.384280
 20
2.272160
  0
SEQEND
  8
0
  0
SOLID
  8
0
 62
    15
 10
5.239960
 20
2.168320
 11
5.880160
 21
1.797840
 12
5.068360
 22
2.097920
 13
5.708560
 23
1.727000
  0
POLYLINE
  8
0
  6
CONTINUOUS
 66
     1
 40
0.000000
 41
0.000000
  0
VERTEX
  8
0
  6
CONTINUOUS
 10
5.239960
 20
2.168320
  0
VERTEX
  8
0
  6
CONTINUOUS
 10
5.880160
 20
1.797840
  0
VERTEX
  8
0
  6
CONTINUOUS
 10
5.708560
 20
1.727000
  0
VERTEX
  8
0
  6
CONTINUOUS
 10
5.068360
 20
2.097920
  0
VERTEX
  8
0
  6
CONTINUOUS
 10
5.239960
 20
2.168320
  0
SEQEND
  8
0
  0
SOLID
  8
0
 62
    15
 10
5.068360
 20
2.097920
 11
5.708560
 21
1.727000
 12
5.063520
 22
1.784200
 13
5.703720
 23
1.413720
  0
POLYLINE
  8
0
  6
CONTINUOUS
 66
     1
 40
0.000000
 41
0.000000
  0
VERTEX
  8
0
  6
CONTINUOUS
 10
5.068360
 20
2.097920
  0
VERTEX
  8
0
  6
CONTINUOUS
 10
5.708560
 20
1.727000
  0
VERTEX
  8
0
  6
CONTINUOUS
 10
5.703720
 20
1.413720
  0
VERTEX
  8
0
  6
CONTINUOUS
 10
5.063520
 20
1.784200
  0
VERTEX
  8
0
  6
CONTINUOUS
 10
5.068360
 20
2.097920
  0
SEQEND
  8
0
  0
SOLID
  8
0
 62
    15
 10
5.063520
 20
1.784200
 11
5.703720
 21
1.413720
 12
4.980800
 22
1.771880
 13
5.621000
 23
1.401400
  0
POLYLINE
  8
0
  6
CONTINUOUS
 66
     1
 40
0.000000
 41
0.000000
  0
VERTEX
  8
0
  6
CONTINUOUS
 10
5.063520
 20
1.784200
  0
VERTEX
  8
0
  6
CONTINUOUS
 10
5.703720
 20
1.413720
  0
VERTEX
  8
0
  6
CONTINUOUS
 10
5.621000
 20
1.401400
  0
VERTEX
  8
0
  6
CONTINUOUS
 10
4.980800
 20
1.771880
  0
VERTEX
  8
0
  6
CONTINUOUS
 10
5.063520
 20
1.784200
  0
SEQEND
  8
0
  0
SOLID
  8
0
 62
    15
 10
4.980800
 20
1.771880
 11
5.621000
 21
1.401400
 12
4.903360
 22
1.745480
 13
5.543560
 23
1.375000
  0
POLYLINE
  8
0
  6
CONTINUOUS
 66
     1
 40
0.000000
 41
0.000000
  0
VERTEX
  8
0
  6
CONTINUOUS
 10
4.980800
 20
1.771880
  0
VERTEX
  8
0
  6
CONTINUOUS
 10
5.621000
 20
1.401400
  0
VERTEX
  8
0
  6
CONTINUOUS
 10
5.543560
 20
1.375000
  0
VERTEX
  8
0
  6
CONTINUOUS
 10
4.903360
 20
1.745480
  0
VERTEX
  8
0
  6
CONTINUOUS
 10
4.980800
 20
1.771880
  0
SEQEND
  8
0
  0
SOLID
  8
0
 62
    15
 10
4.903360
 20
1.745480
 11
5.543560
 21
1.375000
 12
4.832520
 22
1.705880
 13
5.472720
 23
1.335400
  0
POLYLINE
  8
0
  6
CONTINUOUS
 66
     1
 40
0.000000
 41
0.000000
  0
VERTEX
  8
0
  6
CONTINUOUS
 10
4.903360
 20
1.745480
  0
VERTEX
  8
0
  6
CONTINUOUS
 10
5.543560
 20
1.375000
  0
VERTEX
  8
0
  6
CONTINUOUS
 10
5.472720
 20
1.335400
  0
VERTEX
  8
0
  6
CONTINUOUS
 10
4.832520
 20
1.705880
  0
VERTEX
  8
0
  6
CONTINUOUS
 10
4.903360
 20
1.745480
  0
SEQEND
  8
0
  0
SOLID
  8
0
 62
    15
 10
4.832520
 20
1.705880
 11
5.472720
 21
1.335400
 12
4.769600
 22
1.653520
 13
5.409800
 23
1.283040
  0
POLYLINE
  8
0
  6
CONTINUOUS
 66
     1
 40
0.000000
 41
0.000000
  0
VERTEX
  8
0
  6
CONTINUOUS
 10
4.832520
 20
1.705880
  0
VERTEX
  8
0
  6
CONTINUOUS
 10
5.472720
 20
1.335400
  0
VERTEX
  8
0
  6
CONTINUOUS
 10
5.409800
 20
1.283040
  0
VERTEX
  8
0
  6
CONTINUOUS
 10
4.769600
 20
1.653520
  0
VERTEX
  8
0
  6
CONTINUOUS
 10
4.832520
 20
1.705880
  0
SEQEND
  8
0
  0
SOLID
  8
0
 62
    15
 10
4.769600
 20
1.653520
 11
5.409800
 21
1.283040
 12
4.715480
 22
1.589280
 13
5.355680
 23
1.218800
  0
POLYLINE
  8
0
  6
CONTINUOUS
 66
     1
 40
0.000000
 41
0.000000
  0
VERTEX
  8
0
  6
CONTINUOUS
 10
4.769600
 20
1.653520
  0
VERTEX
  8
0
  6
CONTINUOUS
 10
5.409800
 20
1.283040
  0
VERTEX
  8
0
  6
CONTINUOUS
 10
5.355680
 20
1.218800
  0
VERTEX
  8
0
  6
CONTINUOUS
 10
4.715480
 20
1.589280
  0
VERTEX
  8
0
  6
CONTINUOUS
 10
4.769600
 20
1.653520
  0
SEQEND
  8
0
  0
SOLID
  8
0
 62
    15
 10
4.715480
 20
1.589280
 11
5.355680
 21
1.218800
 12
4.671480
 22
1.513600
 13
5.311680
 23
1.142680
  0
POLYLINE
  8
0
  6
CONTINUOUS
 66
     1
 40
0.000000
 41
0.000000
  0
VERTEX
  8
0
  6
CONTINUOUS
 10
4.715480
 20
1.589280
  0
VERTEX
  8
0
  6
CONTINUOUS
 10
5.355680
 20
1.218800
  0
VERTEX
  8
0
  6
CONTINUOUS
 10
5.311680
 20
1.142680
  0
VERTEX
  8
0
  6
CONTINUOUS
 10
4.671480
 20
1.513600
  0
VERTEX
  8
0
  6
CONTINUOUS
 10
4.715480
 20
1.589280
  0
SEQEND
  8
0
  0
SOLID
  8
0
 62
    15
 10
4.671480
 20
1.513600
 11
5.311680
 21
1.142680
 12
4.638920
 22
1.427360
 13
5.279120
 23
1.056440
  0
POLYLINE
  8
0
  6
CONTINUOUS
 66
     1
 40
0.000000
 41
0.000000
  0
VERTEX
  8
0
  6
CONTINUOUS
 10
4.671480
 20
1.513600
  0
VERTEX
  8
0
  6
CONTINUOUS
 10
5.311680
 20
1.142680
  0
VERTEX
  8
0
  6
CONTINUOUS
 10
5.279120
 20
1.056440
  0
VERTEX
  8
0
  6
CONTINUOUS
 10
4.638920
 20
1.427360
  0
VERTEX
  8
0
  6
CONTINUOUS
 10
4.671480
 20
1.513600
  0
SEQEND
  8
0
  0
SOLID
  8
0
 62
    15
 10
4.638920
 20
1.427360
 11
5.279120
 21
1.056440
 12
4.618680
 22
1.331000
 13
5.258880
 23
0.960080
  0
POLYLINE
  8
0
  6
CONTINUOUS
 66
     1
 40
0.000000
 41
0.000000
  0
VERTEX
  8
0
  6
CONTINUOUS
 10
4.638920
 20
1.427360
  0
VERTEX
  8
0
  6
CONTINUOUS
 10
5.279120
 20
1.056440
  0
VERTEX
  8
0
  6
CONTINUOUS
 10
5.258880
 20
0.960080
  0
VERTEX
  8
0
  6
CONTINUOUS
 10
4.618680
 20
1.331000
  0
VERTEX
  8
0
  6
CONTINUOUS
 10
4.638920
 20
1.427360
  0
SEQEND
  8
0
  0
SOLID
  8
0
 62
    15
 10
4.618680
 20
1.331000
 11
5.258880
 21
0.960080
 12
4.005320
 22
1.323960
 13
4.645520
 23
0.953040
  0
POLYLINE
  8
0
  6
CONTINUOUS
 66
     1
 40
0.000000
 41
0.000000
  0
VERTEX
  8
0
  6
CONTINUOUS
 10
4.618680
 20
1.331000
  0
VERTEX
  8
0
  6
CONTINUOUS
 10
5.258880
 20
0.960080
  0
VERTEX
  8
0
  6
CONTINUOUS
 10
4.645520
 20
0.953040
  0
VERTEX
  8
0
  6
CONTINUOUS
 10
4.005320
 20
1.323960
  0
VERTEX
  8
0
  6
CONTINUOUS
 10
4.618680
 20
1.331000
  0
SEQEND
  8
0
  0
SOLID
  8
0
 62
    15
 10
6.752240
 20
4.046240
 11
7.392440
 21
3.675760
 12
6.745640
 22
3.655080
 13
7.385840
 23
3.284600
  0
POLYLINE
  8
0
  6
CONTINUOUS
 66
     1
 40
0.000000
 41
0.000000
  0
VERTEX
  8
0
  6
CONTINUOUS
 10
6.752240
 20
4.046240
  0
VERTEX
  8
0
  6
CONTINUOUS
 10
7.392440
 20
3.675760
  0
VERTEX
  8
0
  6
CONTINUOUS
 10
7.385840
 20
3.284600
  0
VERTEX
  8
0
  6
CONTINUOUS
 10
6.745640
 20
3.655080
  0
VERTEX
  8
0
  6
CONTINUOUS
 10
6.752240
 20
4.046240
  0
SEQEND
  8
0
  0
POLYLINE
  8
0
  6
CONTINUOUS
 66
     1
 40
0.000000
 41
0.000000
  0
VERTEX
  8
0
  6
CONTINUOUS
 10
6.745640
 20
3.655080
  0
VERTEX
  8
0
  6
CONTINUOUS
 10
6.563040
 20
3.631760
  0
VERTEX
  8
0
  6
CONTINUOUS
 10
6.402880
 20
3.580280
  0
VERTEX
  8
0
  6
CONTINUOUS
 10
6.263840
 20
3.507680
  0
VERTEX
  8
0
  6
CONTINUOUS
 10
6.145480
 20
3.419240
  0
VERTEX
  8
0
  6
CONTINUOUS
 10
6.046040
 20
3.322440
  0
VERTEX
  8
0
  6
CONTINUOUS
 10
5.964200
 20
3.223000
  0
VERTEX
  8
0
  6
CONTINUOUS
 10
5.899080
 20
3.126640
  0
VERTEX
  8
0
  6
CONTINUOUS
 10
5.849360
 20
3.040400
  0
VERTEX
  8
0
  6
CONTINUOUS
 10
5.803600
 20
2.944480
  0
VERTEX
  8
0
  6
CONTINUOUS
 10
5.784680
 20
2.901360
  0
VERTEX
  8
0
  6
CONTINUOUS
 10
5.778080
 20
2.886400
  0
VERTEX
  8
0
  6
CONTINUOUS
 10
5.749480
 20
2.822600
  0
VERTEX
  8
0
  6
CONTINUOUS
 10
5.683920
 20
2.684880
  0
VERTEX
  8
0
  6
CONTINUOUS
 10
5.602960
 20
2.540560
  0
VERTEX
  8
0
  6
CONTINUOUS
 10
5.504400
 20
2.399760
  0
VERTEX
  8
0
  6
CONTINUOUS
 10
5.384280
 20
2.272160
  0
VERTEX
  8
0
  6
CONTINUOUS
 10
5.239960
 20
2.168320
  0
VERTEX
  8
0
  6
CONTINUOUS
 10
5.068360
 20
2.097920
  0
VERTEX
  8
0
  6
CONTINUOUS
 10
5.063520
 20
1.784200
  0
VERTEX
  8
0
  6
CONTINUOUS
 10
4.980800
 20
1.771880
  0
VERTEX
  8
0
  6
CONTINUOUS
 10
4.903360
 20
1.745480
  0
VERTEX
  8
0
  6
CONTINUOUS
 10
4.832520
 20
1.705880
  0
VERTEX
  8
0
  6
CONTINUOUS
 10
4.769600
 20
1.653520
  0
VERTEX
  8
0
  6
CONTINUOUS
 10
4.715480
 20
1.589280
  0
VERTEX
  8
0
  6
CONTINUOUS
 10
4.671480
 20
1.513600
  0
VERTEX
  8
0
  6
CONTINUOUS
 10
4.638920
 20
1.427360
  0
VERTEX
  8
0
  6
CONTINUOUS
 10
4.618680
 20
1.331000
  0
VERTEX
  8
0
  6
CONTINUOUS
 10
4.005320
 20
1.323960
  0
VERTEX
  8
0
  6
CONTINUOUS
 10
4.007960
 20
1.754720
  0
VERTEX
  8
0
  6
CONTINUOUS
 10
6.127000
 20
4.051080
  0
VERTEX
  8
0
  6
CONTINUOUS
 10
6.752240
 20
4.046240
  0
VERTEX
  8
0
  6
CONTINUOUS
 10
6.745640
 20
3.655080
  0
SEQEND
  8
0
  0
TEXT
  8
0
 10
5.876200
 20
1.220120
 40
0.138175
  1
BA  615
 41
1.000000
  7
SN0
 71
     0
 72
     5
 11
6.466564
 21
1.220120
  0
TEXT
  8
0
 10
5.720440
 20
1.028280
 40
0.138175
  1
3/4" x 3-7/8"
 41
1.000000
  7
SN0
 71
     0
 72
     5
 11
6.621146
 21
1.028280
  0
ENDSEC
  0
EOF
