  0
SECTION
  2
HEADER
  9
$ACADVER
  1
AC1006
  9
$EXTMIN
 10
3.074280
 20
0.594000
  9
$EXTMAX
 10
6.642240
 20
2.555080
  9
$LTSCALE
 40
0.044000
  9
$PDMODE
 70
    35
  9
$PDSIZE
 40
0.035200
  0
ENDSEC
  0
SECTION
  2
TABLES
  0
TABLE
  2
LTYPE
 70
     9
  0
LTYPE
  2
CONTINUOUS
 70
    64
  3
Solid line
 72
    65
 73
     0
 40
0.000000
  0
LTYPE
  2
DASHED
 70
    64
  3
__ __ __ __ __ __ __ __ __ __ __ __ __ __ __
 72
    65
 73
     2
 40
0.000330
 49
0.000220
 49
-0.000110
  0
LTYPE
  2
HIDDEN
 70
    64
  3
 _ _ _ _ _ _ _ _ _ _ _ _ _ _ _ _ _ _ _ _ _ _
 72
    65
 73
     2
 40
0.000165
 49
0.000110
 49
-0.000055
  0
LTYPE
  2
CENTER
 70
    64
  3
____ _ ____ _ ____ _ ____ _ ____ _ ____ _ ____
 72
    65
 73
     4
 40
0.000880
 49
0.000550
 49
-0.000110
 49
0.000110
 49
-0.000110
  0
LTYPE
  2
PHANTOM
 70
    64
  3
_____ _ _ _____ _ _ _____ _ _ _____ _ _ ____
 72
    65
 73
     6
 40
0.001100
 49
0.000550
 49
-0.000110
 49
0.000110
 49
-0.000110
 49
0.000110
 49
-0.000110
  0
LTYPE
  2
DOT
 70
    64
  3
...............................................
 72
    65
 73
     2
 40
0.000110
 49
0.000000
 49
-0.000110
  0
LTYPE
  2
DASHDOT
 70
    64
  3
__ . __ . __ . __ . __ . __ . __ . __ . __ . __
 72
    65
 73
     4
 40
0.000440
 49
0.000220
 49
-0.000110
 49
0.000000
 49
-0.000110
  0
LTYPE
  2
BORDER
 70
    64
  3
__ __ . __ __ . __ __ . __ __ . __ __ . __ __
 72
    65
 73
     6
 40
0.000770
 49
0.000220
 49
-0.000110
 49
0.000220
 49
-0.000110
 49
0.000000
 49
-0.000110
  0
LTYPE
  2
DIVIDE
 70
    64
  3
__ . . __ . . __ . . __ . . __ . . __ . . __
 72
    65
 73
     6
 40
0.000550
 49
0.000220
 49
-0.000110
 49
0.000000
 49
-0.000110
 49
0.000000
 49
-0.000110
  0
LTYPE
  2
DOTDOT
 70
    64
  3
 . .  . .  . .  . .  . .  . . 
 72
    65
 73
     5
 40
0.000242
 49
-0.000110
 49
0.000000
 49
-0.000110
 49
0.000000
 49
-0.000110
  0
ENDTAB
  0
TABLE
  2
STYLE
 70
     2
  0
STYLE
 70
     0
  2
SN0
 40
0.000000
 41
0.000440
 50
0.000000
 71
     0
 42
0.000000
  3
ROMAND
  0
STYLE
 70
    68
  2
SV0
 40
0.000000
 41
0.000440
 50
0.000000
 71
     0
 42
0.000000
  3
ROMAND
  0
ENDTAB
  0
TABLE
  2
LAYER
 70
     3
  0
LAYER
  2
FOREGROUND
 70
    64
 62
     7
  6
CONTINUOUS
  0
LAYER
  2
BACKGROUND
 70
    65
 62
    -7
  6
CONTINUOUS
  0
LAYER
  2
0
 70
    64
 62
     7
  6
CONTINUOUS
  0
ENDTAB
  0
ENDSEC
  0
SECTION
  2
ENTITIES
  0
POLYLINE
  8
FOREGROUND
  6
CONTINUOUS
 66
     1
 40
0.000000
 41
0.000000
  0
VERTEX
  8
FOREGROUND
  6
CONTINUOUS
 10
0.000000
 20
3.149080
  0
VERTEX
  8
FOREGROUND
  6
CONTINUOUS
 10
8.499920
 20
3.149080
  0
VERTEX
  8
FOREGROUND
  6
CONTINUOUS
 10
8.499920
 20
-7.850920
  0
VERTEX
  8
FOREGROUND
  6
CONTINUOUS
 10
0.000000
 20
-7.850920
  0
VERTEX
  8
FOREGROUND
  6
CONTINUOUS
 10
0.000000
 20
3.149080
  0
SEQEND
  8
0
  0
POLYLINE
  8
FOREGROUND
  6
CONTINUOUS
 66
     1
 40
0.000000
 41
0.000000
  0
VERTEX
  8
FOREGROUND
  6
CONTINUOUS
 10
0.000000
 20
3.149080
  0
VERTEX
  8
FOREGROUND
  6
CONTINUOUS
 10
8.499920
 20
3.149080
  0
VERTEX
  8
FOREGROUND
  6
CONTINUOUS
 10
8.499920
 20
-7.850920
  0
VERTEX
  8
FOREGROUND
  6
CONTINUOUS
 10
0.000000
 20
-7.850920
  0
VERTEX
  8
FOREGROUND
  6
CONTINUOUS
 10
0.000000
 20
3.149080
  0
SEQEND
  8
0
  0
SOLID
  8
0
 62
    15
 10
3.442120
 20
2.180640
 11
4.088480
 21
2.554640
 12
3.442120
 22
1.981760
 13
4.088480
 23
2.355760
  0
POLYLINE
  8
0
  6
CONTINUOUS
 66
     1
 40
0.000000
 41
0.000000
  0
VERTEX
  8
0
  6
CONTINUOUS
 10
3.442120
 20
2.180640
  0
VERTEX
  8
0
  6
CONTINUOUS
 10
4.088480
 20
2.554640
  0
VERTEX
  8
0
  6
CONTINUOUS
 10
4.088480
 20
2.355760
  0
VERTEX
  8
0
  6
CONTINUOUS
 10
3.442120
 20
1.981760
  0
VERTEX
  8
0
  6
CONTINUOUS
 10
3.442120
 20
2.180640
  0
SEQEND
  8
0
  0
SOLID
  8
0
 62
    15
 10
3.442120
 20
1.981760
 11
4.088480
 21
2.355760
 12
4.125000
 22
1.298880
 13
4.771360
 23
1.672880
  0
POLYLINE
  8
0
  6
CONTINUOUS
 66
     1
 40
0.000000
 41
0.000000
  0
VERTEX
  8
0
  6
CONTINUOUS
 10
3.442120
 20
1.981760
  0
VERTEX
  8
0
  6
CONTINUOUS
 10
4.088480
 20
2.355760
  0
VERTEX
  8
0
  6
CONTINUOUS
 10
4.771360
 20
1.672880
  0
VERTEX
  8
0
  6
CONTINUOUS
 10
4.125000
 20
1.298880
  0
VERTEX
  8
0
  6
CONTINUOUS
 10
3.442120
 20
1.981760
  0
SEQEND
  8
0
  0
SOLID
  8
0
 62
    15
 10
4.125000
 20
1.298880
 11
4.771360
 21
1.672880
 12
4.125000
 22
1.026960
 13
4.771360
 23
1.400520
  0
POLYLINE
  8
0
  6
CONTINUOUS
 66
     1
 40
0.000000
 41
0.000000
  0
VERTEX
  8
0
  6
CONTINUOUS
 10
4.125000
 20
1.298880
  0
VERTEX
  8
0
  6
CONTINUOUS
 10
4.771360
 20
1.672880
  0
VERTEX
  8
0
  6
CONTINUOUS
 10
4.771360
 20
1.400520
  0
VERTEX
  8
0
  6
CONTINUOUS
 10
4.125000
 20
1.026960
  0
VERTEX
  8
0
  6
CONTINUOUS
 10
4.125000
 20
1.298880
  0
SEQEND
  8
0
  0
SOLID
  8
0
 62
    15
 10
3.075160
 20
2.180640
 11
3.721080
 21
2.554640
 12
3.079120
 22
2.180640
 13
3.725480
 23
2.554640
  0
POLYLINE
  8
0
  6
CONTINUOUS
 66
     1
 40
0.000000
 41
0.000000
  0
VERTEX
  8
0
  6
CONTINUOUS
 10
3.075160
 20
2.180640
  0
VERTEX
  8
0
  6
CONTINUOUS
 10
3.721080
 20
2.554640
  0
VERTEX
  8
0
  6
CONTINUOUS
 10
3.725480
 20
2.554640
  0
VERTEX
  8
0
  6
CONTINUOUS
 10
3.079120
 20
2.180640
  0
VERTEX
  8
0
  6
CONTINUOUS
 10
3.075160
 20
2.180640
  0
SEQEND
  8
0
  0
SOLID
  8
0
 62
    15
 10
3.079120
 20
2.180640
 11
3.725480
 21
2.554640
 12
3.442120
 22
2.180640
 13
4.088480
 23
2.554640
  0
POLYLINE
  8
0
  6
CONTINUOUS
 66
     1
 40
0.000000
 41
0.000000
  0
VERTEX
  8
0
  6
CONTINUOUS
 10
3.079120
 20
2.180640
  0
VERTEX
  8
0
  6
CONTINUOUS
 10
3.725480
 20
2.554640
  0
VERTEX
  8
0
  6
CONTINUOUS
 10
4.088480
 20
2.554640
  0
VERTEX
  8
0
  6
CONTINUOUS
 10
3.442120
 20
2.180640
  0
VERTEX
  8
0
  6
CONTINUOUS
 10
3.079120
 20
2.180640
  0
SEQEND
  8
0
  0
POLYLINE
  8
0
  6
CONTINUOUS
 66
     1
 40
0.000000
 41
0.000000
  0
VERTEX
  8
0
  6
CONTINUOUS
 10
3.079120
 20
2.180640
  0
VERTEX
  8
0
  6
CONTINUOUS
 10
3.442120
 20
2.180640
  0
VERTEX
  8
0
  6
CONTINUOUS
 10
3.442120
 20
1.981760
  0
VERTEX
  8
0
  6
CONTINUOUS
 10
4.125000
 20
1.298880
  0
VERTEX
  8
0
  6
CONTINUOUS
 10
4.125000
 20
1.026960
  0
VERTEX
  8
0
  6
CONTINUOUS
 10
3.075160
 20
1.026960
  0
VERTEX
  8
0
  6
CONTINUOUS
 10
3.075160
 20
2.180640
  0
VERTEX
  8
0
  6
CONTINUOUS
 10
3.079120
 20
2.180640
  0
SEQEND
  8
0
  0
TEXT
  8
0
 10
3.627360
 20
0.829840
 40
0.138189
  1
BA  614
 41
1.000000
  7
SN0
 71
     0
 72
     5
 11
4.217322
 21
0.829840
  0
TEXT
  8
0
 10
3.351480
 20
0.638000
 40
0.138189
  1
1-1/16" x 1-1/8"
 41
1.000000
  7
SN0
 71
     0
 72
     5
 11
4.491443
 21
0.638000
  0
POLYLINE
  8
0
  6
CONTINUOUS
 66
     1
 40
0.014080
 41
0.014080
  0
VERTEX
  8
0
  6
CONTINUOUS
 10
5.589320
 20
2.526920
  0
VERTEX
  8
0
  6
CONTINUOUS
 10
5.952320
 20
2.526920
  0
VERTEX
  8
0
  6
CONTINUOUS
 10
5.952320
 20
2.328040
  0
VERTEX
  8
0
  6
CONTINUOUS
 10
6.635200
 20
1.645160
  0
VERTEX
  8
0
  6
CONTINUOUS
 10
6.635200
 20
1.372800
  0
VERTEX
  8
0
  6
CONTINUOUS
 10
5.584920
 20
1.372800
  0
VERTEX
  8
0
  6
CONTINUOUS
 10
5.584920
 20
2.526920
  0
VERTEX
  8
0
  6
CONTINUOUS
 10
5.589320
 20
2.526920
  0
SEQEND
  8
0
  0
ENDSEC
  0
EOF
