  0
SECTION
  2
HEADER
  9
$ACADVER
  1
AC1006
  9
$EXTMIN
 10
3.084400
 20
0.532840
  9
$EXTMAX
 10
6.092680
 20
2.258960
  9
$LTSCALE
 40
0.044000
  9
$PDMODE
 70
    35
  9
$PDSIZE
 40
0.035200
  0
ENDSEC
  0
SECTION
  2
TABLES
  0
TABLE
  2
LTYPE
 70
     9
  0
LTYPE
  2
CONTINUOUS
 70
    64
  3
Solid line
 72
    65
 73
     0
 40
0.000000
  0
LTYPE
  2
DASHED
 70
    64
  3
__ __ __ __ __ __ __ __ __ __ __ __ __ __ __
 72
    65
 73
     2
 40
0.000330
 49
0.000220
 49
-0.000110
  0
LTYPE
  2
HIDDEN
 70
    64
  3
 _ _ _ _ _ _ _ _ _ _ _ _ _ _ _ _ _ _ _ _ _ _
 72
    65
 73
     2
 40
0.000165
 49
0.000110
 49
-0.000055
  0
LTYPE
  2
CENTER
 70
    64
  3
____ _ ____ _ ____ _ ____ _ ____ _ ____ _ ____
 72
    65
 73
     4
 40
0.000880
 49
0.000550
 49
-0.000110
 49
0.000110
 49
-0.000110
  0
LTYPE
  2
PHANTOM
 70
    64
  3
_____ _ _ _____ _ _ _____ _ _ _____ _ _ ____
 72
    65
 73
     6
 40
0.001100
 49
0.000550
 49
-0.000110
 49
0.000110
 49
-0.000110
 49
0.000110
 49
-0.000110
  0
LTYPE
  2
DOT
 70
    64
  3
...............................................
 72
    65
 73
     2
 40
0.000110
 49
0.000000
 49
-0.000110
  0
LTYPE
  2
DASHDOT
 70
    64
  3
__ . __ . __ . __ . __ . __ . __ . __ . __ . __
 72
    65
 73
     4
 40
0.000440
 49
0.000220
 49
-0.000110
 49
0.000000
 49
-0.000110
  0
LTYPE
  2
BORDER
 70
    64
  3
__ __ . __ __ . __ __ . __ __ . __ __ . __ __
 72
    65
 73
     6
 40
0.000770
 49
0.000220
 49
-0.000110
 49
0.000220
 49
-0.000110
 49
0.000000
 49
-0.000110
  0
LTYPE
  2
DIVIDE
 70
    64
  3
__ . . __ . . __ . . __ . . __ . . __ . . __
 72
    65
 73
     6
 40
0.000550
 49
0.000220
 49
-0.000110
 49
0.000000
 49
-0.000110
 49
0.000000
 49
-0.000110
  0
LTYPE
  2
DOTDOT
 70
    64
  3
 . .  . .  . .  . .  . .  . . 
 72
    65
 73
     5
 40
0.000242
 49
-0.000110
 49
0.000000
 49
-0.000110
 49
0.000000
 49
-0.000110
  0
ENDTAB
  0
TABLE
  2
STYLE
 70
     2
  0
STYLE
 70
     0
  2
SN0
 40
0.000000
 41
0.000440
 50
0.000000
 71
     0
 42
0.000000
  3
ROMAND
  0
STYLE
 70
    68
  2
SV0
 40
0.000000
 41
0.000440
 50
0.000000
 71
     0
 42
0.000000
  3
ROMAND
  0
ENDTAB
  0
TABLE
  2
LAYER
 70
     3
  0
LAYER
  2
FOREGROUND
 70
    64
 62
     7
  6
CONTINUOUS
  0
LAYER
  2
BACKGROUND
 70
    65
 62
    -7
  6
CONTINUOUS
  0
LAYER
  2
0
 70
    64
 62
     7
  6
CONTINUOUS
  0
ENDTAB
  0
ENDSEC
  0
SECTION
  2
ENTITIES
  0
POLYLINE
  8
FOREGROUND
  6
CONTINUOUS
 66
     1
 40
0.000000
 41
0.000000
  0
VERTEX
  8
FOREGROUND
  6
CONTINUOUS
 10
0.000000
 20
2.791800
  0
VERTEX
  8
FOREGROUND
  6
CONTINUOUS
 10
8.499920
 20
2.791800
  0
VERTEX
  8
FOREGROUND
  6
CONTINUOUS
 10
8.499920
 20
-8.208200
  0
VERTEX
  8
FOREGROUND
  6
CONTINUOUS
 10
0.000000
 20
-8.208200
  0
VERTEX
  8
FOREGROUND
  6
CONTINUOUS
 10
0.000000
 20
2.791800
  0
SEQEND
  8
0
  0
POLYLINE
  8
FOREGROUND
  6
CONTINUOUS
 66
     1
 40
0.000000
 41
0.000000
  0
VERTEX
  8
FOREGROUND
  6
CONTINUOUS
 10
0.000000
 20
2.791800
  0
VERTEX
  8
FOREGROUND
  6
CONTINUOUS
 10
8.499920
 20
2.791800
  0
VERTEX
  8
FOREGROUND
  6
CONTINUOUS
 10
8.499920
 20
-8.208200
  0
VERTEX
  8
FOREGROUND
  6
CONTINUOUS
 10
0.000000
 20
-8.208200
  0
VERTEX
  8
FOREGROUND
  6
CONTINUOUS
 10
0.000000
 20
2.791800
  0
SEQEND
  8
0
  0
POLYLINE
  8
0
  6
CONTINUOUS
 66
     1
 40
0.014080
 41
0.014080
  0
VERTEX
  8
0
  6
CONTINUOUS
 10
5.653560
 20
2.094840
  0
VERTEX
  8
0
  6
CONTINUOUS
 10
5.494720
 20
2.094840
  0
VERTEX
  8
0
  6
CONTINUOUS
 10
5.494720
 20
1.203840
  0
VERTEX
  8
0
  6
CONTINUOUS
 10
5.928120
 20
1.203840
  0
VERTEX
  8
0
  6
CONTINUOUS
 10
5.928120
 20
1.272040
  0
VERTEX
  8
0
  6
CONTINUOUS
 10
5.970360
 20
1.287880
  0
VERTEX
  8
0
  6
CONTINUOUS
 10
6.006000
 20
1.308560
  0
VERTEX
  8
0
  6
CONTINUOUS
 10
6.034160
 20
1.333640
  0
VERTEX
  8
0
  6
CONTINUOUS
 10
6.046040
 20
1.347280
  0
VERTEX
  8
0
  6
CONTINUOUS
 10
6.064520
 20
1.376760
  0
VERTEX
  8
0
  6
CONTINUOUS
 10
6.072000
 20
1.392600
  0
VERTEX
  8
0
  6
CONTINUOUS
 10
6.081680
 20
1.426040
  0
VERTEX
  8
0
  6
CONTINUOUS
 10
6.085640
 20
1.460360
  0
VERTEX
  8
0
  6
CONTINUOUS
 10
6.085640
 20
1.478400
  0
VERTEX
  8
0
  6
CONTINUOUS
 10
6.081680
 20
1.514040
  0
VERTEX
  8
0
  6
CONTINUOUS
 10
6.072880
 20
1.549680
  0
VERTEX
  8
0
  6
CONTINUOUS
 10
6.059680
 20
1.584440
  0
VERTEX
  8
0
  6
CONTINUOUS
 10
6.042080
 20
1.618320
  0
VERTEX
  8
0
  6
CONTINUOUS
 10
6.008200
 20
1.664520
  0
VERTEX
  8
0
  6
CONTINUOUS
 10
5.980920
 20
1.691800
  0
VERTEX
  8
0
  6
CONTINUOUS
 10
5.950560
 20
1.716000
  0
VERTEX
  8
0
  6
CONTINUOUS
 10
5.917560
 20
1.735360
  0
VERTEX
  8
0
  6
CONTINUOUS
 10
5.868720
 20
1.762640
  0
VERTEX
  8
0
  6
CONTINUOUS
 10
5.826040
 20
1.791680
  0
VERTEX
  8
0
  6
CONTINUOUS
 10
5.788640
 20
1.822920
  0
VERTEX
  8
0
  6
CONTINUOUS
 10
5.756520
 20
1.855920
  0
VERTEX
  8
0
  6
CONTINUOUS
 10
5.738040
 20
1.878800
  0
VERTEX
  8
0
  6
CONTINUOUS
 10
5.707240
 20
1.925880
  0
VERTEX
  8
0
  6
CONTINUOUS
 10
5.694480
 20
1.950080
  0
VERTEX
  8
0
  6
CONTINUOUS
 10
5.674680
 20
1.998920
  0
VERTEX
  8
0
  6
CONTINUOUS
 10
5.661040
 20
2.048640
  0
VERTEX
  8
0
  6
CONTINUOUS
 10
5.653560
 20
2.097480
  0
VERTEX
  8
0
  6
CONTINUOUS
 10
5.653560
 20
2.094840
  0
SEQEND
  8
0
  0
SOLID
  8
0
 62
     7
 10
3.615480
 20
1.424720
 11
4.264040
 21
1.794760
 12
3.634840
 22
1.391720
 13
4.283400
 23
1.762200
  0
POLYLINE
  8
0
  6
CONTINUOUS
 66
     1
 40
0.000000
 41
0.000000
  0
VERTEX
  8
0
  6
CONTINUOUS
 10
3.615480
 20
1.424720
  0
VERTEX
  8
0
  6
CONTINUOUS
 10
4.264040
 20
1.794760
  0
VERTEX
  8
0
  6
CONTINUOUS
 10
4.283400
 20
1.762200
  0
VERTEX
  8
0
  6
CONTINUOUS
 10
3.634840
 20
1.391720
  0
VERTEX
  8
0
  6
CONTINUOUS
 10
3.615480
 20
1.424720
  0
SEQEND
  8
0
  0
SOLID
  8
0
 62
     7
 10
3.252040
 20
1.839200
 11
3.900600
 21
2.209240
 12
3.267000
 22
1.789920
 13
3.915560
 23
2.159960
  0
POLYLINE
  8
0
  6
CONTINUOUS
 66
     1
 40
0.000000
 41
0.000000
  0
VERTEX
  8
0
  6
CONTINUOUS
 10
3.252040
 20
1.839200
  0
VERTEX
  8
0
  6
CONTINUOUS
 10
3.900600
 20
2.209240
  0
VERTEX
  8
0
  6
CONTINUOUS
 10
3.915560
 20
2.159960
  0
VERTEX
  8
0
  6
CONTINUOUS
 10
3.267000
 20
1.789920
  0
VERTEX
  8
0
  6
CONTINUOUS
 10
3.252040
 20
1.839200
  0
SEQEND
  8
0
  0
SOLID
  8
0
 62
     7
 10
3.267000
 20
1.789920
 11
3.915560
 21
2.159960
 12
3.288560
 22
1.741080
 13
3.937120
 23
2.111120
  0
POLYLINE
  8
0
  6
CONTINUOUS
 66
     1
 40
0.000000
 41
0.000000
  0
VERTEX
  8
0
  6
CONTINUOUS
 10
3.267000
 20
1.789920
  0
VERTEX
  8
0
  6
CONTINUOUS
 10
3.915560
 20
2.159960
  0
VERTEX
  8
0
  6
CONTINUOUS
 10
3.937120
 20
2.111120
  0
VERTEX
  8
0
  6
CONTINUOUS
 10
3.288560
 20
1.741080
  0
VERTEX
  8
0
  6
CONTINUOUS
 10
3.267000
 20
1.789920
  0
SEQEND
  8
0
  0
SOLID
  8
0
 62
     7
 10
3.288560
 20
1.741080
 11
3.937120
 21
2.111120
 12
3.317160
 22
1.693120
 13
3.965720
 23
2.063160
  0
POLYLINE
  8
0
  6
CONTINUOUS
 66
     1
 40
0.000000
 41
0.000000
  0
VERTEX
  8
0
  6
CONTINUOUS
 10
3.288560
 20
1.741080
  0
VERTEX
  8
0
  6
CONTINUOUS
 10
3.937120
 20
2.111120
  0
VERTEX
  8
0
  6
CONTINUOUS
 10
3.965720
 20
2.063160
  0
VERTEX
  8
0
  6
CONTINUOUS
 10
3.317160
 20
1.693120
  0
VERTEX
  8
0
  6
CONTINUOUS
 10
3.288560
 20
1.741080
  0
SEQEND
  8
0
  0
SOLID
  8
0
 62
     7
 10
3.317160
 20
1.693120
 11
3.965720
 21
2.063160
 12
3.353240
 22
1.646920
 13
4.001800
 23
2.016960
  0
POLYLINE
  8
0
  6
CONTINUOUS
 66
     1
 40
0.000000
 41
0.000000
  0
VERTEX
  8
0
  6
CONTINUOUS
 10
3.317160
 20
1.693120
  0
VERTEX
  8
0
  6
CONTINUOUS
 10
3.965720
 20
2.063160
  0
VERTEX
  8
0
  6
CONTINUOUS
 10
4.001800
 20
2.016960
  0
VERTEX
  8
0
  6
CONTINUOUS
 10
3.353240
 20
1.646920
  0
VERTEX
  8
0
  6
CONTINUOUS
 10
3.317160
 20
1.693120
  0
SEQEND
  8
0
  0
SOLID
  8
0
 62
     7
 10
3.353240
 20
1.646920
 11
4.001800
 21
2.016960
 12
3.396800
 22
1.603360
 13
4.045360
 23
1.973400
  0
POLYLINE
  8
0
  6
CONTINUOUS
 66
     1
 40
0.000000
 41
0.000000
  0
VERTEX
  8
0
  6
CONTINUOUS
 10
3.353240
 20
1.646920
  0
VERTEX
  8
0
  6
CONTINUOUS
 10
4.001800
 20
2.016960
  0
VERTEX
  8
0
  6
CONTINUOUS
 10
4.045360
 20
1.973400
  0
VERTEX
  8
0
  6
CONTINUOUS
 10
3.396800
 20
1.603360
  0
VERTEX
  8
0
  6
CONTINUOUS
 10
3.353240
 20
1.646920
  0
SEQEND
  8
0
  0
SOLID
  8
0
 62
     7
 10
3.396800
 20
1.603360
 11
4.045360
 21
1.973400
 12
3.448280
 22
1.562880
 13
4.096840
 23
1.932920
  0
POLYLINE
  8
0
  6
CONTINUOUS
 66
     1
 40
0.000000
 41
0.000000
  0
VERTEX
  8
0
  6
CONTINUOUS
 10
3.396800
 20
1.603360
  0
VERTEX
  8
0
  6
CONTINUOUS
 10
4.045360
 20
1.973400
  0
VERTEX
  8
0
  6
CONTINUOUS
 10
4.096840
 20
1.932920
  0
VERTEX
  8
0
  6
CONTINUOUS
 10
3.448280
 20
1.562880
  0
VERTEX
  8
0
  6
CONTINUOUS
 10
3.396800
 20
1.603360
  0
SEQEND
  8
0
  0
SOLID
  8
0
 62
     7
 10
3.448280
 20
1.562880
 11
4.096840
 21
1.932920
 12
3.507680
 22
1.525920
 13
4.156240
 23
1.895960
  0
POLYLINE
  8
0
  6
CONTINUOUS
 66
     1
 40
0.000000
 41
0.000000
  0
VERTEX
  8
0
  6
CONTINUOUS
 10
3.448280
 20
1.562880
  0
VERTEX
  8
0
  6
CONTINUOUS
 10
4.096840
 20
1.932920
  0
VERTEX
  8
0
  6
CONTINUOUS
 10
4.156240
 20
1.895960
  0
VERTEX
  8
0
  6
CONTINUOUS
 10
3.507680
 20
1.525920
  0
VERTEX
  8
0
  6
CONTINUOUS
 10
3.448280
 20
1.562880
  0
SEQEND
  8
0
  0
SOLID
  8
0
 62
     7
 10
3.507680
 20
1.525920
 11
4.156240
 21
1.895960
 12
3.538480
 22
1.506120
 13
4.187040
 23
1.876160
  0
POLYLINE
  8
0
  6
CONTINUOUS
 66
     1
 40
0.000000
 41
0.000000
  0
VERTEX
  8
0
  6
CONTINUOUS
 10
3.507680
 20
1.525920
  0
VERTEX
  8
0
  6
CONTINUOUS
 10
4.156240
 20
1.895960
  0
VERTEX
  8
0
  6
CONTINUOUS
 10
4.187040
 20
1.876160
  0
VERTEX
  8
0
  6
CONTINUOUS
 10
3.538480
 20
1.506120
  0
VERTEX
  8
0
  6
CONTINUOUS
 10
3.507680
 20
1.525920
  0
SEQEND
  8
0
  0
SOLID
  8
0
 62
     7
 10
3.538480
 20
1.506120
 11
4.187040
 21
1.876160
 12
3.567080
 22
1.482360
 13
4.215640
 23
1.852400
  0
POLYLINE
  8
0
  6
CONTINUOUS
 66
     1
 40
0.000000
 41
0.000000
  0
VERTEX
  8
0
  6
CONTINUOUS
 10
3.538480
 20
1.506120
  0
VERTEX
  8
0
  6
CONTINUOUS
 10
4.187040
 20
1.876160
  0
VERTEX
  8
0
  6
CONTINUOUS
 10
4.215640
 20
1.852400
  0
VERTEX
  8
0
  6
CONTINUOUS
 10
3.567080
 20
1.482360
  0
VERTEX
  8
0
  6
CONTINUOUS
 10
3.538480
 20
1.506120
  0
SEQEND
  8
0
  0
SOLID
  8
0
 62
     7
 10
3.567080
 20
1.482360
 11
4.215640
 21
1.852400
 12
3.593040
 22
1.455080
 13
4.241600
 23
1.825120
  0
POLYLINE
  8
0
  6
CONTINUOUS
 66
     1
 40
0.000000
 41
0.000000
  0
VERTEX
  8
0
  6
CONTINUOUS
 10
3.567080
 20
1.482360
  0
VERTEX
  8
0
  6
CONTINUOUS
 10
4.215640
 20
1.852400
  0
VERTEX
  8
0
  6
CONTINUOUS
 10
4.241600
 20
1.825120
  0
VERTEX
  8
0
  6
CONTINUOUS
 10
3.593040
 20
1.455080
  0
VERTEX
  8
0
  6
CONTINUOUS
 10
3.567080
 20
1.482360
  0
SEQEND
  8
0
  0
SOLID
  8
0
 62
     7
 10
3.593040
 20
1.455080
 11
4.241600
 21
1.825120
 12
3.615480
 22
1.424720
 13
4.264040
 23
1.794760
  0
POLYLINE
  8
0
  6
CONTINUOUS
 66
     1
 40
0.000000
 41
0.000000
  0
VERTEX
  8
0
  6
CONTINUOUS
 10
3.593040
 20
1.455080
  0
VERTEX
  8
0
  6
CONTINUOUS
 10
4.241600
 20
1.825120
  0
VERTEX
  8
0
  6
CONTINUOUS
 10
4.264040
 20
1.794760
  0
VERTEX
  8
0
  6
CONTINUOUS
 10
3.615480
 20
1.424720
  0
VERTEX
  8
0
  6
CONTINUOUS
 10
3.593040
 20
1.455080
  0
SEQEND
  8
0
  0
SOLID
  8
0
 62
    15
 10
3.084840
 20
1.885400
 11
3.733400
 21
2.255440
 12
3.243680
 22
1.885400
 13
3.892240
 23
2.255440
  0
POLYLINE
  8
0
  6
CONTINUOUS
 66
     1
 40
0.000000
 41
0.000000
  0
VERTEX
  8
0
  6
CONTINUOUS
 10
3.084840
 20
1.885400
  0
VERTEX
  8
0
  6
CONTINUOUS
 10
3.733400
 20
2.255440
  0
VERTEX
  8
0
  6
CONTINUOUS
 10
3.892240
 20
2.255440
  0
VERTEX
  8
0
  6
CONTINUOUS
 10
3.243680
 20
1.885400
  0
VERTEX
  8
0
  6
CONTINUOUS
 10
3.084840
 20
1.885400
  0
SEQEND
  8
0
  0
SOLID
  8
0
 62
     7
 10
3.634840
 20
1.391720
 11
4.283400
 21
1.762200
 12
3.650680
 22
1.357840
 13
4.299240
 23
1.727880
  0
POLYLINE
  8
0
  6
CONTINUOUS
 66
     1
 40
0.000000
 41
0.000000
  0
VERTEX
  8
0
  6
CONTINUOUS
 10
3.634840
 20
1.391720
  0
VERTEX
  8
0
  6
CONTINUOUS
 10
4.283400
 20
1.762200
  0
VERTEX
  8
0
  6
CONTINUOUS
 10
4.299240
 20
1.727880
  0
VERTEX
  8
0
  6
CONTINUOUS
 10
3.650680
 20
1.357840
  0
VERTEX
  8
0
  6
CONTINUOUS
 10
3.634840
 20
1.391720
  0
SEQEND
  8
0
  0
SOLID
  8
0
 62
     7
 10
3.650680
 20
1.357840
 11
4.299240
 21
1.727880
 12
3.662120
 22
1.322200
 13
4.310680
 23
1.692240
  0
POLYLINE
  8
0
  6
CONTINUOUS
 66
     1
 40
0.000000
 41
0.000000
  0
VERTEX
  8
0
  6
CONTINUOUS
 10
3.650680
 20
1.357840
  0
VERTEX
  8
0
  6
CONTINUOUS
 10
4.299240
 20
1.727880
  0
VERTEX
  8
0
  6
CONTINUOUS
 10
4.310680
 20
1.692240
  0
VERTEX
  8
0
  6
CONTINUOUS
 10
3.662120
 20
1.322200
  0
VERTEX
  8
0
  6
CONTINUOUS
 10
3.650680
 20
1.357840
  0
SEQEND
  8
0
  0
SOLID
  8
0
 62
     7
 10
3.662120
 20
1.322200
 11
4.310680
 21
1.692240
 12
3.668720
 22
1.286560
 13
4.317280
 23
1.656600
  0
POLYLINE
  8
0
  6
CONTINUOUS
 66
     1
 40
0.000000
 41
0.000000
  0
VERTEX
  8
0
  6
CONTINUOUS
 10
3.662120
 20
1.322200
  0
VERTEX
  8
0
  6
CONTINUOUS
 10
4.310680
 20
1.692240
  0
VERTEX
  8
0
  6
CONTINUOUS
 10
4.317280
 20
1.656600
  0
VERTEX
  8
0
  6
CONTINUOUS
 10
3.668720
 20
1.286560
  0
VERTEX
  8
0
  6
CONTINUOUS
 10
3.662120
 20
1.322200
  0
SEQEND
  8
0
  0
SOLID
  8
0
 62
     7
 10
3.668720
 20
1.286560
 11
4.317280
 21
1.656600
 12
3.670920
 22
1.250920
 13
4.319480
 23
1.620960
  0
POLYLINE
  8
0
  6
CONTINUOUS
 66
     1
 40
0.000000
 41
0.000000
  0
VERTEX
  8
0
  6
CONTINUOUS
 10
3.668720
 20
1.286560
  0
VERTEX
  8
0
  6
CONTINUOUS
 10
4.317280
 20
1.656600
  0
VERTEX
  8
0
  6
CONTINUOUS
 10
4.319480
 20
1.620960
  0
VERTEX
  8
0
  6
CONTINUOUS
 10
3.670920
 20
1.250920
  0
VERTEX
  8
0
  6
CONTINUOUS
 10
3.668720
 20
1.286560
  0
SEQEND
  8
0
  0
SOLID
  8
0
 62
    15
 10
3.670920
 20
1.250920
 11
4.319480
 21
1.620960
 12
3.667840
 22
1.216600
 13
4.316400
 23
1.586640
  0
POLYLINE
  8
0
  6
CONTINUOUS
 66
     1
 40
0.000000
 41
0.000000
  0
VERTEX
  8
0
  6
CONTINUOUS
 10
3.670920
 20
1.250920
  0
VERTEX
  8
0
  6
CONTINUOUS
 10
4.319480
 20
1.620960
  0
VERTEX
  8
0
  6
CONTINUOUS
 10
4.316400
 20
1.586640
  0
VERTEX
  8
0
  6
CONTINUOUS
 10
3.667840
 20
1.216600
  0
VERTEX
  8
0
  6
CONTINUOUS
 10
3.670920
 20
1.250920
  0
SEQEND
  8
0
  0
SOLID
  8
0
 62
    15
 10
3.667840
 20
1.216600
 11
4.316400
 21
1.586640
 12
3.659040
 22
1.183160
 13
4.307600
 23
1.553200
  0
POLYLINE
  8
0
  6
CONTINUOUS
 66
     1
 40
0.000000
 41
0.000000
  0
VERTEX
  8
0
  6
CONTINUOUS
 10
3.667840
 20
1.216600
  0
VERTEX
  8
0
  6
CONTINUOUS
 10
4.316400
 20
1.586640
  0
VERTEX
  8
0
  6
CONTINUOUS
 10
4.307600
 20
1.553200
  0
VERTEX
  8
0
  6
CONTINUOUS
 10
3.659040
 20
1.183160
  0
VERTEX
  8
0
  6
CONTINUOUS
 10
3.667840
 20
1.216600
  0
SEQEND
  8
0
  0
SOLID
  8
0
 62
    15
 10
3.659040
 20
1.183160
 11
4.307600
 21
1.553200
 12
3.644080
 22
1.152360
 13
4.292640
 23
1.522400
  0
POLYLINE
  8
0
  6
CONTINUOUS
 66
     1
 40
0.000000
 41
0.000000
  0
VERTEX
  8
0
  6
CONTINUOUS
 10
3.659040
 20
1.183160
  0
VERTEX
  8
0
  6
CONTINUOUS
 10
4.307600
 20
1.553200
  0
VERTEX
  8
0
  6
CONTINUOUS
 10
4.292640
 20
1.522400
  0
VERTEX
  8
0
  6
CONTINUOUS
 10
3.644080
 20
1.152360
  0
VERTEX
  8
0
  6
CONTINUOUS
 10
3.659040
 20
1.183160
  0
SEQEND
  8
0
  0
SOLID
  8
0
 62
    15
 10
3.644080
 20
1.152360
 11
4.292640
 21
1.522400
 12
3.623400
 22
1.124200
 13
4.271960
 23
1.494240
  0
POLYLINE
  8
0
  6
CONTINUOUS
 66
     1
 40
0.000000
 41
0.000000
  0
VERTEX
  8
0
  6
CONTINUOUS
 10
3.644080
 20
1.152360
  0
VERTEX
  8
0
  6
CONTINUOUS
 10
4.292640
 20
1.522400
  0
VERTEX
  8
0
  6
CONTINUOUS
 10
4.271960
 20
1.494240
  0
VERTEX
  8
0
  6
CONTINUOUS
 10
3.623400
 20
1.124200
  0
VERTEX
  8
0
  6
CONTINUOUS
 10
3.644080
 20
1.152360
  0
SEQEND
  8
0
  0
SOLID
  8
0
 62
    15
 10
3.518240
 20
1.062600
 11
4.166800
 21
1.433080
 12
3.518240
 22
0.994400
 13
4.166800
 23
1.364440
  0
POLYLINE
  8
0
  6
CONTINUOUS
 66
     1
 40
0.000000
 41
0.000000
  0
VERTEX
  8
0
  6
CONTINUOUS
 10
3.518240
 20
1.062600
  0
VERTEX
  8
0
  6
CONTINUOUS
 10
4.166800
 20
1.433080
  0
VERTEX
  8
0
  6
CONTINUOUS
 10
4.166800
 20
1.364440
  0
VERTEX
  8
0
  6
CONTINUOUS
 10
3.518240
 20
0.994400
  0
VERTEX
  8
0
  6
CONTINUOUS
 10
3.518240
 20
1.062600
  0
SEQEND
  8
0
  0
SOLID
  8
0
 62
    15
 10
3.595680
 20
1.099560
 11
4.243800
 21
1.469600
 12
3.560480
 22
1.078880
 13
4.209040
 23
1.448920
  0
POLYLINE
  8
0
  6
CONTINUOUS
 66
     1
 40
0.000000
 41
0.000000
  0
VERTEX
  8
0
  6
CONTINUOUS
 10
3.595680
 20
1.099560
  0
VERTEX
  8
0
  6
CONTINUOUS
 10
4.243800
 20
1.469600
  0
VERTEX
  8
0
  6
CONTINUOUS
 10
4.209040
 20
1.448920
  0
VERTEX
  8
0
  6
CONTINUOUS
 10
3.560480
 20
1.078880
  0
VERTEX
  8
0
  6
CONTINUOUS
 10
3.595680
 20
1.099560
  0
SEQEND
  8
0
  0
SOLID
  8
0
 62
    15
 10
3.623400
 20
1.124200
 11
4.271960
 21
1.494240
 12
3.595680
 22
1.099560
 13
4.243800
 23
1.469600
  0
POLYLINE
  8
0
  6
CONTINUOUS
 66
     1
 40
0.000000
 41
0.000000
  0
VERTEX
  8
0
  6
CONTINUOUS
 10
3.623400
 20
1.124200
  0
VERTEX
  8
0
  6
CONTINUOUS
 10
4.271960
 20
1.494240
  0
VERTEX
  8
0
  6
CONTINUOUS
 10
4.243800
 20
1.469600
  0
VERTEX
  8
0
  6
CONTINUOUS
 10
3.595680
 20
1.099560
  0
VERTEX
  8
0
  6
CONTINUOUS
 10
3.623400
 20
1.124200
  0
SEQEND
  8
0
  0
SOLID
  8
0
 62
     7
 10
3.243680
 20
1.888040
 11
3.892240
 21
2.258080
 12
3.252040
 22
1.839200
 13
3.900600
 23
2.209240
  0
POLYLINE
  8
0
  6
CONTINUOUS
 66
     1
 40
0.000000
 41
0.000000
  0
VERTEX
  8
0
  6
CONTINUOUS
 10
3.243680
 20
1.888040
  0
VERTEX
  8
0
  6
CONTINUOUS
 10
3.892240
 20
2.258080
  0
VERTEX
  8
0
  6
CONTINUOUS
 10
3.900600
 20
2.209240
  0
VERTEX
  8
0
  6
CONTINUOUS
 10
3.252040
 20
1.839200
  0
VERTEX
  8
0
  6
CONTINUOUS
 10
3.243680
 20
1.888040
  0
SEQEND
  8
0
  0
POLYLINE
  8
0
  6
CONTINUOUS
 66
     1
 40
0.000000
 41
0.000000
  0
VERTEX
  8
0
  6
CONTINUOUS
 10
3.243680
 20
1.888040
  0
VERTEX
  8
0
  6
CONTINUOUS
 10
3.252040
 20
1.839200
  0
VERTEX
  8
0
  6
CONTINUOUS
 10
3.267000
 20
1.789920
  0
VERTEX
  8
0
  6
CONTINUOUS
 10
3.288560
 20
1.741080
  0
VERTEX
  8
0
  6
CONTINUOUS
 10
3.317160
 20
1.693120
  0
VERTEX
  8
0
  6
CONTINUOUS
 10
3.353240
 20
1.646920
  0
VERTEX
  8
0
  6
CONTINUOUS
 10
3.396800
 20
1.603360
  0
VERTEX
  8
0
  6
CONTINUOUS
 10
3.448280
 20
1.562880
  0
VERTEX
  8
0
  6
CONTINUOUS
 10
3.507680
 20
1.525920
  0
VERTEX
  8
0
  6
CONTINUOUS
 10
3.538480
 20
1.506120
  0
VERTEX
  8
0
  6
CONTINUOUS
 10
3.567080
 20
1.482360
  0
VERTEX
  8
0
  6
CONTINUOUS
 10
3.593040
 20
1.455080
  0
VERTEX
  8
0
  6
CONTINUOUS
 10
3.615480
 20
1.424720
  0
VERTEX
  8
0
  6
CONTINUOUS
 10
3.634840
 20
1.391720
  0
VERTEX
  8
0
  6
CONTINUOUS
 10
3.650680
 20
1.357840
  0
VERTEX
  8
0
  6
CONTINUOUS
 10
3.662120
 20
1.322200
  0
VERTEX
  8
0
  6
CONTINUOUS
 10
3.668720
 20
1.286560
  0
VERTEX
  8
0
  6
CONTINUOUS
 10
3.670920
 20
1.250920
  0
VERTEX
  8
0
  6
CONTINUOUS
 10
3.667840
 20
1.216600
  0
VERTEX
  8
0
  6
CONTINUOUS
 10
3.659040
 20
1.183160
  0
VERTEX
  8
0
  6
CONTINUOUS
 10
3.644080
 20
1.152360
  0
VERTEX
  8
0
  6
CONTINUOUS
 10
3.623400
 20
1.124200
  0
VERTEX
  8
0
  6
CONTINUOUS
 10
3.595680
 20
1.099560
  0
VERTEX
  8
0
  6
CONTINUOUS
 10
3.560480
 20
1.078880
  0
VERTEX
  8
0
  6
CONTINUOUS
 10
3.518240
 20
1.062600
  0
VERTEX
  8
0
  6
CONTINUOUS
 10
3.518240
 20
0.994400
  0
VERTEX
  8
0
  6
CONTINUOUS
 10
3.084840
 20
0.994400
  0
VERTEX
  8
0
  6
CONTINUOUS
 10
3.084840
 20
1.885400
  0
VERTEX
  8
0
  6
CONTINUOUS
 10
3.243680
 20
1.885400
  0
VERTEX
  8
0
  6
CONTINUOUS
 10
3.243680
 20
1.888040
  0
SEQEND
  8
0
  0
TEXT
  8
0
 10
3.406920
 20
0.767360
 40
0.138160
  1
BA  611
 41
1.000000
  7
SN0
 71
     0
 72
     5
 11
3.997746
 21
0.767360
  0
TEXT
  8
0
 10
3.232680
 20
0.575960
 40
0.138160
  1
5/8" x 15/16"
 41
1.000000
  7
SN0
 71
     0
 72
     5
 11
4.171865
 21
0.575960
  0
ENDSEC
  0
EOF
