  0
SECTION
  2
HEADER
  9
$ACADVER
  1
AC1006
  9
$EXTMIN
 10
2.792240
 20
0.794640
  9
$EXTMAX
 10
7.614640
 20
4.813600
  9
$LTSCALE
 40
0.044000
  9
$PDMODE
 70
    35
  9
$PDSIZE
 40
0.035200
  0
ENDSEC
  0
SECTION
  2
TABLES
  0
TABLE
  2
LTYPE
 70
     9
  0
LTYPE
  2
CONTINUOUS
 70
    64
  3
Solid line
 72
    65
 73
     0
 40
0.000000
  0
LTYPE
  2
DASHED
 70
    64
  3
__ __ __ __ __ __ __ __ __ __ __ __ __ __ __
 72
    65
 73
     2
 40
0.000330
 49
0.000220
 49
-0.000110
  0
LTYPE
  2
HIDDEN
 70
    64
  3
 _ _ _ _ _ _ _ _ _ _ _ _ _ _ _ _ _ _ _ _ _ _
 72
    65
 73
     2
 40
0.000165
 49
0.000110
 49
-0.000055
  0
LTYPE
  2
CENTER
 70
    64
  3
____ _ ____ _ ____ _ ____ _ ____ _ ____ _ ____
 72
    65
 73
     4
 40
0.000880
 49
0.000550
 49
-0.000110
 49
0.000110
 49
-0.000110
  0
LTYPE
  2
PHANTOM
 70
    64
  3
_____ _ _ _____ _ _ _____ _ _ _____ _ _ ____
 72
    65
 73
     6
 40
0.001100
 49
0.000550
 49
-0.000110
 49
0.000110
 49
-0.000110
 49
0.000110
 49
-0.000110
  0
LTYPE
  2
DOT
 70
    64
  3
...............................................
 72
    65
 73
     2
 40
0.000110
 49
0.000000
 49
-0.000110
  0
LTYPE
  2
DASHDOT
 70
    64
  3
__ . __ . __ . __ . __ . __ . __ . __ . __ . __
 72
    65
 73
     4
 40
0.000440
 49
0.000220
 49
-0.000110
 49
0.000000
 49
-0.000110
  0
LTYPE
  2
BORDER
 70
    64
  3
__ __ . __ __ . __ __ . __ __ . __ __ . __ __
 72
    65
 73
     6
 40
0.000770
 49
0.000220
 49
-0.000110
 49
0.000220
 49
-0.000110
 49
0.000000
 49
-0.000110
  0
LTYPE
  2
DIVIDE
 70
    64
  3
__ . . __ . . __ . . __ . . __ . . __ . . __
 72
    65
 73
     6
 40
0.000550
 49
0.000220
 49
-0.000110
 49
0.000000
 49
-0.000110
 49
0.000000
 49
-0.000110
  0
LTYPE
  2
DOTDOT
 70
    64
  3
 . .  . .  . .  . .  . .  . . 
 72
    65
 73
     5
 40
0.000242
 49
-0.000110
 49
0.000000
 49
-0.000110
 49
0.000000
 49
-0.000110
  0
ENDTAB
  0
TABLE
  2
STYLE
 70
     2
  0
STYLE
 70
     0
  2
SN0
 40
0.000000
 41
0.000440
 50
0.000000
 71
     0
 42
0.000000
  3
ROMAND
  0
STYLE
 70
    68
  2
SV0
 40
0.000000
 41
0.000440
 50
0.000000
 71
     0
 42
0.000000
  3
ROMAND
  0
ENDTAB
  0
TABLE
  2
LAYER
 70
     3
  0
LAYER
  2
FOREGROUND
 70
    64
 62
     7
  6
CONTINUOUS
  0
LAYER
  2
BACKGROUND
 70
    65
 62
    -7
  6
CONTINUOUS
  0
LAYER
  2
0
 70
    64
 62
     7
  6
CONTINUOUS
  0
ENDTAB
  0
ENDSEC
  0
SECTION
  2
ENTITIES
  0
POLYLINE
  8
FOREGROUND
  6
CONTINUOUS
 66
     1
 40
0.000000
 41
0.000000
  0
VERTEX
  8
FOREGROUND
  6
CONTINUOUS
 10
0.000000
 20
5.608240
  0
VERTEX
  8
FOREGROUND
  6
CONTINUOUS
 10
8.499920
 20
5.608240
  0
VERTEX
  8
FOREGROUND
  6
CONTINUOUS
 10
8.499920
 20
-5.391760
  0
VERTEX
  8
FOREGROUND
  6
CONTINUOUS
 10
0.000000
 20
-5.391760
  0
VERTEX
  8
FOREGROUND
  6
CONTINUOUS
 10
0.000000
 20
5.608240
  0
SEQEND
  8
0
  0
POLYLINE
  8
FOREGROUND
  6
CONTINUOUS
 66
     1
 40
0.000000
 41
0.000000
  0
VERTEX
  8
FOREGROUND
  6
CONTINUOUS
 10
0.000000
 20
5.608240
  0
VERTEX
  8
FOREGROUND
  6
CONTINUOUS
 10
8.499920
 20
5.608240
  0
VERTEX
  8
FOREGROUND
  6
CONTINUOUS
 10
8.499920
 20
-5.391760
  0
VERTEX
  8
FOREGROUND
  6
CONTINUOUS
 10
0.000000
 20
-5.391760
  0
VERTEX
  8
FOREGROUND
  6
CONTINUOUS
 10
0.000000
 20
5.608240
  0
SEQEND
  8
0
  0
POLYLINE
  8
0
  6
CONTINUOUS
 66
     1
 40
0.014080
 41
0.014080
  0
VERTEX
  8
0
  6
CONTINUOUS
 10
4.701840
 20
4.077480
  0
VERTEX
  8
0
  6
CONTINUOUS
 10
7.216000
 20
4.084520
  0
VERTEX
  8
0
  6
CONTINUOUS
 10
7.609360
 20
4.438720
  0
VERTEX
  8
0
  6
CONTINUOUS
 10
7.336120
 20
4.741880
  0
VERTEX
  8
0
  6
CONTINUOUS
 10
7.159680
 20
4.583040
  0
VERTEX
  8
0
  6
CONTINUOUS
 10
7.117440
 20
4.617800
  0
VERTEX
  8
0
  6
CONTINUOUS
 10
7.073440
 20
4.648160
  0
VERTEX
  8
0
  6
CONTINUOUS
 10
7.028120
 20
4.674560
  0
VERTEX
  8
0
  6
CONTINUOUS
 10
6.981040
 20
4.696560
  0
VERTEX
  8
0
  6
CONTINUOUS
 10
6.933080
 20
4.715040
  0
VERTEX
  8
0
  6
CONTINUOUS
 10
6.883800
 20
4.730000
  0
VERTEX
  8
0
  6
CONTINUOUS
 10
6.833640
 20
4.741440
  0
VERTEX
  8
0
  6
CONTINUOUS
 10
6.782600
 20
4.749800
  0
VERTEX
  8
0
  6
CONTINUOUS
 10
6.730680
 20
4.755080
  0
VERTEX
  8
0
  6
CONTINUOUS
 10
6.678320
 20
4.757720
  0
VERTEX
  8
0
  6
CONTINUOUS
 10
6.625080
 20
4.757720
  0
VERTEX
  8
0
  6
CONTINUOUS
 10
6.571840
 20
4.755080
  0
VERTEX
  8
0
  6
CONTINUOUS
 10
6.518160
 20
4.750680
  0
VERTEX
  8
0
  6
CONTINUOUS
 10
6.464040
 20
4.744080
  0
VERTEX
  8
0
  6
CONTINUOUS
 10
6.355800
 20
4.725160
  0
VERTEX
  8
0
  6
CONTINUOUS
 10
6.248440
 20
4.700960
  0
VERTEX
  8
0
  6
CONTINUOUS
 10
6.142400
 20
4.672800
  0
VERTEX
  8
0
  6
CONTINUOUS
 10
5.988400
 20
4.626160
  0
VERTEX
  8
0
  6
CONTINUOUS
 10
5.753000
 20
4.550480
  0
VERTEX
  8
0
  6
CONTINUOUS
 10
5.668960
 20
4.525400
  0
VERTEX
  8
0
  6
CONTINUOUS
 10
5.591960
 20
4.506040
  0
VERTEX
  8
0
  6
CONTINUOUS
 10
5.517600
 20
4.492840
  0
VERTEX
  8
0
  6
CONTINUOUS
 10
5.478880
 20
4.487560
  0
VERTEX
  8
0
  6
CONTINUOUS
 10
5.398360
 20
4.481400
  0
VERTEX
  8
0
  6
CONTINUOUS
 10
5.314760
 20
4.479200
  0
VERTEX
  8
0
  6
CONTINUOUS
 10
5.229400
 20
4.481400
  0
VERTEX
  8
0
  6
CONTINUOUS
 10
5.142280
 20
4.488440
  0
VERTEX
  8
0
  6
CONTINUOUS
 10
5.054720
 20
4.499440
  0
VERTEX
  8
0
  6
CONTINUOUS
 10
4.967160
 20
4.514400
  0
VERTEX
  8
0
  6
CONTINUOUS
 10
4.881360
 20
4.533760
  0
VERTEX
  8
0
  6
CONTINUOUS
 10
4.797760
 20
4.557520
  0
VERTEX
  8
0
  6
CONTINUOUS
 10
4.717240
 20
4.584800
  0
VERTEX
  8
0
  6
CONTINUOUS
 10
4.640240
 20
4.616480
  0
VERTEX
  8
0
  6
CONTINUOUS
 10
4.568520
 20
4.651680
  0
VERTEX
  8
0
  6
CONTINUOUS
 10
4.534640
 20
4.670600
  0
VERTEX
  8
0
  6
CONTINUOUS
 10
4.471280
 20
4.711520
  0
VERTEX
  8
0
  6
CONTINUOUS
 10
4.442240
 20
4.733520
  0
VERTEX
  8
0
  6
CONTINUOUS
 10
4.390320
 20
4.780160
  0
VERTEX
  8
0
  6
CONTINUOUS
 10
4.363920
 20
4.807880
  0
VERTEX
  8
0
  6
CONTINUOUS
 10
4.187480
 20
4.649040
  0
VERTEX
  8
0
  6
CONTINUOUS
 10
4.701840
 20
4.077480
  0
SEQEND
  8
0
  0
LINE
  8
0
  6
CONTINUOUS
 10
2.792680
 20
2.654520
 11
2.792680
 21
2.647920
  0
SOLID
  8
0
 62
    15
 10
5.716040
 20
2.461800
 11
6.375600
 21
2.099680
 12
5.676880
 22
2.375560
 13
6.336440
 23
2.013000
  0
POLYLINE
  8
0
  6
CONTINUOUS
 66
     1
 40
0.000000
 41
0.000000
  0
VERTEX
  8
0
  6
CONTINUOUS
 10
5.716040
 20
2.461800
  0
VERTEX
  8
0
  6
CONTINUOUS
 10
6.375600
 20
2.099680
  0
VERTEX
  8
0
  6
CONTINUOUS
 10
6.336440
 20
2.013000
  0
VERTEX
  8
0
  6
CONTINUOUS
 10
5.676880
 20
2.375560
  0
VERTEX
  8
0
  6
CONTINUOUS
 10
5.716040
 20
2.461800
  0
SEQEND
  8
0
  0
SOLID
  8
0
 62
    15
 10
6.836720
 20
3.322000
 11
7.495840
 21
2.959440
 12
6.832320
 22
3.322000
 13
7.491880
 23
2.959440
  0
POLYLINE
  8
0
  6
CONTINUOUS
 66
     1
 40
0.000000
 41
0.000000
  0
VERTEX
  8
0
  6
CONTINUOUS
 10
6.836720
 20
3.322000
  0
VERTEX
  8
0
  6
CONTINUOUS
 10
7.495840
 20
2.959440
  0
VERTEX
  8
0
  6
CONTINUOUS
 10
7.491880
 20
2.959440
  0
VERTEX
  8
0
  6
CONTINUOUS
 10
6.832320
 20
3.322000
  0
VERTEX
  8
0
  6
CONTINUOUS
 10
6.836720
 20
3.322000
  0
SEQEND
  8
0
  0
SOLID
  8
0
 62
    15
 10
6.832320
 20
3.322000
 11
7.491880
 21
2.959440
 12
6.693280
 22
3.306600
 13
7.352840
 23
2.944040
  0
POLYLINE
  8
0
  6
CONTINUOUS
 66
     1
 40
0.000000
 41
0.000000
  0
VERTEX
  8
0
  6
CONTINUOUS
 10
6.832320
 20
3.322000
  0
VERTEX
  8
0
  6
CONTINUOUS
 10
7.491880
 20
2.959440
  0
VERTEX
  8
0
  6
CONTINUOUS
 10
7.352840
 20
2.944040
  0
VERTEX
  8
0
  6
CONTINUOUS
 10
6.693280
 20
3.306600
  0
VERTEX
  8
0
  6
CONTINUOUS
 10
6.832320
 20
3.322000
  0
SEQEND
  8
0
  0
SOLID
  8
0
 62
    15
 10
6.693280
 20
3.306600
 11
7.352840
 21
2.944040
 12
6.546760
 22
3.260400
 13
7.205880
 23
2.897840
  0
POLYLINE
  8
0
  6
CONTINUOUS
 66
     1
 40
0.000000
 41
0.000000
  0
VERTEX
  8
0
  6
CONTINUOUS
 10
6.693280
 20
3.306600
  0
VERTEX
  8
0
  6
CONTINUOUS
 10
7.352840
 20
2.944040
  0
VERTEX
  8
0
  6
CONTINUOUS
 10
7.205880
 20
2.897840
  0
VERTEX
  8
0
  6
CONTINUOUS
 10
6.546760
 20
3.260400
  0
VERTEX
  8
0
  6
CONTINUOUS
 10
6.693280
 20
3.306600
  0
SEQEND
  8
0
  0
SOLID
  8
0
 62
    15
 10
6.546760
 20
3.260400
 11
7.205880
 21
2.897840
 12
6.397160
 22
3.188680
 13
7.056720
 23
2.826120
  0
POLYLINE
  8
0
  6
CONTINUOUS
 66
     1
 40
0.000000
 41
0.000000
  0
VERTEX
  8
0
  6
CONTINUOUS
 10
6.546760
 20
3.260400
  0
VERTEX
  8
0
  6
CONTINUOUS
 10
7.205880
 20
2.897840
  0
VERTEX
  8
0
  6
CONTINUOUS
 10
7.056720
 20
2.826120
  0
VERTEX
  8
0
  6
CONTINUOUS
 10
6.397160
 20
3.188680
  0
VERTEX
  8
0
  6
CONTINUOUS
 10
6.546760
 20
3.260400
  0
SEQEND
  8
0
  0
SOLID
  8
0
 62
    15
 10
6.397160
 20
3.188680
 11
7.056720
 21
2.826120
 12
6.250640
 22
3.095400
 13
6.910200
 23
2.733280
  0
POLYLINE
  8
0
  6
CONTINUOUS
 66
     1
 40
0.000000
 41
0.000000
  0
VERTEX
  8
0
  6
CONTINUOUS
 10
6.397160
 20
3.188680
  0
VERTEX
  8
0
  6
CONTINUOUS
 10
7.056720
 20
2.826120
  0
VERTEX
  8
0
  6
CONTINUOUS
 10
6.910200
 20
2.733280
  0
VERTEX
  8
0
  6
CONTINUOUS
 10
6.250640
 20
3.095400
  0
VERTEX
  8
0
  6
CONTINUOUS
 10
6.397160
 20
3.188680
  0
SEQEND
  8
0
  0
SOLID
  8
0
 62
    15
 10
6.250640
 20
3.095400
 11
6.910200
 21
2.733280
 12
6.111600
 22
2.986720
 13
6.771160
 23
2.624160
  0
POLYLINE
  8
0
  6
CONTINUOUS
 66
     1
 40
0.000000
 41
0.000000
  0
VERTEX
  8
0
  6
CONTINUOUS
 10
6.250640
 20
3.095400
  0
VERTEX
  8
0
  6
CONTINUOUS
 10
6.910200
 20
2.733280
  0
VERTEX
  8
0
  6
CONTINUOUS
 10
6.771160
 20
2.624160
  0
VERTEX
  8
0
  6
CONTINUOUS
 10
6.111600
 20
2.986720
  0
VERTEX
  8
0
  6
CONTINUOUS
 10
6.250640
 20
3.095400
  0
SEQEND
  8
0
  0
SOLID
  8
0
 62
    15
 10
6.111600
 20
2.986720
 11
6.771160
 21
2.624160
 12
5.985320
 22
2.866160
 13
6.644440
 23
2.504040
  0
POLYLINE
  8
0
  6
CONTINUOUS
 66
     1
 40
0.000000
 41
0.000000
  0
VERTEX
  8
0
  6
CONTINUOUS
 10
6.111600
 20
2.986720
  0
VERTEX
  8
0
  6
CONTINUOUS
 10
6.771160
 20
2.624160
  0
VERTEX
  8
0
  6
CONTINUOUS
 10
6.644440
 20
2.504040
  0
VERTEX
  8
0
  6
CONTINUOUS
 10
5.985320
 20
2.866160
  0
VERTEX
  8
0
  6
CONTINUOUS
 10
6.111600
 20
2.986720
  0
SEQEND
  8
0
  0
SOLID
  8
0
 62
    15
 10
5.985320
 20
2.866160
 11
6.644440
 21
2.504040
 12
5.876640
 22
2.739880
 13
6.535760
 23
2.377320
  0
POLYLINE
  8
0
  6
CONTINUOUS
 66
     1
 40
0.000000
 41
0.000000
  0
VERTEX
  8
0
  6
CONTINUOUS
 10
5.985320
 20
2.866160
  0
VERTEX
  8
0
  6
CONTINUOUS
 10
6.644440
 20
2.504040
  0
VERTEX
  8
0
  6
CONTINUOUS
 10
6.535760
 20
2.377320
  0
VERTEX
  8
0
  6
CONTINUOUS
 10
5.876640
 20
2.739880
  0
VERTEX
  8
0
  6
CONTINUOUS
 10
5.985320
 20
2.866160
  0
SEQEND
  8
0
  0
SOLID
  8
0
 62
    15
 10
5.876640
 20
2.739880
 11
6.535760
 21
2.377320
 12
5.790840
 22
2.611400
 13
6.449960
 23
2.249280
  0
POLYLINE
  8
0
  6
CONTINUOUS
 66
     1
 40
0.000000
 41
0.000000
  0
VERTEX
  8
0
  6
CONTINUOUS
 10
5.876640
 20
2.739880
  0
VERTEX
  8
0
  6
CONTINUOUS
 10
6.535760
 20
2.377320
  0
VERTEX
  8
0
  6
CONTINUOUS
 10
6.449960
 20
2.249280
  0
VERTEX
  8
0
  6
CONTINUOUS
 10
5.790840
 20
2.611400
  0
VERTEX
  8
0
  6
CONTINUOUS
 10
5.876640
 20
2.739880
  0
SEQEND
  8
0
  0
SOLID
  8
0
 62
    15
 10
5.790840
 20
2.611400
 11
6.449960
 21
2.249280
 12
5.716040
 22
2.461800
 13
6.375600
 23
2.099680
  0
POLYLINE
  8
0
  6
CONTINUOUS
 66
     1
 40
0.000000
 41
0.000000
  0
VERTEX
  8
0
  6
CONTINUOUS
 10
5.790840
 20
2.611400
  0
VERTEX
  8
0
  6
CONTINUOUS
 10
6.449960
 20
2.249280
  0
VERTEX
  8
0
  6
CONTINUOUS
 10
6.375600
 20
2.099680
  0
VERTEX
  8
0
  6
CONTINUOUS
 10
5.716040
 20
2.461800
  0
VERTEX
  8
0
  6
CONTINUOUS
 10
5.790840
 20
2.611400
  0
SEQEND
  8
0
  0
SOLID
  8
0
 62
    15
 10
6.836720
 20
3.559600
 11
7.495840
 21
3.197040
 12
6.836720
 22
3.322000
 13
7.495840
 23
2.959440
  0
POLYLINE
  8
0
  6
CONTINUOUS
 66
     1
 40
0.000000
 41
0.000000
  0
VERTEX
  8
0
  6
CONTINUOUS
 10
6.836720
 20
3.559600
  0
VERTEX
  8
0
  6
CONTINUOUS
 10
7.495840
 20
3.197040
  0
VERTEX
  8
0
  6
CONTINUOUS
 10
7.495840
 20
2.959440
  0
VERTEX
  8
0
  6
CONTINUOUS
 10
6.836720
 20
3.322000
  0
VERTEX
  8
0
  6
CONTINUOUS
 10
6.836720
 20
3.559600
  0
SEQEND
  8
0
  0
SOLID
  8
0
 62
    15
 10
5.676880
 20
2.375560
 11
6.336440
 21
2.013000
 12
5.635960
 22
2.283600
 13
6.295520
 23
1.921480
  0
POLYLINE
  8
0
  6
CONTINUOUS
 66
     1
 40
0.000000
 41
0.000000
  0
VERTEX
  8
0
  6
CONTINUOUS
 10
5.676880
 20
2.375560
  0
VERTEX
  8
0
  6
CONTINUOUS
 10
6.336440
 20
2.013000
  0
VERTEX
  8
0
  6
CONTINUOUS
 10
6.295520
 20
1.921480
  0
VERTEX
  8
0
  6
CONTINUOUS
 10
5.635960
 20
2.283600
  0
VERTEX
  8
0
  6
CONTINUOUS
 10
5.676880
 20
2.375560
  0
SEQEND
  8
0
  0
SOLID
  8
0
 62
    15
 10
5.635960
 20
2.283600
 11
6.295520
 21
1.921480
 12
5.546200
 22
2.090880
 13
6.205760
 23
1.728320
  0
POLYLINE
  8
0
  6
CONTINUOUS
 66
     1
 40
0.000000
 41
0.000000
  0
VERTEX
  8
0
  6
CONTINUOUS
 10
5.635960
 20
2.283600
  0
VERTEX
  8
0
  6
CONTINUOUS
 10
6.295520
 20
1.921480
  0
VERTEX
  8
0
  6
CONTINUOUS
 10
6.205760
 20
1.728320
  0
VERTEX
  8
0
  6
CONTINUOUS
 10
5.546200
 20
2.090880
  0
VERTEX
  8
0
  6
CONTINUOUS
 10
5.635960
 20
2.283600
  0
SEQEND
  8
0
  0
SOLID
  8
0
 62
    15
 10
5.546200
 20
2.090880
 11
6.205760
 21
1.728320
 12
5.442800
 22
1.896840
 13
6.101920
 23
1.534720
  0
POLYLINE
  8
0
  6
CONTINUOUS
 66
     1
 40
0.000000
 41
0.000000
  0
VERTEX
  8
0
  6
CONTINUOUS
 10
5.546200
 20
2.090880
  0
VERTEX
  8
0
  6
CONTINUOUS
 10
6.205760
 20
1.728320
  0
VERTEX
  8
0
  6
CONTINUOUS
 10
6.101920
 20
1.534720
  0
VERTEX
  8
0
  6
CONTINUOUS
 10
5.442800
 20
1.896840
  0
VERTEX
  8
0
  6
CONTINUOUS
 10
5.546200
 20
2.090880
  0
SEQEND
  8
0
  0
SOLID
  8
0
 62
    15
 10
5.442800
 20
1.896840
 11
6.101920
 21
1.534720
 12
5.320480
 22
1.716440
 13
5.979600
 23
1.353880
  0
POLYLINE
  8
0
  6
CONTINUOUS
 66
     1
 40
0.000000
 41
0.000000
  0
VERTEX
  8
0
  6
CONTINUOUS
 10
5.442800
 20
1.896840
  0
VERTEX
  8
0
  6
CONTINUOUS
 10
6.101920
 20
1.534720
  0
VERTEX
  8
0
  6
CONTINUOUS
 10
5.979600
 20
1.353880
  0
VERTEX
  8
0
  6
CONTINUOUS
 10
5.320480
 20
1.716440
  0
VERTEX
  8
0
  6
CONTINUOUS
 10
5.442800
 20
1.896840
  0
SEQEND
  8
0
  0
SOLID
  8
0
 62
    15
 10
5.320480
 20
1.716440
 11
5.979600
 21
1.353880
 12
5.175280
 22
1.563320
 13
5.834840
 23
1.200760
  0
POLYLINE
  8
0
  6
CONTINUOUS
 66
     1
 40
0.000000
 41
0.000000
  0
VERTEX
  8
0
  6
CONTINUOUS
 10
5.320480
 20
1.716440
  0
VERTEX
  8
0
  6
CONTINUOUS
 10
5.979600
 20
1.353880
  0
VERTEX
  8
0
  6
CONTINUOUS
 10
5.834840
 20
1.200760
  0
VERTEX
  8
0
  6
CONTINUOUS
 10
5.175280
 20
1.563320
  0
VERTEX
  8
0
  6
CONTINUOUS
 10
5.320480
 20
1.716440
  0
SEQEND
  8
0
  0
SOLID
  8
0
 62
    15
 10
5.175280
 20
1.563320
 11
5.834840
 21
1.200760
 12
5.093000
 22
1.501280
 13
5.752120
 23
1.138720
  0
POLYLINE
  8
0
  6
CONTINUOUS
 66
     1
 40
0.000000
 41
0.000000
  0
VERTEX
  8
0
  6
CONTINUOUS
 10
5.175280
 20
1.563320
  0
VERTEX
  8
0
  6
CONTINUOUS
 10
5.834840
 20
1.200760
  0
VERTEX
  8
0
  6
CONTINUOUS
 10
5.752120
 20
1.138720
  0
VERTEX
  8
0
  6
CONTINUOUS
 10
5.093000
 20
1.501280
  0
VERTEX
  8
0
  6
CONTINUOUS
 10
5.175280
 20
1.563320
  0
SEQEND
  8
0
  0
SOLID
  8
0
 62
    15
 10
5.093000
 20
1.501280
 11
5.752120
 21
1.138720
 12
5.002800
 22
1.451560
 13
5.662360
 23
1.089000
  0
POLYLINE
  8
0
  6
CONTINUOUS
 66
     1
 40
0.000000
 41
0.000000
  0
VERTEX
  8
0
  6
CONTINUOUS
 10
5.093000
 20
1.501280
  0
VERTEX
  8
0
  6
CONTINUOUS
 10
5.752120
 20
1.138720
  0
VERTEX
  8
0
  6
CONTINUOUS
 10
5.662360
 20
1.089000
  0
VERTEX
  8
0
  6
CONTINUOUS
 10
5.002800
 20
1.451560
  0
VERTEX
  8
0
  6
CONTINUOUS
 10
5.093000
 20
1.501280
  0
SEQEND
  8
0
  0
SOLID
  8
0
 62
    15
 10
5.002800
 20
1.451560
 11
5.662360
 21
1.089000
 12
4.905120
 22
1.415480
 13
5.564680
 23
1.052920
  0
POLYLINE
  8
0
  6
CONTINUOUS
 66
     1
 40
0.000000
 41
0.000000
  0
VERTEX
  8
0
  6
CONTINUOUS
 10
5.002800
 20
1.451560
  0
VERTEX
  8
0
  6
CONTINUOUS
 10
5.662360
 20
1.089000
  0
VERTEX
  8
0
  6
CONTINUOUS
 10
5.564680
 20
1.052920
  0
VERTEX
  8
0
  6
CONTINUOUS
 10
4.905120
 20
1.415480
  0
VERTEX
  8
0
  6
CONTINUOUS
 10
5.002800
 20
1.451560
  0
SEQEND
  8
0
  0
SOLID
  8
0
 62
    15
 10
4.905120
 20
1.415480
 11
5.564680
 21
1.052920
 12
4.799080
 22
1.394800
 13
5.458640
 23
1.032240
  0
POLYLINE
  8
0
  6
CONTINUOUS
 66
     1
 40
0.000000
 41
0.000000
  0
VERTEX
  8
0
  6
CONTINUOUS
 10
4.905120
 20
1.415480
  0
VERTEX
  8
0
  6
CONTINUOUS
 10
5.564680
 20
1.052920
  0
VERTEX
  8
0
  6
CONTINUOUS
 10
5.458640
 20
1.032240
  0
VERTEX
  8
0
  6
CONTINUOUS
 10
4.799080
 20
1.394800
  0
VERTEX
  8
0
  6
CONTINUOUS
 10
4.905120
 20
1.415480
  0
SEQEND
  8
0
  0
SOLID
  8
0
 62
    15
 10
4.799080
 20
1.394800
 11
5.458640
 21
1.032240
 12
4.799080
 22
1.157200
 13
5.458640
 23
0.795080
  0
POLYLINE
  8
0
  6
CONTINUOUS
 66
     1
 40
0.000000
 41
0.000000
  0
VERTEX
  8
0
  6
CONTINUOUS
 10
4.799080
 20
1.394800
  0
VERTEX
  8
0
  6
CONTINUOUS
 10
5.458640
 20
1.032240
  0
VERTEX
  8
0
  6
CONTINUOUS
 10
5.458640
 20
0.795080
  0
VERTEX
  8
0
  6
CONTINUOUS
 10
4.799080
 20
1.157200
  0
VERTEX
  8
0
  6
CONTINUOUS
 10
4.799080
 20
1.394800
  0
SEQEND
  8
0
  0
SOLID
  8
0
 62
    15
 10
4.799080
 20
1.157200
 11
5.458640
 21
0.795080
 12
4.390760
 22
1.157200
 13
5.050320
 23
0.795080
  0
POLYLINE
  8
0
  6
CONTINUOUS
 66
     1
 40
0.000000
 41
0.000000
  0
VERTEX
  8
0
  6
CONTINUOUS
 10
4.799080
 20
1.157200
  0
VERTEX
  8
0
  6
CONTINUOUS
 10
5.458640
 20
0.795080
  0
VERTEX
  8
0
  6
CONTINUOUS
 10
5.050320
 20
0.795080
  0
VERTEX
  8
0
  6
CONTINUOUS
 10
4.390760
 20
1.157200
  0
VERTEX
  8
0
  6
CONTINUOUS
 10
4.799080
 20
1.157200
  0
SEQEND
  8
0
  0
POLYLINE
  8
0
  6
CONTINUOUS
 66
     1
 40
0.000000
 41
0.000000
  0
VERTEX
  8
0
  6
CONTINUOUS
 10
6.072000
 20
3.559600
  0
VERTEX
  8
0
  6
CONTINUOUS
 10
6.836720
 20
3.559600
  0
VERTEX
  8
0
  6
CONTINUOUS
 10
6.836720
 20
3.322000
  0
VERTEX
  8
0
  6
CONTINUOUS
 10
6.832320
 20
3.322000
  0
VERTEX
  8
0
  6
CONTINUOUS
 10
6.693280
 20
3.306600
  0
VERTEX
  8
0
  6
CONTINUOUS
 10
6.546760
 20
3.260400
  0
VERTEX
  8
0
  6
CONTINUOUS
 10
6.397160
 20
3.188680
  0
VERTEX
  8
0
  6
CONTINUOUS
 10
6.250640
 20
3.095400
  0
VERTEX
  8
0
  6
CONTINUOUS
 10
6.111600
 20
2.986720
  0
VERTEX
  8
0
  6
CONTINUOUS
 10
5.985320
 20
2.866160
  0
VERTEX
  8
0
  6
CONTINUOUS
 10
5.876640
 20
2.739880
  0
VERTEX
  8
0
  6
CONTINUOUS
 10
5.790840
 20
2.611400
  0
VERTEX
  8
0
  6
CONTINUOUS
 10
5.716040
 20
2.461800
  0
VERTEX
  8
0
  6
CONTINUOUS
 10
5.676880
 20
2.375560
  0
VERTEX
  8
0
  6
CONTINUOUS
 10
5.635960
 20
2.283600
  0
VERTEX
  8
0
  6
CONTINUOUS
 10
5.546200
 20
2.090880
  0
VERTEX
  8
0
  6
CONTINUOUS
 10
5.442800
 20
1.896840
  0
VERTEX
  8
0
  6
CONTINUOUS
 10
5.320480
 20
1.716440
  0
VERTEX
  8
0
  6
CONTINUOUS
 10
5.175280
 20
1.563320
  0
VERTEX
  8
0
  6
CONTINUOUS
 10
5.093000
 20
1.501280
  0
VERTEX
  8
0
  6
CONTINUOUS
 10
5.002800
 20
1.451560
  0
VERTEX
  8
0
  6
CONTINUOUS
 10
4.905120
 20
1.415480
  0
VERTEX
  8
0
  6
CONTINUOUS
 10
4.799080
 20
1.394800
  0
VERTEX
  8
0
  6
CONTINUOUS
 10
4.799080
 20
1.157200
  0
VERTEX
  8
0
  6
CONTINUOUS
 10
4.390760
 20
1.157200
  0
VERTEX
  8
0
  6
CONTINUOUS
 10
4.390760
 20
1.686520
  0
VERTEX
  8
0
  6
CONTINUOUS
 10
6.068040
 20
3.559600
  0
VERTEX
  8
0
  6
CONTINUOUS
 10
6.072000
 20
3.559600
  0
SEQEND
  8
0
  0
TEXT
  8
0
 10
6.076840
 20
1.035320
 40
0.138147
  1
BA  606
 41
1.000000
  7
SN0
 71
     0
 72
     5
 11
6.667584
 21
1.035320
  0
TEXT
  8
0
 10
5.874880
 20
0.843480
 40
0.138147
  1
3/4" x 3-7/16"
 41
1.000000
  7
SN0
 71
     0
 72
     5
 11
6.869259
 21
0.843480
  0
ENDSEC
  0
EOF
