  0
SECTION
  2
HEADER
  9
$ACADVER
  1
AC1006
  9
$EXTMIN
 10
1.951840
 20
0.478280
  9
$EXTMAX
 10
6.889080
 20
2.443320
  9
$LTSCALE
 40
0.044000
  9
$PDMODE
 70
    35
  9
$PDSIZE
 40
0.035200
  0
ENDSEC
  0
SECTION
  2
TABLES
  0
TABLE
  2
LTYPE
 70
     9
  0
LTYPE
  2
CONTINUOUS
 70
    64
  3
Solid line
 72
    65
 73
     0
 40
0.000000
  0
LTYPE
  2
DASHED
 70
    64
  3
__ __ __ __ __ __ __ __ __ __ __ __ __ __ __
 72
    65
 73
     2
 40
0.000330
 49
0.000220
 49
-0.000110
  0
LTYPE
  2
HIDDEN
 70
    64
  3
 _ _ _ _ _ _ _ _ _ _ _ _ _ _ _ _ _ _ _ _ _ _
 72
    65
 73
     2
 40
0.000165
 49
0.000110
 49
-0.000055
  0
LTYPE
  2
CENTER
 70
    64
  3
____ _ ____ _ ____ _ ____ _ ____ _ ____ _ ____
 72
    65
 73
     4
 40
0.000880
 49
0.000550
 49
-0.000110
 49
0.000110
 49
-0.000110
  0
LTYPE
  2
PHANTOM
 70
    64
  3
_____ _ _ _____ _ _ _____ _ _ _____ _ _ ____
 72
    65
 73
     6
 40
0.001100
 49
0.000550
 49
-0.000110
 49
0.000110
 49
-0.000110
 49
0.000110
 49
-0.000110
  0
LTYPE
  2
DOT
 70
    64
  3
...............................................
 72
    65
 73
     2
 40
0.000110
 49
0.000000
 49
-0.000110
  0
LTYPE
  2
DASHDOT
 70
    64
  3
__ . __ . __ . __ . __ . __ . __ . __ . __ . __
 72
    65
 73
     4
 40
0.000440
 49
0.000220
 49
-0.000110
 49
0.000000
 49
-0.000110
  0
LTYPE
  2
BORDER
 70
    64
  3
__ __ . __ __ . __ __ . __ __ . __ __ . __ __
 72
    65
 73
     6
 40
0.000770
 49
0.000220
 49
-0.000110
 49
0.000220
 49
-0.000110
 49
0.000000
 49
-0.000110
  0
LTYPE
  2
DIVIDE
 70
    64
  3
__ . . __ . . __ . . __ . . __ . . __ . . __
 72
    65
 73
     6
 40
0.000550
 49
0.000220
 49
-0.000110
 49
0.000000
 49
-0.000110
 49
0.000000
 49
-0.000110
  0
LTYPE
  2
DOTDOT
 70
    64
  3
 . .  . .  . .  . .  . .  . . 
 72
    65
 73
     5
 40
0.000242
 49
-0.000110
 49
0.000000
 49
-0.000110
 49
0.000000
 49
-0.000110
  0
ENDTAB
  0
TABLE
  2
STYLE
 70
     2
  0
STYLE
 70
     0
  2
SN0
 40
0.000000
 41
0.000440
 50
0.000000
 71
     0
 42
0.000000
  3
ROMAND
  0
STYLE
 70
    68
  2
SV0
 40
0.000000
 41
0.000440
 50
0.000000
 71
     0
 42
0.000000
  3
ROMAND
  0
ENDTAB
  0
TABLE
  2
LAYER
 70
     3
  0
LAYER
  2
FOREGROUND
 70
    64
 62
     7
  6
CONTINUOUS
  0
LAYER
  2
BACKGROUND
 70
    65
 62
    -7
  6
CONTINUOUS
  0
LAYER
  2
0
 70
    64
 62
     7
  6
CONTINUOUS
  0
ENDTAB
  0
ENDSEC
  0
SECTION
  2
ENTITIES
  0
POLYLINE
  8
FOREGROUND
  6
CONTINUOUS
 66
     1
 40
0.000000
 41
0.000000
  0
VERTEX
  8
FOREGROUND
  6
CONTINUOUS
 10
0.000000
 20
2.921600
  0
VERTEX
  8
FOREGROUND
  6
CONTINUOUS
 10
8.499920
 20
2.921600
  0
VERTEX
  8
FOREGROUND
  6
CONTINUOUS
 10
8.499920
 20
-8.078400
  0
VERTEX
  8
FOREGROUND
  6
CONTINUOUS
 10
0.000000
 20
-8.078400
  0
VERTEX
  8
FOREGROUND
  6
CONTINUOUS
 10
0.000000
 20
2.921600
  0
SEQEND
  8
0
  0
POLYLINE
  8
FOREGROUND
  6
CONTINUOUS
 66
     1
 40
0.000000
 41
0.000000
  0
VERTEX
  8
FOREGROUND
  6
CONTINUOUS
 10
0.000000
 20
2.921600
  0
VERTEX
  8
FOREGROUND
  6
CONTINUOUS
 10
8.499920
 20
2.921600
  0
VERTEX
  8
FOREGROUND
  6
CONTINUOUS
 10
8.499920
 20
-8.078400
  0
VERTEX
  8
FOREGROUND
  6
CONTINUOUS
 10
0.000000
 20
-8.078400
  0
VERTEX
  8
FOREGROUND
  6
CONTINUOUS
 10
0.000000
 20
2.921600
  0
SEQEND
  8
0
  0
POLYLINE
  8
0
  6
CONTINUOUS
 66
     1
 40
0.014080
 41
0.014080
  0
VERTEX
  8
0
  6
CONTINUOUS
 10
5.524640
 20
1.437480
  0
VERTEX
  8
0
  6
CONTINUOUS
 10
5.583160
 20
1.437480
  0
VERTEX
  8
0
  6
CONTINUOUS
 10
5.583160
 20
1.771000
  0
VERTEX
  8
0
  6
CONTINUOUS
 10
6.331160
 20
1.771000
  0
VERTEX
  8
0
  6
CONTINUOUS
 10
6.331160
 20
1.437480
  0
VERTEX
  8
0
  6
CONTINUOUS
 10
6.403760
 20
1.437480
  0
VERTEX
  8
0
  6
CONTINUOUS
 10
6.402000
 20
1.437480
  0
VERTEX
  8
0
  6
CONTINUOUS
 10
6.465360
 20
1.440560
  0
VERTEX
  8
0
  6
CONTINUOUS
 10
6.495720
 20
1.443640
  0
VERTEX
  8
0
  6
CONTINUOUS
 10
6.552920
 20
1.454640
  0
VERTEX
  8
0
  6
CONTINUOUS
 10
6.606160
 20
1.470480
  0
VERTEX
  8
0
  6
CONTINUOUS
 10
6.654560
 20
1.491160
  0
VERTEX
  8
0
  6
CONTINUOUS
 10
6.698560
 20
1.515800
  0
VERTEX
  8
0
  6
CONTINUOUS
 10
6.719240
 20
1.529440
  0
VERTEX
  8
0
  6
CONTINUOUS
 10
6.756200
 20
1.559800
  0
VERTEX
  8
0
  6
CONTINUOUS
 10
6.773360
 20
1.576080
  0
VERTEX
  8
0
  6
CONTINUOUS
 10
6.803280
 20
1.611280
  0
VERTEX
  8
0
  6
CONTINUOUS
 10
6.816920
 20
1.629760
  0
VERTEX
  8
0
  6
CONTINUOUS
 10
6.839800
 20
1.668920
  0
VERTEX
  8
0
  6
CONTINUOUS
 10
6.857840
 20
1.710280
  0
VERTEX
  8
0
  6
CONTINUOUS
 10
6.871040
 20
1.753400
  0
VERTEX
  8
0
  6
CONTINUOUS
 10
6.878960
 20
1.797840
  0
VERTEX
  8
0
  6
CONTINUOUS
 10
6.882040
 20
1.843160
  0
VERTEX
  8
0
  6
CONTINUOUS
 10
6.879400
 20
1.889800
  0
VERTEX
  8
0
  6
CONTINUOUS
 10
6.871920
 20
1.936440
  0
VERTEX
  8
0
  6
CONTINUOUS
 10
6.858720
 20
1.983080
  0
VERTEX
  8
0
  6
CONTINUOUS
 10
6.840240
 20
2.029720
  0
VERTEX
  8
0
  6
CONTINUOUS
 10
6.816040
 20
2.075040
  0
VERTEX
  8
0
  6
CONTINUOUS
 10
6.786560
 20
2.119480
  0
VERTEX
  8
0
  6
CONTINUOUS
 10
6.750920
 20
2.162600
  0
VERTEX
  8
0
  6
CONTINUOUS
 10
6.709560
 20
2.203960
  0
VERTEX
  8
0
  6
CONTINUOUS
 10
6.662480
 20
2.243120
  0
VERTEX
  8
0
  6
CONTINUOUS
 10
6.609240
 20
2.279640
  0
VERTEX
  8
0
  6
CONTINUOUS
 10
6.550280
 20
2.313080
  0
VERTEX
  8
0
  6
CONTINUOUS
 10
6.485160
 20
2.343440
  0
VERTEX
  8
0
  6
CONTINUOUS
 10
6.413440
 20
2.369840
  0
VERTEX
  8
0
  6
CONTINUOUS
 10
6.335560
 20
2.392720
  0
VERTEX
  8
0
  6
CONTINUOUS
 10
6.294640
 20
2.402400
  0
VERTEX
  8
0
  6
CONTINUOUS
 10
6.207080
 20
2.418240
  0
VERTEX
  8
0
  6
CONTINUOUS
 10
6.113360
 20
2.429240
  0
VERTEX
  8
0
  6
CONTINUOUS
 10
6.013040
 20
2.434520
  0
VERTEX
  8
0
  6
CONTINUOUS
 10
5.958040
 20
2.435400
  0
VERTEX
  8
0
  6
CONTINUOUS
 10
5.905240
 20
2.434520
  0
VERTEX
  8
0
  6
CONTINUOUS
 10
5.804920
 20
2.429240
  0
VERTEX
  8
0
  6
CONTINUOUS
 10
5.711200
 20
2.418240
  0
VERTEX
  8
0
  6
CONTINUOUS
 10
5.623640
 20
2.402400
  0
VERTEX
  8
0
  6
CONTINUOUS
 10
5.542680
 20
2.381720
  0
VERTEX
  8
0
  6
CONTINUOUS
 10
5.468320
 20
2.357080
  0
VERTEX
  8
0
  6
CONTINUOUS
 10
5.433120
 20
2.343440
  0
VERTEX
  8
0
  6
CONTINUOUS
 10
5.368000
 20
2.313080
  0
VERTEX
  8
0
  6
CONTINUOUS
 10
5.309040
 20
2.279640
  0
VERTEX
  8
0
  6
CONTINUOUS
 10
5.255800
 20
2.243120
  0
VERTEX
  8
0
  6
CONTINUOUS
 10
5.208720
 20
2.203960
  0
VERTEX
  8
0
  6
CONTINUOUS
 10
5.167360
 20
2.162600
  0
VERTEX
  8
0
  6
CONTINUOUS
 10
5.131720
 20
2.119480
  0
VERTEX
  8
0
  6
CONTINUOUS
 10
5.102240
 20
2.075040
  0
VERTEX
  8
0
  6
CONTINUOUS
 10
5.078040
 20
2.029720
  0
VERTEX
  8
0
  6
CONTINUOUS
 10
5.059560
 20
1.983080
  0
VERTEX
  8
0
  6
CONTINUOUS
 10
5.046360
 20
1.936440
  0
VERTEX
  8
0
  6
CONTINUOUS
 10
5.038880
 20
1.889800
  0
VERTEX
  8
0
  6
CONTINUOUS
 10
5.036240
 20
1.843160
  0
VERTEX
  8
0
  6
CONTINUOUS
 10
5.039320
 20
1.797840
  0
VERTEX
  8
0
  6
CONTINUOUS
 10
5.047240
 20
1.753400
  0
VERTEX
  8
0
  6
CONTINUOUS
 10
5.060440
 20
1.710280
  0
VERTEX
  8
0
  6
CONTINUOUS
 10
5.078480
 20
1.668920
  0
VERTEX
  8
0
  6
CONTINUOUS
 10
5.101360
 20
1.629760
  0
VERTEX
  8
0
  6
CONTINUOUS
 10
5.129520
 20
1.593240
  0
VERTEX
  8
0
  6
CONTINUOUS
 10
5.144920
 20
1.576080
  0
VERTEX
  8
0
  6
CONTINUOUS
 10
5.180120
 20
1.544400
  0
VERTEX
  8
0
  6
CONTINUOUS
 10
5.199040
 20
1.529440
  0
VERTEX
  8
0
  6
CONTINUOUS
 10
5.241280
 20
1.503040
  0
VERTEX
  8
0
  6
CONTINUOUS
 10
5.287480
 20
1.480160
  0
VERTEX
  8
0
  6
CONTINUOUS
 10
5.338080
 20
1.462120
  0
VERTEX
  8
0
  6
CONTINUOUS
 10
5.393520
 20
1.448480
  0
VERTEX
  8
0
  6
CONTINUOUS
 10
5.422560
 20
1.443640
  0
VERTEX
  8
0
  6
CONTINUOUS
 10
5.484160
 20
1.438360
  0
VERTEX
  8
0
  6
CONTINUOUS
 10
5.524640
 20
1.437480
  0
SEQEND
  8
0
  0
SOLID
  8
0
 62
    15
 10
3.578080
 20
1.728320
 11
4.229280
 21
2.100560
 12
3.625160
 22
1.689600
 13
4.276360
 23
2.061400
  0
POLYLINE
  8
0
  6
CONTINUOUS
 66
     1
 40
0.000000
 41
0.000000
  0
VERTEX
  8
0
  6
CONTINUOUS
 10
3.578080
 20
1.728320
  0
VERTEX
  8
0
  6
CONTINUOUS
 10
4.229280
 20
2.100560
  0
VERTEX
  8
0
  6
CONTINUOUS
 10
4.276360
 20
2.061400
  0
VERTEX
  8
0
  6
CONTINUOUS
 10
3.625160
 20
1.689600
  0
VERTEX
  8
0
  6
CONTINUOUS
 10
3.578080
 20
1.728320
  0
SEQEND
  8
0
  0
SOLID
  8
0
 62
    15
 10
2.225080
 20
1.764840
 11
2.875840
 21
2.137080
 12
2.284040
 22
1.798280
 13
2.935240
 23
2.170520
  0
POLYLINE
  8
0
  6
CONTINUOUS
 66
     1
 40
0.000000
 41
0.000000
  0
VERTEX
  8
0
  6
CONTINUOUS
 10
2.225080
 20
1.764840
  0
VERTEX
  8
0
  6
CONTINUOUS
 10
2.875840
 20
2.137080
  0
VERTEX
  8
0
  6
CONTINUOUS
 10
2.935240
 20
2.170520
  0
VERTEX
  8
0
  6
CONTINUOUS
 10
2.284040
 20
1.798280
  0
VERTEX
  8
0
  6
CONTINUOUS
 10
2.225080
 20
1.764840
  0
SEQEND
  8
0
  0
SOLID
  8
0
 62
    15
 10
2.349160
 20
1.828640
 11
3.000360
 21
2.200880
 12
2.420880
 22
1.855480
 13
3.072080
 23
2.227280
  0
POLYLINE
  8
0
  6
CONTINUOUS
 66
     1
 40
0.000000
 41
0.000000
  0
VERTEX
  8
0
  6
CONTINUOUS
 10
2.349160
 20
1.828640
  0
VERTEX
  8
0
  6
CONTINUOUS
 10
3.000360
 20
2.200880
  0
VERTEX
  8
0
  6
CONTINUOUS
 10
3.072080
 20
2.227280
  0
VERTEX
  8
0
  6
CONTINUOUS
 10
2.420880
 20
1.855480
  0
VERTEX
  8
0
  6
CONTINUOUS
 10
2.349160
 20
1.828640
  0
SEQEND
  8
0
  0
SOLID
  8
0
 62
    15
 10
2.420880
 20
1.855480
 11
3.072080
 21
2.227280
 12
2.498320
 22
1.877920
 13
3.149520
 23
2.250160
  0
POLYLINE
  8
0
  6
CONTINUOUS
 66
     1
 40
0.000000
 41
0.000000
  0
VERTEX
  8
0
  6
CONTINUOUS
 10
2.420880
 20
1.855480
  0
VERTEX
  8
0
  6
CONTINUOUS
 10
3.072080
 20
2.227280
  0
VERTEX
  8
0
  6
CONTINUOUS
 10
3.149520
 20
2.250160
  0
VERTEX
  8
0
  6
CONTINUOUS
 10
2.498320
 20
1.877920
  0
VERTEX
  8
0
  6
CONTINUOUS
 10
2.420880
 20
1.855480
  0
SEQEND
  8
0
  0
SOLID
  8
0
 62
    15
 10
2.498320
 20
1.877920
 11
3.149520
 21
2.250160
 12
2.582800
 22
1.895960
 13
3.233560
 23
2.268200
  0
POLYLINE
  8
0
  6
CONTINUOUS
 66
     1
 40
0.000000
 41
0.000000
  0
VERTEX
  8
0
  6
CONTINUOUS
 10
2.498320
 20
1.877920
  0
VERTEX
  8
0
  6
CONTINUOUS
 10
3.149520
 20
2.250160
  0
VERTEX
  8
0
  6
CONTINUOUS
 10
3.233560
 20
2.268200
  0
VERTEX
  8
0
  6
CONTINUOUS
 10
2.582800
 20
1.895960
  0
VERTEX
  8
0
  6
CONTINUOUS
 10
2.498320
 20
1.877920
  0
SEQEND
  8
0
  0
SOLID
  8
0
 62
    15
 10
2.582800
 20
1.895960
 11
3.233560
 21
2.268200
 12
2.673000
 22
1.909600
 13
3.324200
 23
2.281840
  0
POLYLINE
  8
0
  6
CONTINUOUS
 66
     1
 40
0.000000
 41
0.000000
  0
VERTEX
  8
0
  6
CONTINUOUS
 10
2.582800
 20
1.895960
  0
VERTEX
  8
0
  6
CONTINUOUS
 10
3.233560
 20
2.268200
  0
VERTEX
  8
0
  6
CONTINUOUS
 10
3.324200
 20
2.281840
  0
VERTEX
  8
0
  6
CONTINUOUS
 10
2.673000
 20
1.909600
  0
VERTEX
  8
0
  6
CONTINUOUS
 10
2.582800
 20
1.895960
  0
SEQEND
  8
0
  0
SOLID
  8
0
 62
    15
 10
2.673000
 20
1.909600
 11
3.324200
 21
2.281840
 12
2.770240
 22
1.917960
 13
3.421440
 23
2.290200
  0
POLYLINE
  8
0
  6
CONTINUOUS
 66
     1
 40
0.000000
 41
0.000000
  0
VERTEX
  8
0
  6
CONTINUOUS
 10
2.673000
 20
1.909600
  0
VERTEX
  8
0
  6
CONTINUOUS
 10
3.324200
 20
2.281840
  0
VERTEX
  8
0
  6
CONTINUOUS
 10
3.421440
 20
2.290200
  0
VERTEX
  8
0
  6
CONTINUOUS
 10
2.770240
 20
1.917960
  0
VERTEX
  8
0
  6
CONTINUOUS
 10
2.673000
 20
1.909600
  0
SEQEND
  8
0
  0
SOLID
  8
0
 62
    15
 10
2.770240
 20
1.917960
 11
3.421440
 21
2.290200
 12
2.874080
 22
1.921040
 13
3.525280
 23
2.292840
  0
POLYLINE
  8
0
  6
CONTINUOUS
 66
     1
 40
0.000000
 41
0.000000
  0
VERTEX
  8
0
  6
CONTINUOUS
 10
2.770240
 20
1.917960
  0
VERTEX
  8
0
  6
CONTINUOUS
 10
3.421440
 20
2.290200
  0
VERTEX
  8
0
  6
CONTINUOUS
 10
3.525280
 20
2.292840
  0
VERTEX
  8
0
  6
CONTINUOUS
 10
2.874080
 20
1.921040
  0
VERTEX
  8
0
  6
CONTINUOUS
 10
2.770240
 20
1.917960
  0
SEQEND
  8
0
  0
SOLID
  8
0
 62
    15
 10
2.874080
 20
1.921040
 11
3.525280
 21
2.292840
 12
2.876280
 22
1.921040
 13
3.527040
 23
2.292840
  0
POLYLINE
  8
0
  6
CONTINUOUS
 66
     1
 40
0.000000
 41
0.000000
  0
VERTEX
  8
0
  6
CONTINUOUS
 10
2.874080
 20
1.921040
  0
VERTEX
  8
0
  6
CONTINUOUS
 10
3.525280
 20
2.292840
  0
VERTEX
  8
0
  6
CONTINUOUS
 10
3.527040
 20
2.292840
  0
VERTEX
  8
0
  6
CONTINUOUS
 10
2.876280
 20
1.921040
  0
VERTEX
  8
0
  6
CONTINUOUS
 10
2.874080
 20
1.921040
  0
SEQEND
  8
0
  0
SOLID
  8
0
 62
    15
 10
2.876280
 20
1.921040
 11
3.527040
 21
2.292840
 12
2.979680
 22
1.917960
 13
3.630880
 23
2.290200
  0
POLYLINE
  8
0
  6
CONTINUOUS
 66
     1
 40
0.000000
 41
0.000000
  0
VERTEX
  8
0
  6
CONTINUOUS
 10
2.876280
 20
1.921040
  0
VERTEX
  8
0
  6
CONTINUOUS
 10
3.527040
 20
2.292840
  0
VERTEX
  8
0
  6
CONTINUOUS
 10
3.630880
 20
2.290200
  0
VERTEX
  8
0
  6
CONTINUOUS
 10
2.979680
 20
1.917960
  0
VERTEX
  8
0
  6
CONTINUOUS
 10
2.876280
 20
1.921040
  0
SEQEND
  8
0
  0
SOLID
  8
0
 62
    15
 10
2.979680
 20
1.917960
 11
3.630880
 21
2.290200
 12
3.076920
 22
1.909600
 13
3.728120
 23
2.281840
  0
POLYLINE
  8
0
  6
CONTINUOUS
 66
     1
 40
0.000000
 41
0.000000
  0
VERTEX
  8
0
  6
CONTINUOUS
 10
2.979680
 20
1.917960
  0
VERTEX
  8
0
  6
CONTINUOUS
 10
3.630880
 20
2.290200
  0
VERTEX
  8
0
  6
CONTINUOUS
 10
3.728120
 20
2.281840
  0
VERTEX
  8
0
  6
CONTINUOUS
 10
3.076920
 20
1.909600
  0
VERTEX
  8
0
  6
CONTINUOUS
 10
2.979680
 20
1.917960
  0
SEQEND
  8
0
  0
SOLID
  8
0
 62
    15
 10
3.076920
 20
1.909600
 11
3.728120
 21
2.281840
 12
3.167560
 22
1.895960
 13
3.818760
 23
2.268200
  0
POLYLINE
  8
0
  6
CONTINUOUS
 66
     1
 40
0.000000
 41
0.000000
  0
VERTEX
  8
0
  6
CONTINUOUS
 10
3.076920
 20
1.909600
  0
VERTEX
  8
0
  6
CONTINUOUS
 10
3.728120
 20
2.281840
  0
VERTEX
  8
0
  6
CONTINUOUS
 10
3.818760
 20
2.268200
  0
VERTEX
  8
0
  6
CONTINUOUS
 10
3.167560
 20
1.895960
  0
VERTEX
  8
0
  6
CONTINUOUS
 10
3.076920
 20
1.909600
  0
SEQEND
  8
0
  0
SOLID
  8
0
 62
    15
 10
3.167560
 20
1.895960
 11
3.818760
 21
2.268200
 12
3.251600
 22
1.877920
 13
3.902800
 23
2.250160
  0
POLYLINE
  8
0
  6
CONTINUOUS
 66
     1
 40
0.000000
 41
0.000000
  0
VERTEX
  8
0
  6
CONTINUOUS
 10
3.167560
 20
1.895960
  0
VERTEX
  8
0
  6
CONTINUOUS
 10
3.818760
 20
2.268200
  0
VERTEX
  8
0
  6
CONTINUOUS
 10
3.902800
 20
2.250160
  0
VERTEX
  8
0
  6
CONTINUOUS
 10
3.251600
 20
1.877920
  0
VERTEX
  8
0
  6
CONTINUOUS
 10
3.167560
 20
1.895960
  0
SEQEND
  8
0
  0
SOLID
  8
0
 62
    15
 10
3.251600
 20
1.877920
 11
3.902800
 21
2.250160
 12
3.329480
 22
1.855480
 13
3.980240
 23
2.227280
  0
POLYLINE
  8
0
  6
CONTINUOUS
 66
     1
 40
0.000000
 41
0.000000
  0
VERTEX
  8
0
  6
CONTINUOUS
 10
3.251600
 20
1.877920
  0
VERTEX
  8
0
  6
CONTINUOUS
 10
3.902800
 20
2.250160
  0
VERTEX
  8
0
  6
CONTINUOUS
 10
3.980240
 20
2.227280
  0
VERTEX
  8
0
  6
CONTINUOUS
 10
3.329480
 20
1.855480
  0
VERTEX
  8
0
  6
CONTINUOUS
 10
3.251600
 20
1.877920
  0
SEQEND
  8
0
  0
SOLID
  8
0
 62
    15
 10
3.329480
 20
1.855480
 11
3.980240
 21
2.227280
 12
3.400760
 22
1.828640
 13
4.051960
 23
2.200880
  0
POLYLINE
  8
0
  6
CONTINUOUS
 66
     1
 40
0.000000
 41
0.000000
  0
VERTEX
  8
0
  6
CONTINUOUS
 10
3.329480
 20
1.855480
  0
VERTEX
  8
0
  6
CONTINUOUS
 10
3.980240
 20
2.227280
  0
VERTEX
  8
0
  6
CONTINUOUS
 10
4.051960
 20
2.200880
  0
VERTEX
  8
0
  6
CONTINUOUS
 10
3.400760
 20
1.828640
  0
VERTEX
  8
0
  6
CONTINUOUS
 10
3.329480
 20
1.855480
  0
SEQEND
  8
0
  0
SOLID
  8
0
 62
    15
 10
3.400760
 20
1.828640
 11
4.051960
 21
2.200880
 12
3.465880
 22
1.798280
 13
4.117080
 23
2.170520
  0
POLYLINE
  8
0
  6
CONTINUOUS
 66
     1
 40
0.000000
 41
0.000000
  0
VERTEX
  8
0
  6
CONTINUOUS
 10
3.400760
 20
1.828640
  0
VERTEX
  8
0
  6
CONTINUOUS
 10
4.051960
 20
2.200880
  0
VERTEX
  8
0
  6
CONTINUOUS
 10
4.117080
 20
2.170520
  0
VERTEX
  8
0
  6
CONTINUOUS
 10
3.465880
 20
1.798280
  0
VERTEX
  8
0
  6
CONTINUOUS
 10
3.400760
 20
1.828640
  0
SEQEND
  8
0
  0
SOLID
  8
0
 62
    15
 10
3.465880
 20
1.798280
 11
4.117080
 21
2.170520
 12
3.525280
 22
1.764840
 13
4.176480
 23
2.137080
  0
POLYLINE
  8
0
  6
CONTINUOUS
 66
     1
 40
0.000000
 41
0.000000
  0
VERTEX
  8
0
  6
CONTINUOUS
 10
3.465880
 20
1.798280
  0
VERTEX
  8
0
  6
CONTINUOUS
 10
4.117080
 20
2.170520
  0
VERTEX
  8
0
  6
CONTINUOUS
 10
4.176480
 20
2.137080
  0
VERTEX
  8
0
  6
CONTINUOUS
 10
3.525280
 20
1.764840
  0
VERTEX
  8
0
  6
CONTINUOUS
 10
3.465880
 20
1.798280
  0
SEQEND
  8
0
  0
SOLID
  8
0
 62
    15
 10
3.525280
 20
1.764840
 11
4.176480
 21
2.137080
 12
3.578080
 22
1.728320
 13
4.229280
 23
2.100560
  0
POLYLINE
  8
0
  6
CONTINUOUS
 66
     1
 40
0.000000
 41
0.000000
  0
VERTEX
  8
0
  6
CONTINUOUS
 10
3.525280
 20
1.764840
  0
VERTEX
  8
0
  6
CONTINUOUS
 10
4.176480
 20
2.137080
  0
VERTEX
  8
0
  6
CONTINUOUS
 10
4.229280
 20
2.100560
  0
VERTEX
  8
0
  6
CONTINUOUS
 10
3.578080
 20
1.728320
  0
VERTEX
  8
0
  6
CONTINUOUS
 10
3.525280
 20
1.764840
  0
SEQEND
  8
0
  0
SOLID
  8
0
 62
    15
 10
2.284040
 20
1.798280
 11
2.935240
 21
2.170520
 12
2.349160
 22
1.828640
 13
3.000360
 23
2.200880
  0
POLYLINE
  8
0
  6
CONTINUOUS
 66
     1
 40
0.000000
 41
0.000000
  0
VERTEX
  8
0
  6
CONTINUOUS
 10
2.284040
 20
1.798280
  0
VERTEX
  8
0
  6
CONTINUOUS
 10
2.935240
 20
2.170520
  0
VERTEX
  8
0
  6
CONTINUOUS
 10
3.000360
 20
2.200880
  0
VERTEX
  8
0
  6
CONTINUOUS
 10
2.349160
 20
1.828640
  0
VERTEX
  8
0
  6
CONTINUOUS
 10
2.284040
 20
1.798280
  0
SEQEND
  8
0
  0
SOLID
  8
0
 62
    15
 10
3.625160
 20
1.689600
 11
4.276360
 21
2.061400
 12
3.666520
 22
1.648240
 13
4.317720
 23
2.020480
  0
POLYLINE
  8
0
  6
CONTINUOUS
 66
     1
 40
0.000000
 41
0.000000
  0
VERTEX
  8
0
  6
CONTINUOUS
 10
3.625160
 20
1.689600
  0
VERTEX
  8
0
  6
CONTINUOUS
 10
4.276360
 20
2.061400
  0
VERTEX
  8
0
  6
CONTINUOUS
 10
4.317720
 20
2.020480
  0
VERTEX
  8
0
  6
CONTINUOUS
 10
3.666520
 20
1.648240
  0
VERTEX
  8
0
  6
CONTINUOUS
 10
3.625160
 20
1.689600
  0
SEQEND
  8
0
  0
SOLID
  8
0
 62
    15
 10
3.666520
 20
1.648240
 11
4.317720
 21
2.020480
 12
3.702160
 22
1.605120
 13
4.353360
 23
1.977360
  0
POLYLINE
  8
0
  6
CONTINUOUS
 66
     1
 40
0.000000
 41
0.000000
  0
VERTEX
  8
0
  6
CONTINUOUS
 10
3.666520
 20
1.648240
  0
VERTEX
  8
0
  6
CONTINUOUS
 10
4.317720
 20
2.020480
  0
VERTEX
  8
0
  6
CONTINUOUS
 10
4.353360
 20
1.977360
  0
VERTEX
  8
0
  6
CONTINUOUS
 10
3.702160
 20
1.605120
  0
VERTEX
  8
0
  6
CONTINUOUS
 10
3.666520
 20
1.648240
  0
SEQEND
  8
0
  0
SOLID
  8
0
 62
    15
 10
3.702160
 20
1.605120
 11
4.353360
 21
1.977360
 12
3.731640
 22
1.560680
 13
4.382840
 23
1.932480
  0
POLYLINE
  8
0
  6
CONTINUOUS
 66
     1
 40
0.000000
 41
0.000000
  0
VERTEX
  8
0
  6
CONTINUOUS
 10
3.702160
 20
1.605120
  0
VERTEX
  8
0
  6
CONTINUOUS
 10
4.353360
 20
1.977360
  0
VERTEX
  8
0
  6
CONTINUOUS
 10
4.382840
 20
1.932480
  0
VERTEX
  8
0
  6
CONTINUOUS
 10
3.731640
 20
1.560680
  0
VERTEX
  8
0
  6
CONTINUOUS
 10
3.702160
 20
1.605120
  0
SEQEND
  8
0
  0
SOLID
  8
0
 62
    15
 10
3.731640
 20
1.560680
 11
4.382840
 21
1.932480
 12
3.755840
 22
1.514920
 13
4.407040
 23
1.887160
  0
POLYLINE
  8
0
  6
CONTINUOUS
 66
     1
 40
0.000000
 41
0.000000
  0
VERTEX
  8
0
  6
CONTINUOUS
 10
3.731640
 20
1.560680
  0
VERTEX
  8
0
  6
CONTINUOUS
 10
4.382840
 20
1.932480
  0
VERTEX
  8
0
  6
CONTINUOUS
 10
4.407040
 20
1.887160
  0
VERTEX
  8
0
  6
CONTINUOUS
 10
3.755840
 20
1.514920
  0
VERTEX
  8
0
  6
CONTINUOUS
 10
3.731640
 20
1.560680
  0
SEQEND
  8
0
  0
SOLID
  8
0
 62
    15
 10
3.755840
 20
1.514920
 11
4.407040
 21
1.887160
 12
3.774320
 22
1.468720
 13
4.425520
 23
1.840520
  0
POLYLINE
  8
0
  6
CONTINUOUS
 66
     1
 40
0.000000
 41
0.000000
  0
VERTEX
  8
0
  6
CONTINUOUS
 10
3.755840
 20
1.514920
  0
VERTEX
  8
0
  6
CONTINUOUS
 10
4.407040
 20
1.887160
  0
VERTEX
  8
0
  6
CONTINUOUS
 10
4.425520
 20
1.840520
  0
VERTEX
  8
0
  6
CONTINUOUS
 10
3.774320
 20
1.468720
  0
VERTEX
  8
0
  6
CONTINUOUS
 10
3.755840
 20
1.514920
  0
SEQEND
  8
0
  0
SOLID
  8
0
 62
    15
 10
3.774320
 20
1.468720
 11
4.425520
 21
1.840520
 12
3.787520
 22
1.422080
 13
4.438720
 23
1.793880
  0
POLYLINE
  8
0
  6
CONTINUOUS
 66
     1
 40
0.000000
 41
0.000000
  0
VERTEX
  8
0
  6
CONTINUOUS
 10
3.774320
 20
1.468720
  0
VERTEX
  8
0
  6
CONTINUOUS
 10
4.425520
 20
1.840520
  0
VERTEX
  8
0
  6
CONTINUOUS
 10
4.438720
 20
1.793880
  0
VERTEX
  8
0
  6
CONTINUOUS
 10
3.787520
 20
1.422080
  0
VERTEX
  8
0
  6
CONTINUOUS
 10
3.774320
 20
1.468720
  0
SEQEND
  8
0
  0
SOLID
  8
0
 62
    15
 10
3.787520
 20
1.422080
 11
4.438720
 21
1.793880
 12
3.795000
 22
1.375000
 13
4.446200
 23
1.747240
  0
POLYLINE
  8
0
  6
CONTINUOUS
 66
     1
 40
0.000000
 41
0.000000
  0
VERTEX
  8
0
  6
CONTINUOUS
 10
3.787520
 20
1.422080
  0
VERTEX
  8
0
  6
CONTINUOUS
 10
4.438720
 20
1.793880
  0
VERTEX
  8
0
  6
CONTINUOUS
 10
4.446200
 20
1.747240
  0
VERTEX
  8
0
  6
CONTINUOUS
 10
3.795000
 20
1.375000
  0
VERTEX
  8
0
  6
CONTINUOUS
 10
3.787520
 20
1.422080
  0
SEQEND
  8
0
  0
SOLID
  8
0
 62
    15
 10
3.795000
 20
1.375000
 11
4.446200
 21
1.747240
 12
3.797640
 22
1.328800
 13
4.448840
 23
1.701040
  0
POLYLINE
  8
0
  6
CONTINUOUS
 66
     1
 40
0.000000
 41
0.000000
  0
VERTEX
  8
0
  6
CONTINUOUS
 10
3.795000
 20
1.375000
  0
VERTEX
  8
0
  6
CONTINUOUS
 10
4.446200
 20
1.747240
  0
VERTEX
  8
0
  6
CONTINUOUS
 10
4.448840
 20
1.701040
  0
VERTEX
  8
0
  6
CONTINUOUS
 10
3.797640
 20
1.328800
  0
VERTEX
  8
0
  6
CONTINUOUS
 10
3.795000
 20
1.375000
  0
SEQEND
  8
0
  0
SOLID
  8
0
 62
    15
 10
3.797640
 20
1.328800
 11
4.448840
 21
1.701040
 12
3.794560
 22
1.283040
 13
4.445760
 23
1.655280
  0
POLYLINE
  8
0
  6
CONTINUOUS
 66
     1
 40
0.000000
 41
0.000000
  0
VERTEX
  8
0
  6
CONTINUOUS
 10
3.797640
 20
1.328800
  0
VERTEX
  8
0
  6
CONTINUOUS
 10
4.448840
 20
1.701040
  0
VERTEX
  8
0
  6
CONTINUOUS
 10
4.445760
 20
1.655280
  0
VERTEX
  8
0
  6
CONTINUOUS
 10
3.794560
 20
1.283040
  0
VERTEX
  8
0
  6
CONTINUOUS
 10
3.797640
 20
1.328800
  0
SEQEND
  8
0
  0
SOLID
  8
0
 62
    15
 10
3.794560
 20
1.283040
 11
4.445760
 21
1.655280
 12
3.786640
 22
1.238600
 13
4.437840
 23
1.610840
  0
POLYLINE
  8
0
  6
CONTINUOUS
 66
     1
 40
0.000000
 41
0.000000
  0
VERTEX
  8
0
  6
CONTINUOUS
 10
3.794560
 20
1.283040
  0
VERTEX
  8
0
  6
CONTINUOUS
 10
4.445760
 20
1.655280
  0
VERTEX
  8
0
  6
CONTINUOUS
 10
4.437840
 20
1.610840
  0
VERTEX
  8
0
  6
CONTINUOUS
 10
3.786640
 20
1.238600
  0
VERTEX
  8
0
  6
CONTINUOUS
 10
3.794560
 20
1.283040
  0
SEQEND
  8
0
  0
SOLID
  8
0
 62
    15
 10
3.786640
 20
1.238600
 11
4.437840
 21
1.610840
 12
3.773440
 22
1.195480
 13
4.424640
 23
1.567720
  0
POLYLINE
  8
0
  6
CONTINUOUS
 66
     1
 40
0.000000
 41
0.000000
  0
VERTEX
  8
0
  6
CONTINUOUS
 10
3.786640
 20
1.238600
  0
VERTEX
  8
0
  6
CONTINUOUS
 10
4.437840
 20
1.610840
  0
VERTEX
  8
0
  6
CONTINUOUS
 10
4.424640
 20
1.567720
  0
VERTEX
  8
0
  6
CONTINUOUS
 10
3.773440
 20
1.195480
  0
VERTEX
  8
0
  6
CONTINUOUS
 10
3.786640
 20
1.238600
  0
SEQEND
  8
0
  0
SOLID
  8
0
 62
    15
 10
3.773440
 20
1.195480
 11
4.424640
 21
1.567720
 12
3.755400
 22
1.154560
 13
4.406600
 23
1.526360
  0
POLYLINE
  8
0
  6
CONTINUOUS
 66
     1
 40
0.000000
 41
0.000000
  0
VERTEX
  8
0
  6
CONTINUOUS
 10
3.773440
 20
1.195480
  0
VERTEX
  8
0
  6
CONTINUOUS
 10
4.424640
 20
1.567720
  0
VERTEX
  8
0
  6
CONTINUOUS
 10
4.406600
 20
1.526360
  0
VERTEX
  8
0
  6
CONTINUOUS
 10
3.755400
 20
1.154560
  0
VERTEX
  8
0
  6
CONTINUOUS
 10
3.773440
 20
1.195480
  0
SEQEND
  8
0
  0
SOLID
  8
0
 62
    15
 10
3.755400
 20
1.154560
 11
4.406600
 21
1.526360
 12
3.732520
 22
1.115400
 13
4.383720
 23
1.487640
  0
POLYLINE
  8
0
  6
CONTINUOUS
 66
     1
 40
0.000000
 41
0.000000
  0
VERTEX
  8
0
  6
CONTINUOUS
 10
3.755400
 20
1.154560
  0
VERTEX
  8
0
  6
CONTINUOUS
 10
4.406600
 20
1.526360
  0
VERTEX
  8
0
  6
CONTINUOUS
 10
4.383720
 20
1.487640
  0
VERTEX
  8
0
  6
CONTINUOUS
 10
3.732520
 20
1.115400
  0
VERTEX
  8
0
  6
CONTINUOUS
 10
3.755400
 20
1.154560
  0
SEQEND
  8
0
  0
SOLID
  8
0
 62
    15
 10
3.732520
 20
1.115400
 11
4.383720
 21
1.487640
 12
3.704360
 22
1.078880
 13
4.355560
 23
1.451120
  0
POLYLINE
  8
0
  6
CONTINUOUS
 66
     1
 40
0.000000
 41
0.000000
  0
VERTEX
  8
0
  6
CONTINUOUS
 10
3.732520
 20
1.115400
  0
VERTEX
  8
0
  6
CONTINUOUS
 10
4.383720
 20
1.487640
  0
VERTEX
  8
0
  6
CONTINUOUS
 10
4.355560
 20
1.451120
  0
VERTEX
  8
0
  6
CONTINUOUS
 10
3.704360
 20
1.078880
  0
VERTEX
  8
0
  6
CONTINUOUS
 10
3.732520
 20
1.115400
  0
SEQEND
  8
0
  0
SOLID
  8
0
 62
    15
 10
3.704360
 20
1.078880
 11
4.355560
 21
1.451120
 12
3.671800
 22
1.045440
 13
4.323000
 23
1.417240
  0
POLYLINE
  8
0
  6
CONTINUOUS
 66
     1
 40
0.000000
 41
0.000000
  0
VERTEX
  8
0
  6
CONTINUOUS
 10
3.704360
 20
1.078880
  0
VERTEX
  8
0
  6
CONTINUOUS
 10
4.355560
 20
1.451120
  0
VERTEX
  8
0
  6
CONTINUOUS
 10
4.323000
 20
1.417240
  0
VERTEX
  8
0
  6
CONTINUOUS
 10
3.671800
 20
1.045440
  0
VERTEX
  8
0
  6
CONTINUOUS
 10
3.704360
 20
1.078880
  0
SEQEND
  8
0
  0
SOLID
  8
0
 62
    15
 10
3.634840
 20
1.015080
 11
4.286040
 21
1.387320
 12
3.593040
 22
0.988240
 13
4.244240
 23
1.360480
  0
POLYLINE
  8
0
  6
CONTINUOUS
 66
     1
 40
0.000000
 41
0.000000
  0
VERTEX
  8
0
  6
CONTINUOUS
 10
3.634840
 20
1.015080
  0
VERTEX
  8
0
  6
CONTINUOUS
 10
4.286040
 20
1.387320
  0
VERTEX
  8
0
  6
CONTINUOUS
 10
4.244240
 20
1.360480
  0
VERTEX
  8
0
  6
CONTINUOUS
 10
3.593040
 20
0.988240
  0
VERTEX
  8
0
  6
CONTINUOUS
 10
3.634840
 20
1.015080
  0
SEQEND
  8
0
  0
SOLID
  8
0
 62
    15
 10
3.671800
 20
1.045440
 11
4.323000
 21
1.417240
 12
3.634840
 22
1.015080
 13
4.286040
 23
1.387320
  0
POLYLINE
  8
0
  6
CONTINUOUS
 66
     1
 40
0.000000
 41
0.000000
  0
VERTEX
  8
0
  6
CONTINUOUS
 10
3.671800
 20
1.045440
  0
VERTEX
  8
0
  6
CONTINUOUS
 10
4.323000
 20
1.417240
  0
VERTEX
  8
0
  6
CONTINUOUS
 10
4.286040
 20
1.387320
  0
VERTEX
  8
0
  6
CONTINUOUS
 10
3.634840
 20
1.015080
  0
VERTEX
  8
0
  6
CONTINUOUS
 10
3.671800
 20
1.045440
  0
SEQEND
  8
0
  0
SOLID
  8
0
 62
    15
 10
2.498760
 20
1.256640
 11
3.149960
 21
1.628440
 12
2.498760
 22
0.923120
 13
3.149960
 23
1.294920
  0
POLYLINE
  8
0
  6
CONTINUOUS
 66
     1
 40
0.000000
 41
0.000000
  0
VERTEX
  8
0
  6
CONTINUOUS
 10
2.498760
 20
1.256640
  0
VERTEX
  8
0
  6
CONTINUOUS
 10
3.149960
 20
1.628440
  0
VERTEX
  8
0
  6
CONTINUOUS
 10
3.149960
 20
1.294920
  0
VERTEX
  8
0
  6
CONTINUOUS
 10
2.498760
 20
0.923120
  0
VERTEX
  8
0
  6
CONTINUOUS
 10
2.498760
 20
1.256640
  0
SEQEND
  8
0
  0
POLYLINE
  8
0
  6
CONTINUOUS
 66
     1
 40
0.000000
 41
0.000000
  0
VERTEX
  8
0
  6
CONTINUOUS
 10
2.432320
 20
0.923120
  0
VERTEX
  8
0
  6
CONTINUOUS
 10
2.368960
 20
0.925760
  0
VERTEX
  8
0
  6
CONTINUOUS
 10
2.309560
 20
0.934120
  0
VERTEX
  8
0
  6
CONTINUOUS
 10
2.254120
 20
0.947760
  0
VERTEX
  8
0
  6
CONTINUOUS
 10
2.203520
 20
0.965800
  0
VERTEX
  8
0
  6
CONTINUOUS
 10
2.157320
 20
0.988240
  0
VERTEX
  8
0
  6
CONTINUOUS
 10
2.115080
 20
1.015080
  0
VERTEX
  8
0
  6
CONTINUOUS
 10
2.078120
 20
1.045440
  0
VERTEX
  8
0
  6
CONTINUOUS
 10
2.045560
 20
1.078880
  0
VERTEX
  8
0
  6
CONTINUOUS
 10
2.017840
 20
1.115400
  0
VERTEX
  8
0
  6
CONTINUOUS
 10
1.994520
 20
1.154560
  0
VERTEX
  8
0
  6
CONTINUOUS
 10
1.976480
 20
1.195480
  0
VERTEX
  8
0
  6
CONTINUOUS
 10
1.963280
 20
1.238600
  0
VERTEX
  8
0
  6
CONTINUOUS
 10
1.955360
 20
1.283040
  0
VERTEX
  8
0
  6
CONTINUOUS
 10
1.952720
 20
1.328800
  0
VERTEX
  8
0
  6
CONTINUOUS
 10
1.954920
 20
1.375000
  0
VERTEX
  8
0
  6
CONTINUOUS
 10
1.962400
 20
1.422080
  0
VERTEX
  8
0
  6
CONTINUOUS
 10
1.975600
 20
1.468720
  0
VERTEX
  8
0
  6
CONTINUOUS
 10
1.994080
 20
1.514920
  0
VERTEX
  8
0
  6
CONTINUOUS
 10
2.018280
 20
1.560680
  0
VERTEX
  8
0
  6
CONTINUOUS
 10
2.047760
 20
1.605120
  0
VERTEX
  8
0
  6
CONTINUOUS
 10
2.083400
 20
1.648240
  0
VERTEX
  8
0
  6
CONTINUOUS
 10
2.124760
 20
1.689600
  0
VERTEX
  8
0
  6
CONTINUOUS
 10
2.171840
 20
1.728320
  0
VERTEX
  8
0
  6
CONTINUOUS
 10
2.225080
 20
1.764840
  0
VERTEX
  8
0
  6
CONTINUOUS
 10
2.284040
 20
1.798280
  0
VERTEX
  8
0
  6
CONTINUOUS
 10
2.349160
 20
1.828640
  0
VERTEX
  8
0
  6
CONTINUOUS
 10
2.420880
 20
1.855480
  0
VERTEX
  8
0
  6
CONTINUOUS
 10
2.498320
 20
1.877920
  0
VERTEX
  8
0
  6
CONTINUOUS
 10
2.582800
 20
1.895960
  0
VERTEX
  8
0
  6
CONTINUOUS
 10
2.673000
 20
1.909600
  0
VERTEX
  8
0
  6
CONTINUOUS
 10
2.770240
 20
1.917960
  0
VERTEX
  8
0
  6
CONTINUOUS
 10
2.876280
 20
1.921040
  0
VERTEX
  8
0
  6
CONTINUOUS
 10
2.979680
 20
1.917960
  0
VERTEX
  8
0
  6
CONTINUOUS
 10
3.076920
 20
1.909600
  0
VERTEX
  8
0
  6
CONTINUOUS
 10
3.167560
 20
1.895960
  0
VERTEX
  8
0
  6
CONTINUOUS
 10
3.251600
 20
1.877920
  0
VERTEX
  8
0
  6
CONTINUOUS
 10
3.329480
 20
1.855480
  0
VERTEX
  8
0
  6
CONTINUOUS
 10
3.400760
 20
1.828640
  0
VERTEX
  8
0
  6
CONTINUOUS
 10
3.465880
 20
1.798280
  0
VERTEX
  8
0
  6
CONTINUOUS
 10
3.525280
 20
1.764840
  0
VERTEX
  8
0
  6
CONTINUOUS
 10
3.578080
 20
1.728320
  0
VERTEX
  8
0
  6
CONTINUOUS
 10
3.625160
 20
1.689600
  0
VERTEX
  8
0
  6
CONTINUOUS
 10
3.666520
 20
1.648240
  0
VERTEX
  8
0
  6
CONTINUOUS
 10
3.702160
 20
1.605120
  0
VERTEX
  8
0
  6
CONTINUOUS
 10
3.731640
 20
1.560680
  0
VERTEX
  8
0
  6
CONTINUOUS
 10
3.755840
 20
1.514920
  0
VERTEX
  8
0
  6
CONTINUOUS
 10
3.774320
 20
1.468720
  0
VERTEX
  8
0
  6
CONTINUOUS
 10
3.787520
 20
1.422080
  0
VERTEX
  8
0
  6
CONTINUOUS
 10
3.795000
 20
1.375000
  0
VERTEX
  8
0
  6
CONTINUOUS
 10
3.797640
 20
1.328800
  0
VERTEX
  8
0
  6
CONTINUOUS
 10
3.794560
 20
1.283040
  0
VERTEX
  8
0
  6
CONTINUOUS
 10
3.786640
 20
1.238600
  0
VERTEX
  8
0
  6
CONTINUOUS
 10
3.773440
 20
1.195480
  0
VERTEX
  8
0
  6
CONTINUOUS
 10
3.755400
 20
1.154560
  0
VERTEX
  8
0
  6
CONTINUOUS
 10
3.732520
 20
1.115400
  0
VERTEX
  8
0
  6
CONTINUOUS
 10
3.704360
 20
1.078880
  0
VERTEX
  8
0
  6
CONTINUOUS
 10
3.671800
 20
1.045440
  0
VERTEX
  8
0
  6
CONTINUOUS
 10
3.634840
 20
1.015080
  0
VERTEX
  8
0
  6
CONTINUOUS
 10
3.593040
 20
0.988240
  0
VERTEX
  8
0
  6
CONTINUOUS
 10
3.546400
 20
0.965800
  0
VERTEX
  8
0
  6
CONTINUOUS
 10
3.495800
 20
0.947760
  0
VERTEX
  8
0
  6
CONTINUOUS
 10
3.440800
 20
0.934120
  0
VERTEX
  8
0
  6
CONTINUOUS
 10
3.381400
 20
0.925760
  0
VERTEX
  8
0
  6
CONTINUOUS
 10
3.317600
 20
0.923120
  0
VERTEX
  8
0
  6
CONTINUOUS
 10
3.246760
 20
0.923120
  0
VERTEX
  8
0
  6
CONTINUOUS
 10
3.246760
 20
1.256640
  0
VERTEX
  8
0
  6
CONTINUOUS
 10
2.498760
 20
1.256640
  0
VERTEX
  8
0
  6
CONTINUOUS
 10
2.498760
 20
0.923120
  0
VERTEX
  8
0
  6
CONTINUOUS
 10
2.432320
 20
0.923120
  0
SEQEND
  8
0
  0
TEXT
  8
0
 10
2.905760
 20
0.714120
 40
0.138042
  1
BA  605
 41
1.000000
  7
SN0
 71
     0
 72
     5
 11
3.496501
 21
0.714120
  0
TEXT
  8
0
 10
2.819080
 20
0.522280
 40
0.138042
  1
1" x 1-7/8"
 41
1.000000
  7
SN0
 71
     0
 72
     5
 11
3.581884
 21
0.522280
  0
ENDSEC
  0
EOF
