  0
SECTION
  2
HEADER
  9
$ACADVER
  1
AC1006
  9
$EXTMIN
 10
3.956480
 20
0.656480
  9
$EXTMAX
 10
7.482200
 20
4.242040
  9
$LTSCALE
 40
0.044000
  9
$PDMODE
 70
    35
  9
$PDSIZE
 40
0.035200
  0
ENDSEC
  0
SECTION
  2
TABLES
  0
TABLE
  2
LTYPE
 70
     9
  0
LTYPE
  2
CONTINUOUS
 70
    64
  3
Solid line
 72
    65
 73
     0
 40
0.000000
  0
LTYPE
  2
DASHED
 70
    64
  3
__ __ __ __ __ __ __ __ __ __ __ __ __ __ __
 72
    65
 73
     2
 40
0.000330
 49
0.000220
 49
-0.000110
  0
LTYPE
  2
HIDDEN
 70
    64
  3
 _ _ _ _ _ _ _ _ _ _ _ _ _ _ _ _ _ _ _ _ _ _
 72
    65
 73
     2
 40
0.000165
 49
0.000110
 49
-0.000055
  0
LTYPE
  2
CENTER
 70
    64
  3
____ _ ____ _ ____ _ ____ _ ____ _ ____ _ ____
 72
    65
 73
     4
 40
0.000880
 49
0.000550
 49
-0.000110
 49
0.000110
 49
-0.000110
  0
LTYPE
  2
PHANTOM
 70
    64
  3
_____ _ _ _____ _ _ _____ _ _ _____ _ _ ____
 72
    65
 73
     6
 40
0.001100
 49
0.000550
 49
-0.000110
 49
0.000110
 49
-0.000110
 49
0.000110
 49
-0.000110
  0
LTYPE
  2
DOT
 70
    64
  3
...............................................
 72
    65
 73
     2
 40
0.000110
 49
0.000000
 49
-0.000110
  0
LTYPE
  2
DASHDOT
 70
    64
  3
__ . __ . __ . __ . __ . __ . __ . __ . __ . __
 72
    65
 73
     4
 40
0.000440
 49
0.000220
 49
-0.000110
 49
0.000000
 49
-0.000110
  0
LTYPE
  2
BORDER
 70
    64
  3
__ __ . __ __ . __ __ . __ __ . __ __ . __ __
 72
    65
 73
     6
 40
0.000770
 49
0.000220
 49
-0.000110
 49
0.000220
 49
-0.000110
 49
0.000000
 49
-0.000110
  0
LTYPE
  2
DIVIDE
 70
    64
  3
__ . . __ . . __ . . __ . . __ . . __ . . __
 72
    65
 73
     6
 40
0.000550
 49
0.000220
 49
-0.000110
 49
0.000000
 49
-0.000110
 49
0.000000
 49
-0.000110
  0
LTYPE
  2
DOTDOT
 70
    64
  3
 . .  . .  . .  . .  . .  . . 
 72
    65
 73
     5
 40
0.000242
 49
-0.000110
 49
0.000000
 49
-0.000110
 49
0.000000
 49
-0.000110
  0
ENDTAB
  0
TABLE
  2
STYLE
 70
     2
  0
STYLE
 70
     0
  2
SN0
 40
0.000000
 41
0.000440
 50
0.000000
 71
     0
 42
0.000000
  3
ROMAND
  0
STYLE
 70
    68
  2
SV0
 40
0.000000
 41
0.000440
 50
0.000000
 71
     0
 42
0.000000
  3
ROMAND
  0
ENDTAB
  0
TABLE
  2
LAYER
 70
     3
  0
LAYER
  2
FOREGROUND
 70
    64
 62
     7
  6
CONTINUOUS
  0
LAYER
  2
BACKGROUND
 70
    65
 62
    -7
  6
CONTINUOUS
  0
LAYER
  2
0
 70
    64
 62
     7
  6
CONTINUOUS
  0
ENDTAB
  0
ENDSEC
  0
SECTION
  2
ENTITIES
  0
POLYLINE
  8
FOREGROUND
  6
CONTINUOUS
 66
     1
 40
0.000000
 41
0.000000
  0
VERTEX
  8
FOREGROUND
  6
CONTINUOUS
 10
0.000000
 20
4.898520
  0
VERTEX
  8
FOREGROUND
  6
CONTINUOUS
 10
8.499920
 20
4.898520
  0
VERTEX
  8
FOREGROUND
  6
CONTINUOUS
 10
8.499920
 20
-6.101480
  0
VERTEX
  8
FOREGROUND
  6
CONTINUOUS
 10
0.000000
 20
-6.101480
  0
VERTEX
  8
FOREGROUND
  6
CONTINUOUS
 10
0.000000
 20
4.898520
  0
SEQEND
  8
0
  0
POLYLINE
  8
FOREGROUND
  6
CONTINUOUS
 66
     1
 40
0.000000
 41
0.000000
  0
VERTEX
  8
FOREGROUND
  6
CONTINUOUS
 10
0.000000
 20
4.898520
  0
VERTEX
  8
FOREGROUND
  6
CONTINUOUS
 10
8.499920
 20
4.898520
  0
VERTEX
  8
FOREGROUND
  6
CONTINUOUS
 10
8.499920
 20
-6.101480
  0
VERTEX
  8
FOREGROUND
  6
CONTINUOUS
 10
0.000000
 20
-6.101480
  0
VERTEX
  8
FOREGROUND
  6
CONTINUOUS
 10
0.000000
 20
4.898520
  0
SEQEND
  8
0
  0
POLYLINE
  8
0
  6
CONTINUOUS
 66
     1
 40
0.014080
 41
0.014080
  0
VERTEX
  8
0
  6
CONTINUOUS
 10
4.201120
 20
4.217400
  0
VERTEX
  8
0
  6
CONTINUOUS
 10
4.290000
 20
4.167240
  0
VERTEX
  8
0
  6
CONTINUOUS
 10
4.416280
 20
4.104760
  0
VERTEX
  8
0
  6
CONTINUOUS
 10
4.516600
 20
4.061640
  0
VERTEX
  8
0
  6
CONTINUOUS
 10
4.585680
 20
4.034800
  0
VERTEX
  8
0
  6
CONTINUOUS
 10
4.656960
 20
4.009720
  0
VERTEX
  8
0
  6
CONTINUOUS
 10
4.767400
 20
3.975400
  0
VERTEX
  8
0
  6
CONTINUOUS
 10
4.881800
 20
3.945480
  0
VERTEX
  8
0
  6
CONTINUOUS
 10
4.999720
 20
3.920400
  0
VERTEX
  8
0
  6
CONTINUOUS
 10
5.120720
 20
3.900600
  0
VERTEX
  8
0
  6
CONTINUOUS
 10
5.203000
 20
3.890040
  0
VERTEX
  8
0
  6
CONTINUOUS
 10
5.286600
 20
3.882120
  0
VERTEX
  8
0
  6
CONTINUOUS
 10
5.371520
 20
3.876840
  0
VERTEX
  8
0
  6
CONTINUOUS
 10
5.500880
 20
3.874200
  0
VERTEX
  8
0
  6
CONTINUOUS
 10
5.588440
 20
3.875960
  0
VERTEX
  8
0
  6
CONTINUOUS
 10
5.676880
 20
3.880800
  0
VERTEX
  8
0
  6
CONTINUOUS
 10
5.811080
 20
3.893560
  0
VERTEX
  8
0
  6
CONTINUOUS
 10
5.946600
 20
3.913800
  0
VERTEX
  8
0
  6
CONTINUOUS
 10
6.037680
 20
3.931840
  0
VERTEX
  8
0
  6
CONTINUOUS
 10
6.129200
 20
3.952960
  0
VERTEX
  8
0
  6
CONTINUOUS
 10
6.221160
 20
3.977600
  0
VERTEX
  8
0
  6
CONTINUOUS
 10
6.313560
 20
4.006200
  0
VERTEX
  8
0
  6
CONTINUOUS
 10
6.452160
 20
4.056360
  0
VERTEX
  8
0
  6
CONTINUOUS
 10
6.545000
 20
4.094640
  0
VERTEX
  8
0
  6
CONTINUOUS
 10
6.637840
 20
4.136880
  0
VERTEX
  8
0
  6
CONTINUOUS
 10
6.776880
 20
4.208160
  0
VERTEX
  8
0
  6
CONTINUOUS
 10
6.823080
 20
4.234120
  0
VERTEX
  8
0
  6
CONTINUOUS
 10
7.227000
 20
3.840320
  0
VERTEX
  8
0
  6
CONTINUOUS
 10
6.972680
 20
3.532760
  0
VERTEX
  8
0
  6
CONTINUOUS
 10
4.499440
 20
3.532760
  0
VERTEX
  8
0
  6
CONTINUOUS
 10
3.967040
 20
3.964840
  0
VERTEX
  8
0
  6
CONTINUOUS
 10
4.201120
 20
4.217400
  0
SEQEND
  8
0
  0
SOLID
  8
0
 62
    15
 10
5.546200
 20
2.131360
 11
6.209280
 21
1.748560
 12
5.415960
 22
2.011240
 13
6.079040
 23
1.628880
  0
POLYLINE
  8
0
  6
CONTINUOUS
 66
     1
 40
0.000000
 41
0.000000
  0
VERTEX
  8
0
  6
CONTINUOUS
 10
5.546200
 20
2.131360
  0
VERTEX
  8
0
  6
CONTINUOUS
 10
6.209280
 20
1.748560
  0
VERTEX
  8
0
  6
CONTINUOUS
 10
6.079040
 20
1.628880
  0
VERTEX
  8
0
  6
CONTINUOUS
 10
5.415960
 20
2.011240
  0
VERTEX
  8
0
  6
CONTINUOUS
 10
5.546200
 20
2.131360
  0
SEQEND
  8
0
  0
SOLID
  8
0
 62
    15
 10
6.665560
 20
2.698520
 11
7.328640
 21
2.316160
 12
6.527400
 22
2.663760
 13
7.190480
 23
2.280960
  0
POLYLINE
  8
0
  6
CONTINUOUS
 66
     1
 40
0.000000
 41
0.000000
  0
VERTEX
  8
0
  6
CONTINUOUS
 10
6.665560
 20
2.698520
  0
VERTEX
  8
0
  6
CONTINUOUS
 10
7.328640
 20
2.316160
  0
VERTEX
  8
0
  6
CONTINUOUS
 10
7.190480
 20
2.280960
  0
VERTEX
  8
0
  6
CONTINUOUS
 10
6.527400
 20
2.663760
  0
VERTEX
  8
0
  6
CONTINUOUS
 10
6.665560
 20
2.698520
  0
SEQEND
  8
0
  0
SOLID
  8
0
 62
    15
 10
6.527400
 20
2.663760
 11
7.190480
 21
2.280960
 12
6.387040
 22
2.618880
 13
7.050120
 23
2.236520
  0
POLYLINE
  8
0
  6
CONTINUOUS
 66
     1
 40
0.000000
 41
0.000000
  0
VERTEX
  8
0
  6
CONTINUOUS
 10
6.527400
 20
2.663760
  0
VERTEX
  8
0
  6
CONTINUOUS
 10
7.190480
 20
2.280960
  0
VERTEX
  8
0
  6
CONTINUOUS
 10
7.050120
 20
2.236520
  0
VERTEX
  8
0
  6
CONTINUOUS
 10
6.387040
 20
2.618880
  0
VERTEX
  8
0
  6
CONTINUOUS
 10
6.527400
 20
2.663760
  0
SEQEND
  8
0
  0
SOLID
  8
0
 62
    15
 10
6.387040
 20
2.618880
 11
7.050120
 21
2.236520
 12
6.244920
 22
2.564320
 13
6.908000
 23
2.181520
  0
POLYLINE
  8
0
  6
CONTINUOUS
 66
     1
 40
0.000000
 41
0.000000
  0
VERTEX
  8
0
  6
CONTINUOUS
 10
6.387040
 20
2.618880
  0
VERTEX
  8
0
  6
CONTINUOUS
 10
7.050120
 20
2.236520
  0
VERTEX
  8
0
  6
CONTINUOUS
 10
6.908000
 20
2.181520
  0
VERTEX
  8
0
  6
CONTINUOUS
 10
6.244920
 20
2.564320
  0
VERTEX
  8
0
  6
CONTINUOUS
 10
6.387040
 20
2.618880
  0
SEQEND
  8
0
  0
SOLID
  8
0
 62
    15
 10
6.244920
 20
2.564320
 11
6.908000
 21
2.181520
 12
6.101920
 22
2.499200
 13
6.765000
 23
2.116400
  0
POLYLINE
  8
0
  6
CONTINUOUS
 66
     1
 40
0.000000
 41
0.000000
  0
VERTEX
  8
0
  6
CONTINUOUS
 10
6.244920
 20
2.564320
  0
VERTEX
  8
0
  6
CONTINUOUS
 10
6.908000
 20
2.181520
  0
VERTEX
  8
0
  6
CONTINUOUS
 10
6.765000
 20
2.116400
  0
VERTEX
  8
0
  6
CONTINUOUS
 10
6.101920
 20
2.499200
  0
VERTEX
  8
0
  6
CONTINUOUS
 10
6.244920
 20
2.564320
  0
SEQEND
  8
0
  0
SOLID
  8
0
 62
    15
 10
6.101920
 20
2.499200
 11
6.765000
 21
2.116400
 12
5.959800
 22
2.423520
 13
6.622880
 23
2.041160
  0
POLYLINE
  8
0
  6
CONTINUOUS
 66
     1
 40
0.000000
 41
0.000000
  0
VERTEX
  8
0
  6
CONTINUOUS
 10
6.101920
 20
2.499200
  0
VERTEX
  8
0
  6
CONTINUOUS
 10
6.765000
 20
2.116400
  0
VERTEX
  8
0
  6
CONTINUOUS
 10
6.622880
 20
2.041160
  0
VERTEX
  8
0
  6
CONTINUOUS
 10
5.959800
 20
2.423520
  0
VERTEX
  8
0
  6
CONTINUOUS
 10
6.101920
 20
2.499200
  0
SEQEND
  8
0
  0
SOLID
  8
0
 62
    15
 10
5.959800
 20
2.423520
 11
6.622880
 21
2.041160
 12
5.819000
 22
2.337280
 13
6.482080
 23
1.954480
  0
POLYLINE
  8
0
  6
CONTINUOUS
 66
     1
 40
0.000000
 41
0.000000
  0
VERTEX
  8
0
  6
CONTINUOUS
 10
5.959800
 20
2.423520
  0
VERTEX
  8
0
  6
CONTINUOUS
 10
6.622880
 20
2.041160
  0
VERTEX
  8
0
  6
CONTINUOUS
 10
6.482080
 20
1.954480
  0
VERTEX
  8
0
  6
CONTINUOUS
 10
5.819000
 20
2.337280
  0
VERTEX
  8
0
  6
CONTINUOUS
 10
5.959800
 20
2.423520
  0
SEQEND
  8
0
  0
SOLID
  8
0
 62
    15
 10
5.819000
 20
2.337280
 11
6.482080
 21
1.954480
 12
5.680840
 22
2.239600
 13
6.343920
 23
1.857240
  0
POLYLINE
  8
0
  6
CONTINUOUS
 66
     1
 40
0.000000
 41
0.000000
  0
VERTEX
  8
0
  6
CONTINUOUS
 10
5.819000
 20
2.337280
  0
VERTEX
  8
0
  6
CONTINUOUS
 10
6.482080
 20
1.954480
  0
VERTEX
  8
0
  6
CONTINUOUS
 10
6.343920
 20
1.857240
  0
VERTEX
  8
0
  6
CONTINUOUS
 10
5.680840
 20
2.239600
  0
VERTEX
  8
0
  6
CONTINUOUS
 10
5.819000
 20
2.337280
  0
SEQEND
  8
0
  0
SOLID
  8
0
 62
    15
 10
5.680840
 20
2.239600
 11
6.343920
 21
1.857240
 12
5.546200
 22
2.131360
 13
6.209280
 23
1.748560
  0
POLYLINE
  8
0
  6
CONTINUOUS
 66
     1
 40
0.000000
 41
0.000000
  0
VERTEX
  8
0
  6
CONTINUOUS
 10
5.680840
 20
2.239600
  0
VERTEX
  8
0
  6
CONTINUOUS
 10
6.343920
 20
1.857240
  0
VERTEX
  8
0
  6
CONTINUOUS
 10
6.209280
 20
1.748560
  0
VERTEX
  8
0
  6
CONTINUOUS
 10
5.546200
 20
2.131360
  0
VERTEX
  8
0
  6
CONTINUOUS
 10
5.680840
 20
2.239600
  0
SEQEND
  8
0
  0
SOLID
  8
0
 62
    15
 10
6.799760
 20
2.723600
 11
7.462840
 21
2.341240
 12
6.665560
 22
2.698520
 13
7.328640
 23
2.316160
  0
POLYLINE
  8
0
  6
CONTINUOUS
 66
     1
 40
0.000000
 41
0.000000
  0
VERTEX
  8
0
  6
CONTINUOUS
 10
6.799760
 20
2.723600
  0
VERTEX
  8
0
  6
CONTINUOUS
 10
7.462840
 20
2.341240
  0
VERTEX
  8
0
  6
CONTINUOUS
 10
7.328640
 20
2.316160
  0
VERTEX
  8
0
  6
CONTINUOUS
 10
6.665560
 20
2.698520
  0
VERTEX
  8
0
  6
CONTINUOUS
 10
6.799760
 20
2.723600
  0
SEQEND
  8
0
  0
SOLID
  8
0
 62
    15
 10
5.415960
 20
2.011240
 11
6.079040
 21
1.628880
 12
5.291880
 22
1.879680
 13
5.954520
 23
1.496880
  0
POLYLINE
  8
0
  6
CONTINUOUS
 66
     1
 40
0.000000
 41
0.000000
  0
VERTEX
  8
0
  6
CONTINUOUS
 10
5.415960
 20
2.011240
  0
VERTEX
  8
0
  6
CONTINUOUS
 10
6.079040
 20
1.628880
  0
VERTEX
  8
0
  6
CONTINUOUS
 10
5.954520
 20
1.496880
  0
VERTEX
  8
0
  6
CONTINUOUS
 10
5.291880
 20
1.879680
  0
VERTEX
  8
0
  6
CONTINUOUS
 10
5.415960
 20
2.011240
  0
SEQEND
  8
0
  0
SOLID
  8
0
 62
    15
 10
5.291880
 20
1.879680
 11
5.954520
 21
1.496880
 12
5.173960
 22
1.736240
 13
5.837040
 23
1.353440
  0
POLYLINE
  8
0
  6
CONTINUOUS
 66
     1
 40
0.000000
 41
0.000000
  0
VERTEX
  8
0
  6
CONTINUOUS
 10
5.291880
 20
1.879680
  0
VERTEX
  8
0
  6
CONTINUOUS
 10
5.954520
 20
1.496880
  0
VERTEX
  8
0
  6
CONTINUOUS
 10
5.837040
 20
1.353440
  0
VERTEX
  8
0
  6
CONTINUOUS
 10
5.173960
 20
1.736240
  0
VERTEX
  8
0
  6
CONTINUOUS
 10
5.291880
 20
1.879680
  0
SEQEND
  8
0
  0
SOLID
  8
0
 62
    15
 10
5.173960
 20
1.736240
 11
5.837040
 21
1.353440
 12
5.063960
 22
1.580480
 13
5.727040
 23
1.198120
  0
POLYLINE
  8
0
  6
CONTINUOUS
 66
     1
 40
0.000000
 41
0.000000
  0
VERTEX
  8
0
  6
CONTINUOUS
 10
5.173960
 20
1.736240
  0
VERTEX
  8
0
  6
CONTINUOUS
 10
5.837040
 20
1.353440
  0
VERTEX
  8
0
  6
CONTINUOUS
 10
5.727040
 20
1.198120
  0
VERTEX
  8
0
  6
CONTINUOUS
 10
5.063960
 20
1.580480
  0
VERTEX
  8
0
  6
CONTINUOUS
 10
5.173960
 20
1.736240
  0
SEQEND
  8
0
  0
SOLID
  8
0
 62
    15
 10
5.063960
 20
1.580480
 11
5.727040
 21
1.198120
 12
4.962760
 22
1.412840
 13
5.625400
 23
1.030040
  0
POLYLINE
  8
0
  6
CONTINUOUS
 66
     1
 40
0.000000
 41
0.000000
  0
VERTEX
  8
0
  6
CONTINUOUS
 10
5.063960
 20
1.580480
  0
VERTEX
  8
0
  6
CONTINUOUS
 10
5.727040
 20
1.198120
  0
VERTEX
  8
0
  6
CONTINUOUS
 10
5.625400
 20
1.030040
  0
VERTEX
  8
0
  6
CONTINUOUS
 10
4.962760
 20
1.412840
  0
VERTEX
  8
0
  6
CONTINUOUS
 10
5.063960
 20
1.580480
  0
SEQEND
  8
0
  0
SOLID
  8
0
 62
    15
 10
4.962760
 20
1.412840
 11
5.625400
 21
1.030040
 12
4.871240
 22
1.232440
 13
5.533880
 23
0.850080
  0
POLYLINE
  8
0
  6
CONTINUOUS
 66
     1
 40
0.000000
 41
0.000000
  0
VERTEX
  8
0
  6
CONTINUOUS
 10
4.962760
 20
1.412840
  0
VERTEX
  8
0
  6
CONTINUOUS
 10
5.625400
 20
1.030040
  0
VERTEX
  8
0
  6
CONTINUOUS
 10
5.533880
 20
0.850080
  0
VERTEX
  8
0
  6
CONTINUOUS
 10
4.871240
 20
1.232440
  0
VERTEX
  8
0
  6
CONTINUOUS
 10
4.962760
 20
1.412840
  0
SEQEND
  8
0
  0
SOLID
  8
0
 62
    15
 10
4.871240
 20
1.232440
 11
5.533880
 21
0.850080
 12
4.790280
 22
1.039280
 13
5.453360
 23
0.656920
  0
POLYLINE
  8
0
  6
CONTINUOUS
 66
     1
 40
0.000000
 41
0.000000
  0
VERTEX
  8
0
  6
CONTINUOUS
 10
4.871240
 20
1.232440
  0
VERTEX
  8
0
  6
CONTINUOUS
 10
5.533880
 20
0.850080
  0
VERTEX
  8
0
  6
CONTINUOUS
 10
5.453360
 20
0.656920
  0
VERTEX
  8
0
  6
CONTINUOUS
 10
4.790280
 20
1.039280
  0
VERTEX
  8
0
  6
CONTINUOUS
 10
4.871240
 20
1.232440
  0
SEQEND
  8
0
  0
SOLID
  8
0
 62
    15
 10
4.790280
 20
1.039280
 11
5.453360
 21
0.656920
 12
4.227960
 22
1.085480
 13
4.891040
 23
0.702680
  0
POLYLINE
  8
0
  6
CONTINUOUS
 66
     1
 40
0.000000
 41
0.000000
  0
VERTEX
  8
0
  6
CONTINUOUS
 10
4.790280
 20
1.039280
  0
VERTEX
  8
0
  6
CONTINUOUS
 10
5.453360
 20
0.656920
  0
VERTEX
  8
0
  6
CONTINUOUS
 10
4.891040
 20
0.702680
  0
VERTEX
  8
0
  6
CONTINUOUS
 10
4.227960
 20
1.085480
  0
VERTEX
  8
0
  6
CONTINUOUS
 10
4.790280
 20
1.039280
  0
SEQEND
  8
0
  0
SOLID
  8
0
 62
    15
 10
6.819120
 20
3.067680
 11
7.481760
 21
2.684880
 12
6.799760
 22
2.723600
 13
7.462840
 23
2.341240
  0
POLYLINE
  8
0
  6
CONTINUOUS
 66
     1
 40
0.000000
 41
0.000000
  0
VERTEX
  8
0
  6
CONTINUOUS
 10
6.819120
 20
3.067680
  0
VERTEX
  8
0
  6
CONTINUOUS
 10
7.481760
 20
2.684880
  0
VERTEX
  8
0
  6
CONTINUOUS
 10
7.462840
 20
2.341240
  0
VERTEX
  8
0
  6
CONTINUOUS
 10
6.799760
 20
2.723600
  0
VERTEX
  8
0
  6
CONTINUOUS
 10
6.819120
 20
3.067680
  0
SEQEND
  8
0
  0
POLYLINE
  8
0
  6
CONTINUOUS
 66
     1
 40
0.000000
 41
0.000000
  0
VERTEX
  8
0
  6
CONTINUOUS
 10
6.799760
 20
2.723600
  0
VERTEX
  8
0
  6
CONTINUOUS
 10
6.665560
 20
2.698520
  0
VERTEX
  8
0
  6
CONTINUOUS
 10
6.527400
 20
2.663760
  0
VERTEX
  8
0
  6
CONTINUOUS
 10
6.387040
 20
2.618880
  0
VERTEX
  8
0
  6
CONTINUOUS
 10
6.244920
 20
2.564320
  0
VERTEX
  8
0
  6
CONTINUOUS
 10
6.101920
 20
2.499200
  0
VERTEX
  8
0
  6
CONTINUOUS
 10
5.959800
 20
2.423520
  0
VERTEX
  8
0
  6
CONTINUOUS
 10
5.819000
 20
2.337280
  0
VERTEX
  8
0
  6
CONTINUOUS
 10
5.680840
 20
2.239600
  0
VERTEX
  8
0
  6
CONTINUOUS
 10
5.546200
 20
2.131360
  0
VERTEX
  8
0
  6
CONTINUOUS
 10
5.415960
 20
2.011240
  0
VERTEX
  8
0
  6
CONTINUOUS
 10
5.291880
 20
1.879680
  0
VERTEX
  8
0
  6
CONTINUOUS
 10
5.173960
 20
1.736240
  0
VERTEX
  8
0
  6
CONTINUOUS
 10
5.063960
 20
1.580480
  0
VERTEX
  8
0
  6
CONTINUOUS
 10
4.962760
 20
1.412840
  0
VERTEX
  8
0
  6
CONTINUOUS
 10
4.871240
 20
1.232440
  0
VERTEX
  8
0
  6
CONTINUOUS
 10
4.790280
 20
1.039280
  0
VERTEX
  8
0
  6
CONTINUOUS
 10
4.227960
 20
1.085480
  0
VERTEX
  8
0
  6
CONTINUOUS
 10
4.227960
 20
1.484560
  0
VERTEX
  8
0
  6
CONTINUOUS
 10
6.133600
 20
3.061080
  0
VERTEX
  8
0
  6
CONTINUOUS
 10
6.819120
 20
3.067680
  0
VERTEX
  8
0
  6
CONTINUOUS
 10
6.799760
 20
2.723600
  0
SEQEND
  8
0
  0
TEXT
  8
0
 10
5.982680
 20
0.893640
 40
0.138049
  1
BA  604
 41
1.000000
  7
SN0
 71
     0
 72
     5
 11
6.572505
 21
0.893640
  0
TEXT
  8
0
 10
5.734520
 20
0.702240
 40
0.138049
  1
11/16" x 3-1/4"
 41
1.000000
  7
SN0
 71
     0
 72
     5
 11
6.818614
 21
0.702240
  0
ENDSEC
  0
EOF
