  0
SECTION
  2
HEADER
  9
$ACADVER
  1
AC1006
  9
$EXTMIN
 10
1.875280
 20
0.585200
  9
$EXTMAX
 10
7.473400
 20
2.577960
  9
$LTSCALE
 40
0.044000
  9
$PDMODE
 70
    35
  9
$PDSIZE
 40
0.035200
  0
ENDSEC
  0
SECTION
  2
TABLES
  0
TABLE
  2
LTYPE
 70
     9
  0
LTYPE
  2
CONTINUOUS
 70
    64
  3
Solid line
 72
    65
 73
     0
 40
0.000000
  0
LTYPE
  2
DASHED
 70
    64
  3
__ __ __ __ __ __ __ __ __ __ __ __ __ __ __
 72
    65
 73
     2
 40
0.000330
 49
0.000220
 49
-0.000110
  0
LTYPE
  2
HIDDEN
 70
    64
  3
 _ _ _ _ _ _ _ _ _ _ _ _ _ _ _ _ _ _ _ _ _ _
 72
    65
 73
     2
 40
0.000165
 49
0.000110
 49
-0.000055
  0
LTYPE
  2
CENTER
 70
    64
  3
____ _ ____ _ ____ _ ____ _ ____ _ ____ _ ____
 72
    65
 73
     4
 40
0.000880
 49
0.000550
 49
-0.000110
 49
0.000110
 49
-0.000110
  0
LTYPE
  2
PHANTOM
 70
    64
  3
_____ _ _ _____ _ _ _____ _ _ _____ _ _ ____
 72
    65
 73
     6
 40
0.001100
 49
0.000550
 49
-0.000110
 49
0.000110
 49
-0.000110
 49
0.000110
 49
-0.000110
  0
LTYPE
  2
DOT
 70
    64
  3
...............................................
 72
    65
 73
     2
 40
0.000110
 49
0.000000
 49
-0.000110
  0
LTYPE
  2
DASHDOT
 70
    64
  3
__ . __ . __ . __ . __ . __ . __ . __ . __ . __
 72
    65
 73
     4
 40
0.000440
 49
0.000220
 49
-0.000110
 49
0.000000
 49
-0.000110
  0
LTYPE
  2
BORDER
 70
    64
  3
__ __ . __ __ . __ __ . __ __ . __ __ . __ __
 72
    65
 73
     6
 40
0.000770
 49
0.000220
 49
-0.000110
 49
0.000220
 49
-0.000110
 49
0.000000
 49
-0.000110
  0
LTYPE
  2
DIVIDE
 70
    64
  3
__ . . __ . . __ . . __ . . __ . . __ . . __
 72
    65
 73
     6
 40
0.000550
 49
0.000220
 49
-0.000110
 49
0.000000
 49
-0.000110
 49
0.000000
 49
-0.000110
  0
LTYPE
  2
DOTDOT
 70
    64
  3
 . .  . .  . .  . .  . .  . . 
 72
    65
 73
     5
 40
0.000242
 49
-0.000110
 49
0.000000
 49
-0.000110
 49
0.000000
 49
-0.000110
  0
ENDTAB
  0
TABLE
  2
STYLE
 70
     2
  0
STYLE
 70
     0
  2
SN0
 40
0.000000
 41
0.000440
 50
0.000000
 71
     0
 42
0.000000
  3
ROMAND
  0
STYLE
 70
    68
  2
SV0
 40
0.000000
 41
0.000440
 50
0.000000
 71
     0
 42
0.000000
  3
ROMAND
  0
ENDTAB
  0
TABLE
  2
LAYER
 70
     3
  0
LAYER
  2
FOREGROUND
 70
    64
 62
     7
  6
CONTINUOUS
  0
LAYER
  2
BACKGROUND
 70
    65
 62
    -7
  6
CONTINUOUS
  0
LAYER
  2
0
 70
    64
 62
     7
  6
CONTINUOUS
  0
ENDTAB
  0
ENDSEC
  0
SECTION
  2
ENTITIES
  0
POLYLINE
  8
FOREGROUND
  6
CONTINUOUS
 66
     1
 40
0.000000
 41
0.000000
  0
VERTEX
  8
FOREGROUND
  6
CONTINUOUS
 10
0.000000
 20
3.163160
  0
VERTEX
  8
FOREGROUND
  6
CONTINUOUS
 10
8.499920
 20
3.163160
  0
VERTEX
  8
FOREGROUND
  6
CONTINUOUS
 10
8.499920
 20
-7.836840
  0
VERTEX
  8
FOREGROUND
  6
CONTINUOUS
 10
0.000000
 20
-7.836840
  0
VERTEX
  8
FOREGROUND
  6
CONTINUOUS
 10
0.000000
 20
3.163160
  0
SEQEND
  8
0
  0
POLYLINE
  8
FOREGROUND
  6
CONTINUOUS
 66
     1
 40
0.000000
 41
0.000000
  0
VERTEX
  8
FOREGROUND
  6
CONTINUOUS
 10
0.000000
 20
3.163160
  0
VERTEX
  8
FOREGROUND
  6
CONTINUOUS
 10
8.499920
 20
3.163160
  0
VERTEX
  8
FOREGROUND
  6
CONTINUOUS
 10
8.499920
 20
-7.836840
  0
VERTEX
  8
FOREGROUND
  6
CONTINUOUS
 10
0.000000
 20
-7.836840
  0
VERTEX
  8
FOREGROUND
  6
CONTINUOUS
 10
0.000000
 20
3.163160
  0
SEQEND
  8
0
  0
POLYLINE
  8
0
  6
CONTINUOUS
 66
     1
 40
0.014080
 41
0.014080
  0
VERTEX
  8
0
  6
CONTINUOUS
 10
5.475800
 20
2.569600
  0
VERTEX
  8
0
  6
CONTINUOUS
 10
5.506600
 20
2.298560
  0
VERTEX
  8
0
  6
CONTINUOUS
 10
5.544000
 20
2.298560
  0
VERTEX
  8
0
  6
CONTINUOUS
 10
5.555000
 20
2.331560
  0
VERTEX
  8
0
  6
CONTINUOUS
 10
5.562480
 20
2.346520
  0
VERTEX
  8
0
  6
CONTINUOUS
 10
5.581840
 20
2.373360
  0
VERTEX
  8
0
  6
CONTINUOUS
 10
5.605600
 20
2.396680
  0
VERTEX
  8
0
  6
CONTINUOUS
 10
5.633320
 20
2.416040
  0
VERTEX
  8
0
  6
CONTINUOUS
 10
5.664560
 20
2.431440
  0
VERTEX
  8
0
  6
CONTINUOUS
 10
5.697560
 20
2.442880
  0
VERTEX
  8
0
  6
CONTINUOUS
 10
5.732320
 20
2.450360
  0
VERTEX
  8
0
  6
CONTINUOUS
 10
5.768400
 20
2.454320
  0
VERTEX
  8
0
  6
CONTINUOUS
 10
5.786440
 20
2.454760
  0
VERTEX
  8
0
  6
CONTINUOUS
 10
5.822080
 20
2.452560
  0
VERTEX
  8
0
  6
CONTINUOUS
 10
5.856400
 20
2.446400
  0
VERTEX
  8
0
  6
CONTINUOUS
 10
5.889400
 20
2.436280
  0
VERTEX
  8
0
  6
CONTINUOUS
 10
5.905240
 20
2.430120
  0
VERTEX
  8
0
  6
CONTINUOUS
 10
5.933840
 20
2.414280
  0
VERTEX
  8
0
  6
CONTINUOUS
 10
5.958920
 20
2.394480
  0
VERTEX
  8
0
  6
CONTINUOUS
 10
5.980040
 20
2.370720
  0
VERTEX
  8
0
  6
CONTINUOUS
 10
6.022280
 20
2.302960
  0
VERTEX
  8
0
  6
CONTINUOUS
 10
6.061440
 20
2.252360
  0
VERTEX
  8
0
  6
CONTINUOUS
 10
6.094000
 20
2.218920
  0
VERTEX
  8
0
  6
CONTINUOUS
 10
6.129200
 20
2.191200
  0
VERTEX
  8
0
  6
CONTINUOUS
 10
6.154720
 20
2.176680
  0
VERTEX
  8
0
  6
CONTINUOUS
 10
6.181120
 20
2.165680
  0
VERTEX
  8
0
  6
CONTINUOUS
 10
6.208840
 20
2.159080
  0
VERTEX
  8
0
  6
CONTINUOUS
 10
6.238320
 20
2.156440
  0
VERTEX
  8
0
  6
CONTINUOUS
 10
6.268680
 20
2.159520
  0
VERTEX
  8
0
  6
CONTINUOUS
 10
6.300360
 20
2.167880
  0
VERTEX
  8
0
  6
CONTINUOUS
 10
6.333360
 20
2.181960
  0
VERTEX
  8
0
  6
CONTINUOUS
 10
6.367680
 20
2.202640
  0
VERTEX
  8
0
  6
CONTINUOUS
 10
6.403320
 20
2.230360
  0
VERTEX
  8
0
  6
CONTINUOUS
 10
6.574480
 20
2.240480
  0
VERTEX
  8
0
  6
CONTINUOUS
 10
6.578440
 20
2.263360
  0
VERTEX
  8
0
  6
CONTINUOUS
 10
6.585480
 20
2.283600
  0
VERTEX
  8
0
  6
CONTINUOUS
 10
6.595600
 20
2.301640
  0
VERTEX
  8
0
  6
CONTINUOUS
 10
6.615400
 20
2.323640
  0
VERTEX
  8
0
  6
CONTINUOUS
 10
6.638720
 20
2.339920
  0
VERTEX
  8
0
  6
CONTINUOUS
 10
6.665120
 20
2.349160
  0
VERTEX
  8
0
  6
CONTINUOUS
 10
6.683600
 20
2.351360
  0
VERTEX
  8
0
  6
CONTINUOUS
 10
6.702080
 20
2.350040
  0
VERTEX
  8
0
  6
CONTINUOUS
 10
6.720120
 20
2.345200
  0
VERTEX
  8
0
  6
CONTINUOUS
 10
6.737720
 20
2.336840
  0
VERTEX
  8
0
  6
CONTINUOUS
 10
6.754000
 20
2.324520
  0
VERTEX
  8
0
  6
CONTINUOUS
 10
6.768960
 20
2.308680
  0
VERTEX
  8
0
  6
CONTINUOUS
 10
6.781720
 20
2.288000
  0
VERTEX
  8
0
  6
CONTINUOUS
 10
6.791840
 20
2.263800
  0
VERTEX
  8
0
  6
CONTINUOUS
 10
6.796240
 20
2.249720
  0
VERTEX
  8
0
  6
CONTINUOUS
 10
7.164520
 20
2.249720
  0
VERTEX
  8
0
  6
CONTINUOUS
 10
7.175960
 20
2.108480
  0
VERTEX
  8
0
  6
CONTINUOUS
 10
7.214680
 20
2.106720
  0
VERTEX
  8
0
  6
CONTINUOUS
 10
7.231840
 20
2.104960
  0
VERTEX
  8
0
  6
CONTINUOUS
 10
7.247680
 20
2.101880
  0
VERTEX
  8
0
  6
CONTINUOUS
 10
7.275840
 20
2.091760
  0
VERTEX
  8
0
  6
CONTINUOUS
 10
7.287720
 20
2.084280
  0
VERTEX
  8
0
  6
CONTINUOUS
 10
7.298280
 20
2.075480
  0
VERTEX
  8
0
  6
CONTINUOUS
 10
7.307960
 20
2.064480
  0
VERTEX
  8
0
  6
CONTINUOUS
 10
7.319840
 20
2.044680
  0
VERTEX
  8
0
  6
CONTINUOUS
 10
7.331280
 20
2.009920
  0
VERTEX
  8
0
  6
CONTINUOUS
 10
7.336560
 20
1.977360
  0
VERTEX
  8
0
  6
CONTINUOUS
 10
7.339200
 20
1.938640
  0
VERTEX
  8
0
  6
CONTINUOUS
 10
7.339640
 20
1.924120
  0
VERTEX
  8
0
  6
CONTINUOUS
 10
7.466360
 20
1.924120
  0
VERTEX
  8
0
  6
CONTINUOUS
 10
7.466360
 20
1.816320
  0
VERTEX
  8
0
  6
CONTINUOUS
 10
4.968920
 20
1.816320
  0
VERTEX
  8
0
  6
CONTINUOUS
 10
4.968920
 20
2.570480
  0
VERTEX
  8
0
  6
CONTINUOUS
 10
5.475800
 20
2.570480
  0
SEQEND
  8
0
  0
SOLID
  8
0
 62
    15
 10
3.208920
 20
1.381160
 11
3.207160
 21
2.123440
 12
3.241920
 22
1.395240
 13
3.240160
 23
2.137520
  0
POLYLINE
  8
0
  6
CONTINUOUS
 66
     1
 40
0.000000
 41
0.000000
  0
VERTEX
  8
0
  6
CONTINUOUS
 10
3.208920
 20
1.381160
  0
VERTEX
  8
0
  6
CONTINUOUS
 10
3.207160
 20
2.123440
  0
VERTEX
  8
0
  6
CONTINUOUS
 10
3.240160
 20
2.137520
  0
VERTEX
  8
0
  6
CONTINUOUS
 10
3.241920
 20
1.395240
  0
VERTEX
  8
0
  6
CONTINUOUS
 10
3.208920
 20
1.381160
  0
SEQEND
  8
0
  0
SOLID
  8
0
 62
    15
 10
2.415160
 20
1.511840
 11
2.413840
 21
2.254120
 12
2.452120
 22
1.511840
 13
2.450800
 23
2.254120
  0
POLYLINE
  8
0
  6
CONTINUOUS
 66
     1
 40
0.000000
 41
0.000000
  0
VERTEX
  8
0
  6
CONTINUOUS
 10
2.415160
 20
1.511840
  0
VERTEX
  8
0
  6
CONTINUOUS
 10
2.413840
 20
2.254120
  0
VERTEX
  8
0
  6
CONTINUOUS
 10
2.450800
 20
2.254120
  0
VERTEX
  8
0
  6
CONTINUOUS
 10
2.452120
 20
1.511840
  0
VERTEX
  8
0
  6
CONTINUOUS
 10
2.415160
 20
1.511840
  0
SEQEND
  8
0
  0
SOLID
  8
0
 62
    15
 10
2.452120
 20
1.511840
 11
2.450800
 21
2.254120
 12
2.463120
 22
1.544840
 13
2.461800
 23
2.287120
  0
POLYLINE
  8
0
  6
CONTINUOUS
 66
     1
 40
0.000000
 41
0.000000
  0
VERTEX
  8
0
  6
CONTINUOUS
 10
2.452120
 20
1.511840
  0
VERTEX
  8
0
  6
CONTINUOUS
 10
2.450800
 20
2.254120
  0
VERTEX
  8
0
  6
CONTINUOUS
 10
2.461800
 20
2.287120
  0
VERTEX
  8
0
  6
CONTINUOUS
 10
2.463120
 20
1.544840
  0
VERTEX
  8
0
  6
CONTINUOUS
 10
2.452120
 20
1.511840
  0
SEQEND
  8
0
  0
SOLID
  8
0
 62
    15
 10
2.463120
 20
1.544840
 11
2.461800
 21
2.287120
 12
2.479840
 22
1.573880
 13
2.478520
 23
2.315720
  0
POLYLINE
  8
0
  6
CONTINUOUS
 66
     1
 40
0.000000
 41
0.000000
  0
VERTEX
  8
0
  6
CONTINUOUS
 10
2.463120
 20
1.544840
  0
VERTEX
  8
0
  6
CONTINUOUS
 10
2.461800
 20
2.287120
  0
VERTEX
  8
0
  6
CONTINUOUS
 10
2.478520
 20
2.315720
  0
VERTEX
  8
0
  6
CONTINUOUS
 10
2.479840
 20
1.573880
  0
VERTEX
  8
0
  6
CONTINUOUS
 10
2.463120
 20
1.544840
  0
SEQEND
  8
0
  0
SOLID
  8
0
 62
    15
 10
2.479840
 20
1.573880
 11
2.478520
 21
2.315720
 12
2.501400
 22
1.598960
 13
2.500080
 23
2.341240
  0
POLYLINE
  8
0
  6
CONTINUOUS
 66
     1
 40
0.000000
 41
0.000000
  0
VERTEX
  8
0
  6
CONTINUOUS
 10
2.479840
 20
1.573880
  0
VERTEX
  8
0
  6
CONTINUOUS
 10
2.478520
 20
2.315720
  0
VERTEX
  8
0
  6
CONTINUOUS
 10
2.500080
 20
2.341240
  0
VERTEX
  8
0
  6
CONTINUOUS
 10
2.501400
 20
1.598960
  0
VERTEX
  8
0
  6
CONTINUOUS
 10
2.479840
 20
1.573880
  0
SEQEND
  8
0
  0
SOLID
  8
0
 62
    15
 10
2.501400
 20
1.598960
 11
2.500080
 21
2.341240
 12
2.527360
 22
1.620080
 13
2.526040
 23
2.362360
  0
POLYLINE
  8
0
  6
CONTINUOUS
 66
     1
 40
0.000000
 41
0.000000
  0
VERTEX
  8
0
  6
CONTINUOUS
 10
2.501400
 20
1.598960
  0
VERTEX
  8
0
  6
CONTINUOUS
 10
2.500080
 20
2.341240
  0
VERTEX
  8
0
  6
CONTINUOUS
 10
2.526040
 20
2.362360
  0
VERTEX
  8
0
  6
CONTINUOUS
 10
2.527360
 20
1.620080
  0
VERTEX
  8
0
  6
CONTINUOUS
 10
2.501400
 20
1.598960
  0
SEQEND
  8
0
  0
SOLID
  8
0
 62
    15
 10
2.527360
 20
1.620080
 11
2.526040
 21
2.362360
 12
2.556840
 22
1.637240
 13
2.555520
 23
2.379520
  0
POLYLINE
  8
0
  6
CONTINUOUS
 66
     1
 40
0.000000
 41
0.000000
  0
VERTEX
  8
0
  6
CONTINUOUS
 10
2.527360
 20
1.620080
  0
VERTEX
  8
0
  6
CONTINUOUS
 10
2.526040
 20
2.362360
  0
VERTEX
  8
0
  6
CONTINUOUS
 10
2.555520
 20
2.379520
  0
VERTEX
  8
0
  6
CONTINUOUS
 10
2.556840
 20
1.637240
  0
VERTEX
  8
0
  6
CONTINUOUS
 10
2.527360
 20
1.620080
  0
SEQEND
  8
0
  0
SOLID
  8
0
 62
    15
 10
2.556840
 20
1.637240
 11
2.555520
 21
2.379520
 12
2.588960
 22
1.650880
 13
2.587640
 23
2.393160
  0
POLYLINE
  8
0
  6
CONTINUOUS
 66
     1
 40
0.000000
 41
0.000000
  0
VERTEX
  8
0
  6
CONTINUOUS
 10
2.556840
 20
1.637240
  0
VERTEX
  8
0
  6
CONTINUOUS
 10
2.555520
 20
2.379520
  0
VERTEX
  8
0
  6
CONTINUOUS
 10
2.587640
 20
2.393160
  0
VERTEX
  8
0
  6
CONTINUOUS
 10
2.588960
 20
1.650880
  0
VERTEX
  8
0
  6
CONTINUOUS
 10
2.556840
 20
1.637240
  0
SEQEND
  8
0
  0
SOLID
  8
0
 62
    15
 10
2.588960
 20
1.650880
 11
2.587640
 21
2.393160
 12
2.623280
 22
1.660560
 13
2.621960
 23
2.402840
  0
POLYLINE
  8
0
  6
CONTINUOUS
 66
     1
 40
0.000000
 41
0.000000
  0
VERTEX
  8
0
  6
CONTINUOUS
 10
2.588960
 20
1.650880
  0
VERTEX
  8
0
  6
CONTINUOUS
 10
2.587640
 20
2.393160
  0
VERTEX
  8
0
  6
CONTINUOUS
 10
2.621960
 20
2.402840
  0
VERTEX
  8
0
  6
CONTINUOUS
 10
2.623280
 20
1.660560
  0
VERTEX
  8
0
  6
CONTINUOUS
 10
2.588960
 20
1.650880
  0
SEQEND
  8
0
  0
SOLID
  8
0
 62
    15
 10
2.623280
 20
1.660560
 11
2.621960
 21
2.402840
 12
2.658920
 22
1.666280
 13
2.657160
 23
2.408560
  0
POLYLINE
  8
0
  6
CONTINUOUS
 66
     1
 40
0.000000
 41
0.000000
  0
VERTEX
  8
0
  6
CONTINUOUS
 10
2.623280
 20
1.660560
  0
VERTEX
  8
0
  6
CONTINUOUS
 10
2.621960
 20
2.402840
  0
VERTEX
  8
0
  6
CONTINUOUS
 10
2.657160
 20
2.408560
  0
VERTEX
  8
0
  6
CONTINUOUS
 10
2.658920
 20
1.666280
  0
VERTEX
  8
0
  6
CONTINUOUS
 10
2.623280
 20
1.660560
  0
SEQEND
  8
0
  0
SOLID
  8
0
 62
    15
 10
2.658920
 20
1.666280
 11
2.657160
 21
2.408560
 12
2.694560
 22
1.668040
 13
2.693240
 23
2.410320
  0
POLYLINE
  8
0
  6
CONTINUOUS
 66
     1
 40
0.000000
 41
0.000000
  0
VERTEX
  8
0
  6
CONTINUOUS
 10
2.658920
 20
1.666280
  0
VERTEX
  8
0
  6
CONTINUOUS
 10
2.657160
 20
2.408560
  0
VERTEX
  8
0
  6
CONTINUOUS
 10
2.693240
 20
2.410320
  0
VERTEX
  8
0
  6
CONTINUOUS
 10
2.694560
 20
1.668040
  0
VERTEX
  8
0
  6
CONTINUOUS
 10
2.658920
 20
1.666280
  0
SEQEND
  8
0
  0
SOLID
  8
0
 62
    15
 10
2.694560
 20
1.668040
 11
2.693240
 21
2.410320
 12
2.730640
 22
1.665840
 13
2.728880
 23
2.408120
  0
POLYLINE
  8
0
  6
CONTINUOUS
 66
     1
 40
0.000000
 41
0.000000
  0
VERTEX
  8
0
  6
CONTINUOUS
 10
2.694560
 20
1.668040
  0
VERTEX
  8
0
  6
CONTINUOUS
 10
2.693240
 20
2.410320
  0
VERTEX
  8
0
  6
CONTINUOUS
 10
2.728880
 20
2.408120
  0
VERTEX
  8
0
  6
CONTINUOUS
 10
2.730640
 20
1.665840
  0
VERTEX
  8
0
  6
CONTINUOUS
 10
2.694560
 20
1.668040
  0
SEQEND
  8
0
  0
SOLID
  8
0
 62
    15
 10
2.730640
 20
1.665840
 11
2.728880
 21
2.408120
 12
2.764960
 22
1.659680
 13
2.763640
 23
2.401960
  0
POLYLINE
  8
0
  6
CONTINUOUS
 66
     1
 40
0.000000
 41
0.000000
  0
VERTEX
  8
0
  6
CONTINUOUS
 10
2.730640
 20
1.665840
  0
VERTEX
  8
0
  6
CONTINUOUS
 10
2.728880
 20
2.408120
  0
VERTEX
  8
0
  6
CONTINUOUS
 10
2.763640
 20
2.401960
  0
VERTEX
  8
0
  6
CONTINUOUS
 10
2.764960
 20
1.659680
  0
VERTEX
  8
0
  6
CONTINUOUS
 10
2.730640
 20
1.665840
  0
SEQEND
  8
0
  0
SOLID
  8
0
 62
    15
 10
2.764960
 20
1.659680
 11
2.763640
 21
2.401960
 12
2.797960
 22
1.650000
 13
2.796640
 23
2.392280
  0
POLYLINE
  8
0
  6
CONTINUOUS
 66
     1
 40
0.000000
 41
0.000000
  0
VERTEX
  8
0
  6
CONTINUOUS
 10
2.764960
 20
1.659680
  0
VERTEX
  8
0
  6
CONTINUOUS
 10
2.763640
 20
2.401960
  0
VERTEX
  8
0
  6
CONTINUOUS
 10
2.796640
 20
2.392280
  0
VERTEX
  8
0
  6
CONTINUOUS
 10
2.797960
 20
1.650000
  0
VERTEX
  8
0
  6
CONTINUOUS
 10
2.764960
 20
1.659680
  0
SEQEND
  8
0
  0
SOLID
  8
0
 62
    15
 10
2.797960
 20
1.650000
 11
2.796640
 21
2.392280
 12
2.828320
 22
1.635920
 13
2.827000
 23
2.378200
  0
POLYLINE
  8
0
  6
CONTINUOUS
 66
     1
 40
0.000000
 41
0.000000
  0
VERTEX
  8
0
  6
CONTINUOUS
 10
2.797960
 20
1.650000
  0
VERTEX
  8
0
  6
CONTINUOUS
 10
2.796640
 20
2.392280
  0
VERTEX
  8
0
  6
CONTINUOUS
 10
2.827000
 20
2.378200
  0
VERTEX
  8
0
  6
CONTINUOUS
 10
2.828320
 20
1.635920
  0
VERTEX
  8
0
  6
CONTINUOUS
 10
2.797960
 20
1.650000
  0
SEQEND
  8
0
  0
SOLID
  8
0
 62
    15
 10
2.828320
 20
1.635920
 11
2.827000
 21
2.378200
 12
2.855600
 22
1.618320
 13
2.853840
 23
2.360600
  0
POLYLINE
  8
0
  6
CONTINUOUS
 66
     1
 40
0.000000
 41
0.000000
  0
VERTEX
  8
0
  6
CONTINUOUS
 10
2.828320
 20
1.635920
  0
VERTEX
  8
0
  6
CONTINUOUS
 10
2.827000
 20
2.378200
  0
VERTEX
  8
0
  6
CONTINUOUS
 10
2.853840
 20
2.360600
  0
VERTEX
  8
0
  6
CONTINUOUS
 10
2.855600
 20
1.618320
  0
VERTEX
  8
0
  6
CONTINUOUS
 10
2.828320
 20
1.635920
  0
SEQEND
  8
0
  0
SOLID
  8
0
 62
    15
 10
2.855600
 20
1.618320
 11
2.853840
 21
2.360600
 12
2.878480
 22
1.596760
 13
2.877160
 23
2.339040
  0
POLYLINE
  8
0
  6
CONTINUOUS
 66
     1
 40
0.000000
 41
0.000000
  0
VERTEX
  8
0
  6
CONTINUOUS
 10
2.855600
 20
1.618320
  0
VERTEX
  8
0
  6
CONTINUOUS
 10
2.853840
 20
2.360600
  0
VERTEX
  8
0
  6
CONTINUOUS
 10
2.877160
 20
2.339040
  0
VERTEX
  8
0
  6
CONTINUOUS
 10
2.878480
 20
1.596760
  0
VERTEX
  8
0
  6
CONTINUOUS
 10
2.855600
 20
1.618320
  0
SEQEND
  8
0
  0
SOLID
  8
0
 62
    15
 10
2.878480
 20
1.596760
 11
2.877160
 21
2.339040
 12
2.896960
 22
1.571240
 13
2.895640
 23
2.313080
  0
POLYLINE
  8
0
  6
CONTINUOUS
 66
     1
 40
0.000000
 41
0.000000
  0
VERTEX
  8
0
  6
CONTINUOUS
 10
2.878480
 20
1.596760
  0
VERTEX
  8
0
  6
CONTINUOUS
 10
2.877160
 20
2.339040
  0
VERTEX
  8
0
  6
CONTINUOUS
 10
2.895640
 20
2.313080
  0
VERTEX
  8
0
  6
CONTINUOUS
 10
2.896960
 20
1.571240
  0
VERTEX
  8
0
  6
CONTINUOUS
 10
2.878480
 20
1.596760
  0
SEQEND
  8
0
  0
SOLID
  8
0
 62
    15
 10
2.896960
 20
1.571240
 11
2.895640
 21
2.313080
 12
2.930840
 22
1.516680
 13
2.929520
 23
2.258960
  0
POLYLINE
  8
0
  6
CONTINUOUS
 66
     1
 40
0.000000
 41
0.000000
  0
VERTEX
  8
0
  6
CONTINUOUS
 10
2.896960
 20
1.571240
  0
VERTEX
  8
0
  6
CONTINUOUS
 10
2.895640
 20
2.313080
  0
VERTEX
  8
0
  6
CONTINUOUS
 10
2.929520
 20
2.258960
  0
VERTEX
  8
0
  6
CONTINUOUS
 10
2.930840
 20
1.516680
  0
VERTEX
  8
0
  6
CONTINUOUS
 10
2.896960
 20
1.571240
  0
SEQEND
  8
0
  0
SOLID
  8
0
 62
    15
 10
2.930840
 20
1.516680
 11
2.929520
 21
2.258960
 12
2.970000
 22
1.465640
 13
2.968240
 23
2.207920
  0
POLYLINE
  8
0
  6
CONTINUOUS
 66
     1
 40
0.000000
 41
0.000000
  0
VERTEX
  8
0
  6
CONTINUOUS
 10
2.930840
 20
1.516680
  0
VERTEX
  8
0
  6
CONTINUOUS
 10
2.929520
 20
2.258960
  0
VERTEX
  8
0
  6
CONTINUOUS
 10
2.968240
 20
2.207920
  0
VERTEX
  8
0
  6
CONTINUOUS
 10
2.970000
 20
1.465640
  0
VERTEX
  8
0
  6
CONTINUOUS
 10
2.930840
 20
1.516680
  0
SEQEND
  8
0
  0
SOLID
  8
0
 62
    15
 10
2.970000
 20
1.465640
 11
2.968240
 21
2.207920
 12
3.014000
 22
1.422520
 13
3.012240
 23
2.164360
  0
POLYLINE
  8
0
  6
CONTINUOUS
 66
     1
 40
0.000000
 41
0.000000
  0
VERTEX
  8
0
  6
CONTINUOUS
 10
2.970000
 20
1.465640
  0
VERTEX
  8
0
  6
CONTINUOUS
 10
2.968240
 20
2.207920
  0
VERTEX
  8
0
  6
CONTINUOUS
 10
3.012240
 20
2.164360
  0
VERTEX
  8
0
  6
CONTINUOUS
 10
3.014000
 20
1.422520
  0
VERTEX
  8
0
  6
CONTINUOUS
 10
2.970000
 20
1.465640
  0
SEQEND
  8
0
  0
SOLID
  8
0
 62
    15
 10
3.014000
 20
1.422520
 11
3.012240
 21
2.164360
 12
3.037760
 22
1.404480
 13
3.036440
 23
2.146760
  0
POLYLINE
  8
0
  6
CONTINUOUS
 66
     1
 40
0.000000
 41
0.000000
  0
VERTEX
  8
0
  6
CONTINUOUS
 10
3.014000
 20
1.422520
  0
VERTEX
  8
0
  6
CONTINUOUS
 10
3.012240
 20
2.164360
  0
VERTEX
  8
0
  6
CONTINUOUS
 10
3.036440
 20
2.146760
  0
VERTEX
  8
0
  6
CONTINUOUS
 10
3.037760
 20
1.404480
  0
VERTEX
  8
0
  6
CONTINUOUS
 10
3.014000
 20
1.422520
  0
SEQEND
  8
0
  0
SOLID
  8
0
 62
    15
 10
3.037760
 20
1.404480
 11
3.036440
 21
2.146760
 12
3.063280
 22
1.389960
 13
3.061520
 23
2.132240
  0
POLYLINE
  8
0
  6
CONTINUOUS
 66
     1
 40
0.000000
 41
0.000000
  0
VERTEX
  8
0
  6
CONTINUOUS
 10
3.037760
 20
1.404480
  0
VERTEX
  8
0
  6
CONTINUOUS
 10
3.036440
 20
2.146760
  0
VERTEX
  8
0
  6
CONTINUOUS
 10
3.061520
 20
2.132240
  0
VERTEX
  8
0
  6
CONTINUOUS
 10
3.063280
 20
1.389960
  0
VERTEX
  8
0
  6
CONTINUOUS
 10
3.037760
 20
1.404480
  0
SEQEND
  8
0
  0
SOLID
  8
0
 62
    15
 10
3.063280
 20
1.389960
 11
3.061520
 21
2.132240
 12
3.089680
 22
1.378960
 13
3.088360
 23
2.121240
  0
POLYLINE
  8
0
  6
CONTINUOUS
 66
     1
 40
0.000000
 41
0.000000
  0
VERTEX
  8
0
  6
CONTINUOUS
 10
3.063280
 20
1.389960
  0
VERTEX
  8
0
  6
CONTINUOUS
 10
3.061520
 20
2.132240
  0
VERTEX
  8
0
  6
CONTINUOUS
 10
3.088360
 20
2.121240
  0
VERTEX
  8
0
  6
CONTINUOUS
 10
3.089680
 20
1.378960
  0
VERTEX
  8
0
  6
CONTINUOUS
 10
3.063280
 20
1.389960
  0
SEQEND
  8
0
  0
SOLID
  8
0
 62
    15
 10
3.089680
 20
1.378960
 11
3.088360
 21
2.121240
 12
3.117400
 22
1.371920
 13
3.116080
 23
2.114200
  0
POLYLINE
  8
0
  6
CONTINUOUS
 66
     1
 40
0.000000
 41
0.000000
  0
VERTEX
  8
0
  6
CONTINUOUS
 10
3.089680
 20
1.378960
  0
VERTEX
  8
0
  6
CONTINUOUS
 10
3.088360
 20
2.121240
  0
VERTEX
  8
0
  6
CONTINUOUS
 10
3.116080
 20
2.114200
  0
VERTEX
  8
0
  6
CONTINUOUS
 10
3.117400
 20
1.371920
  0
VERTEX
  8
0
  6
CONTINUOUS
 10
3.089680
 20
1.378960
  0
SEQEND
  8
0
  0
SOLID
  8
0
 62
    15
 10
3.117400
 20
1.371920
 11
3.116080
 21
2.114200
 12
3.146440
 22
1.369720
 13
3.145120
 23
2.112000
  0
POLYLINE
  8
0
  6
CONTINUOUS
 66
     1
 40
0.000000
 41
0.000000
  0
VERTEX
  8
0
  6
CONTINUOUS
 10
3.117400
 20
1.371920
  0
VERTEX
  8
0
  6
CONTINUOUS
 10
3.116080
 20
2.114200
  0
VERTEX
  8
0
  6
CONTINUOUS
 10
3.145120
 20
2.112000
  0
VERTEX
  8
0
  6
CONTINUOUS
 10
3.146440
 20
1.369720
  0
VERTEX
  8
0
  6
CONTINUOUS
 10
3.117400
 20
1.371920
  0
SEQEND
  8
0
  0
SOLID
  8
0
 62
    15
 10
3.146440
 20
1.369720
 11
3.145120
 21
2.112000
 12
3.176800
 22
1.372800
 13
3.175480
 23
2.115080
  0
POLYLINE
  8
0
  6
CONTINUOUS
 66
     1
 40
0.000000
 41
0.000000
  0
VERTEX
  8
0
  6
CONTINUOUS
 10
3.146440
 20
1.369720
  0
VERTEX
  8
0
  6
CONTINUOUS
 10
3.145120
 20
2.112000
  0
VERTEX
  8
0
  6
CONTINUOUS
 10
3.175480
 20
2.115080
  0
VERTEX
  8
0
  6
CONTINUOUS
 10
3.176800
 20
1.372800
  0
VERTEX
  8
0
  6
CONTINUOUS
 10
3.146440
 20
1.369720
  0
SEQEND
  8
0
  0
SOLID
  8
0
 62
    15
 10
3.176800
 20
1.372800
 11
3.175480
 21
2.115080
 12
3.208920
 22
1.381160
 13
3.207160
 23
2.123440
  0
POLYLINE
  8
0
  6
CONTINUOUS
 66
     1
 40
0.000000
 41
0.000000
  0
VERTEX
  8
0
  6
CONTINUOUS
 10
3.176800
 20
1.372800
  0
VERTEX
  8
0
  6
CONTINUOUS
 10
3.175480
 20
2.115080
  0
VERTEX
  8
0
  6
CONTINUOUS
 10
3.207160
 20
2.123440
  0
VERTEX
  8
0
  6
CONTINUOUS
 10
3.208920
 20
1.381160
  0
VERTEX
  8
0
  6
CONTINUOUS
 10
3.176800
 20
1.372800
  0
SEQEND
  8
0
  0
SOLID
  8
0
 62
    15
 10
2.383920
 20
1.782880
 11
2.382600
 21
2.525160
 12
2.415160
 22
1.511840
 13
2.413840
 23
2.254120
  0
POLYLINE
  8
0
  6
CONTINUOUS
 66
     1
 40
0.000000
 41
0.000000
  0
VERTEX
  8
0
  6
CONTINUOUS
 10
2.383920
 20
1.782880
  0
VERTEX
  8
0
  6
CONTINUOUS
 10
2.382600
 20
2.525160
  0
VERTEX
  8
0
  6
CONTINUOUS
 10
2.413840
 20
2.254120
  0
VERTEX
  8
0
  6
CONTINUOUS
 10
2.415160
 20
1.511840
  0
VERTEX
  8
0
  6
CONTINUOUS
 10
2.383920
 20
1.782880
  0
SEQEND
  8
0
  0
SOLID
  8
0
 62
    15
 10
3.241920
 20
1.395240
 11
3.240160
 21
2.137520
 12
3.276240
 22
1.416360
 13
3.274480
 23
2.158200
  0
POLYLINE
  8
0
  6
CONTINUOUS
 66
     1
 40
0.000000
 41
0.000000
  0
VERTEX
  8
0
  6
CONTINUOUS
 10
3.241920
 20
1.395240
  0
VERTEX
  8
0
  6
CONTINUOUS
 10
3.240160
 20
2.137520
  0
VERTEX
  8
0
  6
CONTINUOUS
 10
3.274480
 20
2.158200
  0
VERTEX
  8
0
  6
CONTINUOUS
 10
3.276240
 20
1.416360
  0
VERTEX
  8
0
  6
CONTINUOUS
 10
3.241920
 20
1.395240
  0
SEQEND
  8
0
  0
SOLID
  8
0
 62
    15
 10
3.276240
 20
1.416360
 11
3.274480
 21
2.158200
 12
3.311880
 22
1.443640
 13
3.310120
 23
2.185920
  0
POLYLINE
  8
0
  6
CONTINUOUS
 66
     1
 40
0.000000
 41
0.000000
  0
VERTEX
  8
0
  6
CONTINUOUS
 10
3.276240
 20
1.416360
  0
VERTEX
  8
0
  6
CONTINUOUS
 10
3.274480
 20
2.158200
  0
VERTEX
  8
0
  6
CONTINUOUS
 10
3.310120
 20
2.185920
  0
VERTEX
  8
0
  6
CONTINUOUS
 10
3.311880
 20
1.443640
  0
VERTEX
  8
0
  6
CONTINUOUS
 10
3.276240
 20
1.416360
  0
SEQEND
  8
0
  0
SOLID
  8
0
 62
    15
 10
3.311880
 20
1.443640
 11
3.310120
 21
2.185920
 12
3.482600
 22
1.453760
 13
3.481280
 23
2.196040
  0
POLYLINE
  8
0
  6
CONTINUOUS
 66
     1
 40
0.000000
 41
0.000000
  0
VERTEX
  8
0
  6
CONTINUOUS
 10
3.311880
 20
1.443640
  0
VERTEX
  8
0
  6
CONTINUOUS
 10
3.310120
 20
2.185920
  0
VERTEX
  8
0
  6
CONTINUOUS
 10
3.481280
 20
2.196040
  0
VERTEX
  8
0
  6
CONTINUOUS
 10
3.482600
 20
1.453760
  0
VERTEX
  8
0
  6
CONTINUOUS
 10
3.311880
 20
1.443640
  0
SEQEND
  8
0
  0
SOLID
  8
0
 62
    15
 10
3.482600
 20
1.453760
 11
3.481280
 21
2.196040
 12
3.486560
 22
1.476640
 13
3.485240
 23
2.218920
  0
POLYLINE
  8
0
  6
CONTINUOUS
 66
     1
 40
0.000000
 41
0.000000
  0
VERTEX
  8
0
  6
CONTINUOUS
 10
3.482600
 20
1.453760
  0
VERTEX
  8
0
  6
CONTINUOUS
 10
3.481280
 20
2.196040
  0
VERTEX
  8
0
  6
CONTINUOUS
 10
3.485240
 20
2.218920
  0
VERTEX
  8
0
  6
CONTINUOUS
 10
3.486560
 20
1.476640
  0
VERTEX
  8
0
  6
CONTINUOUS
 10
3.482600
 20
1.453760
  0
SEQEND
  8
0
  0
SOLID
  8
0
 62
    15
 10
3.486560
 20
1.476640
 11
3.485240
 21
2.218920
 12
3.494040
 22
1.496880
 13
3.492280
 23
2.239160
  0
POLYLINE
  8
0
  6
CONTINUOUS
 66
     1
 40
0.000000
 41
0.000000
  0
VERTEX
  8
0
  6
CONTINUOUS
 10
3.486560
 20
1.476640
  0
VERTEX
  8
0
  6
CONTINUOUS
 10
3.485240
 20
2.218920
  0
VERTEX
  8
0
  6
CONTINUOUS
 10
3.492280
 20
2.239160
  0
VERTEX
  8
0
  6
CONTINUOUS
 10
3.494040
 20
1.496880
  0
VERTEX
  8
0
  6
CONTINUOUS
 10
3.486560
 20
1.476640
  0
SEQEND
  8
0
  0
SOLID
  8
0
 62
    15
 10
3.494040
 20
1.496880
 11
3.492280
 21
2.239160
 12
3.516480
 22
1.530320
 13
3.515160
 23
2.272600
  0
POLYLINE
  8
0
  6
CONTINUOUS
 66
     1
 40
0.000000
 41
0.000000
  0
VERTEX
  8
0
  6
CONTINUOUS
 10
3.494040
 20
1.496880
  0
VERTEX
  8
0
  6
CONTINUOUS
 10
3.492280
 20
2.239160
  0
VERTEX
  8
0
  6
CONTINUOUS
 10
3.515160
 20
2.272600
  0
VERTEX
  8
0
  6
CONTINUOUS
 10
3.516480
 20
1.530320
  0
VERTEX
  8
0
  6
CONTINUOUS
 10
3.494040
 20
1.496880
  0
SEQEND
  8
0
  0
SOLID
  8
0
 62
    15
 10
3.516480
 20
1.530320
 11
3.515160
 21
2.272600
 12
3.547280
 22
1.553200
 13
3.545960
 23
2.295480
  0
POLYLINE
  8
0
  6
CONTINUOUS
 66
     1
 40
0.000000
 41
0.000000
  0
VERTEX
  8
0
  6
CONTINUOUS
 10
3.516480
 20
1.530320
  0
VERTEX
  8
0
  6
CONTINUOUS
 10
3.515160
 20
2.272600
  0
VERTEX
  8
0
  6
CONTINUOUS
 10
3.545960
 20
2.295480
  0
VERTEX
  8
0
  6
CONTINUOUS
 10
3.547280
 20
1.553200
  0
VERTEX
  8
0
  6
CONTINUOUS
 10
3.516480
 20
1.530320
  0
SEQEND
  8
0
  0
SOLID
  8
0
 62
    15
 10
3.547280
 20
1.553200
 11
3.545960
 21
2.295480
 12
3.582920
 22
1.563760
 13
3.581160
 23
2.306040
  0
POLYLINE
  8
0
  6
CONTINUOUS
 66
     1
 40
0.000000
 41
0.000000
  0
VERTEX
  8
0
  6
CONTINUOUS
 10
3.547280
 20
1.553200
  0
VERTEX
  8
0
  6
CONTINUOUS
 10
3.545960
 20
2.295480
  0
VERTEX
  8
0
  6
CONTINUOUS
 10
3.581160
 20
2.306040
  0
VERTEX
  8
0
  6
CONTINUOUS
 10
3.582920
 20
1.563760
  0
VERTEX
  8
0
  6
CONTINUOUS
 10
3.547280
 20
1.553200
  0
SEQEND
  8
0
  0
SOLID
  8
0
 62
    15
 10
3.582920
 20
1.563760
 11
3.581160
 21
2.306040
 12
3.619440
 22
1.561560
 13
3.618120
 23
2.303840
  0
POLYLINE
  8
0
  6
CONTINUOUS
 66
     1
 40
0.000000
 41
0.000000
  0
VERTEX
  8
0
  6
CONTINUOUS
 10
3.582920
 20
1.563760
  0
VERTEX
  8
0
  6
CONTINUOUS
 10
3.581160
 20
2.306040
  0
VERTEX
  8
0
  6
CONTINUOUS
 10
3.618120
 20
2.303840
  0
VERTEX
  8
0
  6
CONTINUOUS
 10
3.619440
 20
1.561560
  0
VERTEX
  8
0
  6
CONTINUOUS
 10
3.582920
 20
1.563760
  0
SEQEND
  8
0
  0
SOLID
  8
0
 62
    15
 10
3.619440
 20
1.561560
 11
3.618120
 21
2.303840
 12
3.637480
 22
1.554960
 13
3.635720
 23
2.297240
  0
POLYLINE
  8
0
  6
CONTINUOUS
 66
     1
 40
0.000000
 41
0.000000
  0
VERTEX
  8
0
  6
CONTINUOUS
 10
3.619440
 20
1.561560
  0
VERTEX
  8
0
  6
CONTINUOUS
 10
3.618120
 20
2.303840
  0
VERTEX
  8
0
  6
CONTINUOUS
 10
3.635720
 20
2.297240
  0
VERTEX
  8
0
  6
CONTINUOUS
 10
3.637480
 20
1.554960
  0
VERTEX
  8
0
  6
CONTINUOUS
 10
3.619440
 20
1.561560
  0
SEQEND
  8
0
  0
SOLID
  8
0
 62
    15
 10
3.637480
 20
1.554960
 11
3.635720
 21
2.297240
 12
3.654200
 22
1.544400
 13
3.652880
 23
2.286680
  0
POLYLINE
  8
0
  6
CONTINUOUS
 66
     1
 40
0.000000
 41
0.000000
  0
VERTEX
  8
0
  6
CONTINUOUS
 10
3.637480
 20
1.554960
  0
VERTEX
  8
0
  6
CONTINUOUS
 10
3.635720
 20
2.297240
  0
VERTEX
  8
0
  6
CONTINUOUS
 10
3.652880
 20
2.286680
  0
VERTEX
  8
0
  6
CONTINUOUS
 10
3.654200
 20
1.544400
  0
VERTEX
  8
0
  6
CONTINUOUS
 10
3.637480
 20
1.554960
  0
SEQEND
  8
0
  0
SOLID
  8
0
 62
    15
 10
3.654200
 20
1.544400
 11
3.652880
 21
2.286680
 12
3.670040
 22
1.530320
 13
3.668280
 23
2.272600
  0
POLYLINE
  8
0
  6
CONTINUOUS
 66
     1
 40
0.000000
 41
0.000000
  0
VERTEX
  8
0
  6
CONTINUOUS
 10
3.654200
 20
1.544400
  0
VERTEX
  8
0
  6
CONTINUOUS
 10
3.652880
 20
2.286680
  0
VERTEX
  8
0
  6
CONTINUOUS
 10
3.668280
 20
2.272600
  0
VERTEX
  8
0
  6
CONTINUOUS
 10
3.670040
 20
1.530320
  0
VERTEX
  8
0
  6
CONTINUOUS
 10
3.654200
 20
1.544400
  0
SEQEND
  8
0
  0
SOLID
  8
0
 62
    15
 10
3.670040
 20
1.530320
 11
3.668280
 21
2.272600
 12
3.683680
 22
1.512280
 13
3.682360
 23
2.254560
  0
POLYLINE
  8
0
  6
CONTINUOUS
 66
     1
 40
0.000000
 41
0.000000
  0
VERTEX
  8
0
  6
CONTINUOUS
 10
3.670040
 20
1.530320
  0
VERTEX
  8
0
  6
CONTINUOUS
 10
3.668280
 20
2.272600
  0
VERTEX
  8
0
  6
CONTINUOUS
 10
3.682360
 20
2.254560
  0
VERTEX
  8
0
  6
CONTINUOUS
 10
3.683680
 20
1.512280
  0
VERTEX
  8
0
  6
CONTINUOUS
 10
3.670040
 20
1.530320
  0
SEQEND
  8
0
  0
SOLID
  8
0
 62
    15
 10
3.683680
 20
1.512280
 11
3.682360
 21
2.254560
 12
3.695560
 22
1.489840
 13
3.693800
 23
2.232120
  0
POLYLINE
  8
0
  6
CONTINUOUS
 66
     1
 40
0.000000
 41
0.000000
  0
VERTEX
  8
0
  6
CONTINUOUS
 10
3.683680
 20
1.512280
  0
VERTEX
  8
0
  6
CONTINUOUS
 10
3.682360
 20
2.254560
  0
VERTEX
  8
0
  6
CONTINUOUS
 10
3.693800
 20
2.232120
  0
VERTEX
  8
0
  6
CONTINUOUS
 10
3.695560
 20
1.489840
  0
VERTEX
  8
0
  6
CONTINUOUS
 10
3.683680
 20
1.512280
  0
SEQEND
  8
0
  0
SOLID
  8
0
 62
    15
 10
3.695560
 20
1.489840
 11
3.693800
 21
2.232120
 12
3.704360
 22
1.463000
 13
3.703040
 23
2.205280
  0
POLYLINE
  8
0
  6
CONTINUOUS
 66
     1
 40
0.000000
 41
0.000000
  0
VERTEX
  8
0
  6
CONTINUOUS
 10
3.695560
 20
1.489840
  0
VERTEX
  8
0
  6
CONTINUOUS
 10
3.693800
 20
2.232120
  0
VERTEX
  8
0
  6
CONTINUOUS
 10
3.703040
 20
2.205280
  0
VERTEX
  8
0
  6
CONTINUOUS
 10
3.704360
 20
1.463000
  0
VERTEX
  8
0
  6
CONTINUOUS
 10
3.695560
 20
1.489840
  0
SEQEND
  8
0
  0
SOLID
  8
0
 62
    15
 10
4.084080
 20
1.321760
 11
4.082760
 21
2.064040
 12
4.122800
 22
1.320440
 13
4.121040
 23
2.062720
  0
POLYLINE
  8
0
  6
CONTINUOUS
 66
     1
 40
0.000000
 41
0.000000
  0
VERTEX
  8
0
  6
CONTINUOUS
 10
4.084080
 20
1.321760
  0
VERTEX
  8
0
  6
CONTINUOUS
 10
4.082760
 20
2.064040
  0
VERTEX
  8
0
  6
CONTINUOUS
 10
4.121040
 20
2.062720
  0
VERTEX
  8
0
  6
CONTINUOUS
 10
4.122800
 20
1.320440
  0
VERTEX
  8
0
  6
CONTINUOUS
 10
4.084080
 20
1.321760
  0
SEQEND
  8
0
  0
SOLID
  8
0
 62
    15
 10
4.073080
 20
1.463000
 11
4.071320
 21
2.205280
 12
4.084080
 22
1.321760
 13
4.082760
 23
2.064040
  0
POLYLINE
  8
0
  6
CONTINUOUS
 66
     1
 40
0.000000
 41
0.000000
  0
VERTEX
  8
0
  6
CONTINUOUS
 10
4.073080
 20
1.463000
  0
VERTEX
  8
0
  6
CONTINUOUS
 10
4.071320
 20
2.205280
  0
VERTEX
  8
0
  6
CONTINUOUS
 10
4.082760
 20
2.064040
  0
VERTEX
  8
0
  6
CONTINUOUS
 10
4.084080
 20
1.321760
  0
VERTEX
  8
0
  6
CONTINUOUS
 10
4.073080
 20
1.463000
  0
SEQEND
  8
0
  0
SOLID
  8
0
 62
    15
 10
3.704360
 20
1.463000
 11
3.703040
 21
2.205280
 12
4.073080
 22
1.463000
 13
4.071320
 23
2.205280
  0
POLYLINE
  8
0
  6
CONTINUOUS
 66
     1
 40
0.000000
 41
0.000000
  0
VERTEX
  8
0
  6
CONTINUOUS
 10
3.704360
 20
1.463000
  0
VERTEX
  8
0
  6
CONTINUOUS
 10
3.703040
 20
2.205280
  0
VERTEX
  8
0
  6
CONTINUOUS
 10
4.071320
 20
2.205280
  0
VERTEX
  8
0
  6
CONTINUOUS
 10
4.073080
 20
1.463000
  0
VERTEX
  8
0
  6
CONTINUOUS
 10
3.704360
 20
1.463000
  0
SEQEND
  8
0
  0
SOLID
  8
0
 62
    15
 10
4.122800
 20
1.320440
 11
4.121040
 21
2.062720
 12
4.155800
 22
1.315160
 13
4.154480
 23
2.057440
  0
POLYLINE
  8
0
  6
CONTINUOUS
 66
     1
 40
0.000000
 41
0.000000
  0
VERTEX
  8
0
  6
CONTINUOUS
 10
4.122800
 20
1.320440
  0
VERTEX
  8
0
  6
CONTINUOUS
 10
4.121040
 20
2.062720
  0
VERTEX
  8
0
  6
CONTINUOUS
 10
4.154480
 20
2.057440
  0
VERTEX
  8
0
  6
CONTINUOUS
 10
4.155800
 20
1.315160
  0
VERTEX
  8
0
  6
CONTINUOUS
 10
4.122800
 20
1.320440
  0
SEQEND
  8
0
  0
SOLID
  8
0
 62
    15
 10
4.155800
 20
1.315160
 11
4.154480
 21
2.057440
 12
4.183960
 22
1.305040
 13
4.182640
 23
2.047320
  0
POLYLINE
  8
0
  6
CONTINUOUS
 66
     1
 40
0.000000
 41
0.000000
  0
VERTEX
  8
0
  6
CONTINUOUS
 10
4.155800
 20
1.315160
  0
VERTEX
  8
0
  6
CONTINUOUS
 10
4.154480
 20
2.057440
  0
VERTEX
  8
0
  6
CONTINUOUS
 10
4.182640
 20
2.047320
  0
VERTEX
  8
0
  6
CONTINUOUS
 10
4.183960
 20
1.305040
  0
VERTEX
  8
0
  6
CONTINUOUS
 10
4.155800
 20
1.315160
  0
SEQEND
  8
0
  0
SOLID
  8
0
 62
    15
 10
4.183960
 20
1.305040
 11
4.182640
 21
2.047320
 12
4.206840
 22
1.288760
 13
4.205080
 23
2.031040
  0
POLYLINE
  8
0
  6
CONTINUOUS
 66
     1
 40
0.000000
 41
0.000000
  0
VERTEX
  8
0
  6
CONTINUOUS
 10
4.183960
 20
1.305040
  0
VERTEX
  8
0
  6
CONTINUOUS
 10
4.182640
 20
2.047320
  0
VERTEX
  8
0
  6
CONTINUOUS
 10
4.205080
 20
2.031040
  0
VERTEX
  8
0
  6
CONTINUOUS
 10
4.206840
 20
1.288760
  0
VERTEX
  8
0
  6
CONTINUOUS
 10
4.183960
 20
1.305040
  0
SEQEND
  8
0
  0
SOLID
  8
0
 62
    15
 10
4.206840
 20
1.288760
 11
4.205080
 21
2.031040
 12
4.224440
 22
1.265000
 13
4.223120
 23
2.007280
  0
POLYLINE
  8
0
  6
CONTINUOUS
 66
     1
 40
0.000000
 41
0.000000
  0
VERTEX
  8
0
  6
CONTINUOUS
 10
4.206840
 20
1.288760
  0
VERTEX
  8
0
  6
CONTINUOUS
 10
4.205080
 20
2.031040
  0
VERTEX
  8
0
  6
CONTINUOUS
 10
4.223120
 20
2.007280
  0
VERTEX
  8
0
  6
CONTINUOUS
 10
4.224440
 20
1.265000
  0
VERTEX
  8
0
  6
CONTINUOUS
 10
4.206840
 20
1.288760
  0
SEQEND
  8
0
  0
SOLID
  8
0
 62
    15
 10
4.224440
 20
1.265000
 11
4.223120
 21
2.007280
 12
4.237200
 22
1.232880
 13
4.235880
 23
1.975160
  0
POLYLINE
  8
0
  6
CONTINUOUS
 66
     1
 40
0.000000
 41
0.000000
  0
VERTEX
  8
0
  6
CONTINUOUS
 10
4.224440
 20
1.265000
  0
VERTEX
  8
0
  6
CONTINUOUS
 10
4.223120
 20
2.007280
  0
VERTEX
  8
0
  6
CONTINUOUS
 10
4.235880
 20
1.975160
  0
VERTEX
  8
0
  6
CONTINUOUS
 10
4.237200
 20
1.232880
  0
VERTEX
  8
0
  6
CONTINUOUS
 10
4.224440
 20
1.265000
  0
SEQEND
  8
0
  0
SOLID
  8
0
 62
    15
 10
4.248200
 20
1.137400
 11
4.246880
 21
1.879680
 12
4.374480
 22
1.137400
 13
4.373160
 23
1.879680
  0
POLYLINE
  8
0
  6
CONTINUOUS
 66
     1
 40
0.000000
 41
0.000000
  0
VERTEX
  8
0
  6
CONTINUOUS
 10
4.248200
 20
1.137400
  0
VERTEX
  8
0
  6
CONTINUOUS
 10
4.246880
 20
1.879680
  0
VERTEX
  8
0
  6
CONTINUOUS
 10
4.373160
 20
1.879680
  0
VERTEX
  8
0
  6
CONTINUOUS
 10
4.374480
 20
1.137400
  0
VERTEX
  8
0
  6
CONTINUOUS
 10
4.248200
 20
1.137400
  0
SEQEND
  8
0
  0
SOLID
  8
0
 62
    15
 10
4.245120
 20
1.190640
 11
4.243800
 21
1.932920
 12
4.248200
 22
1.137400
 13
4.246880
 23
1.879680
  0
POLYLINE
  8
0
  6
CONTINUOUS
 66
     1
 40
0.000000
 41
0.000000
  0
VERTEX
  8
0
  6
CONTINUOUS
 10
4.245120
 20
1.190640
  0
VERTEX
  8
0
  6
CONTINUOUS
 10
4.243800
 20
1.932920
  0
VERTEX
  8
0
  6
CONTINUOUS
 10
4.246880
 20
1.879680
  0
VERTEX
  8
0
  6
CONTINUOUS
 10
4.248200
 20
1.137400
  0
VERTEX
  8
0
  6
CONTINUOUS
 10
4.245120
 20
1.190640
  0
SEQEND
  8
0
  0
SOLID
  8
0
 62
    15
 10
4.237200
 20
1.232880
 11
4.235880
 21
1.975160
 12
4.245120
 22
1.190640
 13
4.243800
 23
1.932920
  0
POLYLINE
  8
0
  6
CONTINUOUS
 66
     1
 40
0.000000
 41
0.000000
  0
VERTEX
  8
0
  6
CONTINUOUS
 10
4.237200
 20
1.232880
  0
VERTEX
  8
0
  6
CONTINUOUS
 10
4.235880
 20
1.975160
  0
VERTEX
  8
0
  6
CONTINUOUS
 10
4.243800
 20
1.932920
  0
VERTEX
  8
0
  6
CONTINUOUS
 10
4.245120
 20
1.190640
  0
VERTEX
  8
0
  6
CONTINUOUS
 10
4.237200
 20
1.232880
  0
SEQEND
  8
0
  0
SOLID
  8
0
 62
    15
 10
1.877480
 20
1.029600
 11
1.875720
 21
1.771880
 12
1.877480
 22
1.783760
 13
1.875720
 23
2.526040
  0
POLYLINE
  8
0
  6
CONTINUOUS
 66
     1
 40
0.000000
 41
0.000000
  0
VERTEX
  8
0
  6
CONTINUOUS
 10
1.877480
 20
1.029600
  0
VERTEX
  8
0
  6
CONTINUOUS
 10
1.875720
 20
1.771880
  0
VERTEX
  8
0
  6
CONTINUOUS
 10
1.875720
 20
2.526040
  0
VERTEX
  8
0
  6
CONTINUOUS
 10
1.877480
 20
1.783760
  0
VERTEX
  8
0
  6
CONTINUOUS
 10
1.877480
 20
1.029600
  0
SEQEND
  8
0
  0
SOLID
  8
0
 62
    15
 10
1.877480
 20
1.783760
 11
1.875720
 21
2.526040
 12
2.383920
 22
1.783760
 13
2.382600
 23
2.526040
  0
POLYLINE
  8
0
  6
CONTINUOUS
 66
     1
 40
0.000000
 41
0.000000
  0
VERTEX
  8
0
  6
CONTINUOUS
 10
1.877480
 20
1.783760
  0
VERTEX
  8
0
  6
CONTINUOUS
 10
1.875720
 20
2.526040
  0
VERTEX
  8
0
  6
CONTINUOUS
 10
2.382600
 20
2.526040
  0
VERTEX
  8
0
  6
CONTINUOUS
 10
2.383920
 20
1.783760
  0
VERTEX
  8
0
  6
CONTINUOUS
 10
1.877480
 20
1.783760
  0
SEQEND
  8
0
  0
POLYLINE
  8
0
  6
CONTINUOUS
 66
     1
 40
0.000000
 41
0.000000
  0
VERTEX
  8
0
  6
CONTINUOUS
 10
2.383920
 20
1.782880
  0
VERTEX
  8
0
  6
CONTINUOUS
 10
2.415160
 20
1.511840
  0
VERTEX
  8
0
  6
CONTINUOUS
 10
2.452120
 20
1.511840
  0
VERTEX
  8
0
  6
CONTINUOUS
 10
2.463120
 20
1.544840
  0
VERTEX
  8
0
  6
CONTINUOUS
 10
2.479840
 20
1.573880
  0
VERTEX
  8
0
  6
CONTINUOUS
 10
2.501400
 20
1.598960
  0
VERTEX
  8
0
  6
CONTINUOUS
 10
2.527360
 20
1.620080
  0
VERTEX
  8
0
  6
CONTINUOUS
 10
2.556840
 20
1.637240
  0
VERTEX
  8
0
  6
CONTINUOUS
 10
2.588960
 20
1.650880
  0
VERTEX
  8
0
  6
CONTINUOUS
 10
2.623280
 20
1.660560
  0
VERTEX
  8
0
  6
CONTINUOUS
 10
2.658920
 20
1.666280
  0
VERTEX
  8
0
  6
CONTINUOUS
 10
2.694560
 20
1.668040
  0
VERTEX
  8
0
  6
CONTINUOUS
 10
2.730640
 20
1.665840
  0
VERTEX
  8
0
  6
CONTINUOUS
 10
2.764960
 20
1.659680
  0
VERTEX
  8
0
  6
CONTINUOUS
 10
2.797960
 20
1.650000
  0
VERTEX
  8
0
  6
CONTINUOUS
 10
2.828320
 20
1.635920
  0
VERTEX
  8
0
  6
CONTINUOUS
 10
2.855600
 20
1.618320
  0
VERTEX
  8
0
  6
CONTINUOUS
 10
2.878480
 20
1.596760
  0
VERTEX
  8
0
  6
CONTINUOUS
 10
2.896960
 20
1.571240
  0
VERTEX
  8
0
  6
CONTINUOUS
 10
2.930840
 20
1.516680
  0
VERTEX
  8
0
  6
CONTINUOUS
 10
2.970000
 20
1.465640
  0
VERTEX
  8
0
  6
CONTINUOUS
 10
3.014000
 20
1.422520
  0
VERTEX
  8
0
  6
CONTINUOUS
 10
3.037760
 20
1.404480
  0
VERTEX
  8
0
  6
CONTINUOUS
 10
3.063280
 20
1.389960
  0
VERTEX
  8
0
  6
CONTINUOUS
 10
3.089680
 20
1.378960
  0
VERTEX
  8
0
  6
CONTINUOUS
 10
3.117400
 20
1.371920
  0
VERTEX
  8
0
  6
CONTINUOUS
 10
3.146440
 20
1.369720
  0
VERTEX
  8
0
  6
CONTINUOUS
 10
3.176800
 20
1.372800
  0
VERTEX
  8
0
  6
CONTINUOUS
 10
3.208920
 20
1.381160
  0
VERTEX
  8
0
  6
CONTINUOUS
 10
3.241920
 20
1.395240
  0
VERTEX
  8
0
  6
CONTINUOUS
 10
3.276240
 20
1.416360
  0
VERTEX
  8
0
  6
CONTINUOUS
 10
3.311880
 20
1.443640
  0
VERTEX
  8
0
  6
CONTINUOUS
 10
3.482600
 20
1.453760
  0
VERTEX
  8
0
  6
CONTINUOUS
 10
3.486560
 20
1.476640
  0
VERTEX
  8
0
  6
CONTINUOUS
 10
3.494040
 20
1.496880
  0
VERTEX
  8
0
  6
CONTINUOUS
 10
3.516480
 20
1.530320
  0
VERTEX
  8
0
  6
CONTINUOUS
 10
3.547280
 20
1.553200
  0
VERTEX
  8
0
  6
CONTINUOUS
 10
3.582920
 20
1.563760
  0
VERTEX
  8
0
  6
CONTINUOUS
 10
3.619440
 20
1.561560
  0
VERTEX
  8
0
  6
CONTINUOUS
 10
3.637480
 20
1.554960
  0
VERTEX
  8
0
  6
CONTINUOUS
 10
3.654200
 20
1.544400
  0
VERTEX
  8
0
  6
CONTINUOUS
 10
3.670040
 20
1.530320
  0
VERTEX
  8
0
  6
CONTINUOUS
 10
3.683680
 20
1.512280
  0
VERTEX
  8
0
  6
CONTINUOUS
 10
3.695560
 20
1.489840
  0
VERTEX
  8
0
  6
CONTINUOUS
 10
3.704360
 20
1.463000
  0
VERTEX
  8
0
  6
CONTINUOUS
 10
4.073080
 20
1.463000
  0
VERTEX
  8
0
  6
CONTINUOUS
 10
4.084080
 20
1.321760
  0
VERTEX
  8
0
  6
CONTINUOUS
 10
4.122800
 20
1.320440
  0
VERTEX
  8
0
  6
CONTINUOUS
 10
4.155800
 20
1.315160
  0
VERTEX
  8
0
  6
CONTINUOUS
 10
4.183960
 20
1.305040
  0
VERTEX
  8
0
  6
CONTINUOUS
 10
4.206840
 20
1.288760
  0
VERTEX
  8
0
  6
CONTINUOUS
 10
4.224440
 20
1.265000
  0
VERTEX
  8
0
  6
CONTINUOUS
 10
4.237200
 20
1.232880
  0
VERTEX
  8
0
  6
CONTINUOUS
 10
4.245120
 20
1.190640
  0
VERTEX
  8
0
  6
CONTINUOUS
 10
4.248200
 20
1.137400
  0
VERTEX
  8
0
  6
CONTINUOUS
 10
4.374480
 20
1.137400
  0
VERTEX
  8
0
  6
CONTINUOUS
 10
4.374480
 20
1.029600
  0
VERTEX
  8
0
  6
CONTINUOUS
 10
1.877480
 20
1.029600
  0
VERTEX
  8
0
  6
CONTINUOUS
 10
1.877480
 20
1.783760
  0
VERTEX
  8
0
  6
CONTINUOUS
 10
2.383920
 20
1.783760
  0
VERTEX
  8
0
  6
CONTINUOUS
 10
2.383920
 20
1.782880
  0
SEQEND
  8
0
  0
TEXT
  8
0
 10
2.829640
 20
0.821040
 40
0.138302
  1
BA  603
 41
1.000000
  7
SN0
 71
     0
 72
     5
 11
3.420522
 21
0.821040
  0
TEXT
  8
0
 10
2.673880
 20
0.629200
 40
0.138302
  1
3/4" x 2-1/2"
 41
1.000000
  7
SN0
 71
     0
 72
     5
 11
3.575457
 21
0.629200
  0
ENDSEC
  0
EOF
