  0
SECTION
  2
HEADER
  9
$ACADVER
  1
AC1006
  9
$EXTMIN
 10
1.188880
 20
3.822280
  9
$EXTMAX
 10
7.527520
 20
10.539320
  9
$LTSCALE
 40
0.044000
  9
$PDMODE
 70
    35
  9
$PDSIZE
 40
0.035200
  0
ENDSEC
  0
SECTION
  2
TABLES
  0
TABLE
  2
LTYPE
 70
     9
  0
LTYPE
  2
CONTINUOUS
 70
    64
  3
Solid line
 72
    65
 73
     0
 40
0.000000
  0
LTYPE
  2
DASHED
 70
    64
  3
__ __ __ __ __ __ __ __ __ __ __ __ __ __ __
 72
    65
 73
     2
 40
0.000330
 49
0.000220
 49
-0.000110
  0
LTYPE
  2
HIDDEN
 70
    64
  3
 _ _ _ _ _ _ _ _ _ _ _ _ _ _ _ _ _ _ _ _ _ _
 72
    65
 73
     2
 40
0.000165
 49
0.000110
 49
-0.000055
  0
LTYPE
  2
CENTER
 70
    64
  3
____ _ ____ _ ____ _ ____ _ ____ _ ____ _ ____
 72
    65
 73
     4
 40
0.000880
 49
0.000550
 49
-0.000110
 49
0.000110
 49
-0.000110
  0
LTYPE
  2
PHANTOM
 70
    64
  3
_____ _ _ _____ _ _ _____ _ _ _____ _ _ ____
 72
    65
 73
     6
 40
0.001100
 49
0.000550
 49
-0.000110
 49
0.000110
 49
-0.000110
 49
0.000110
 49
-0.000110
  0
LTYPE
  2
DOT
 70
    64
  3
...............................................
 72
    65
 73
     2
 40
0.000110
 49
0.000000
 49
-0.000110
  0
LTYPE
  2
DASHDOT
 70
    64
  3
__ . __ . __ . __ . __ . __ . __ . __ . __ . __
 72
    65
 73
     4
 40
0.000440
 49
0.000220
 49
-0.000110
 49
0.000000
 49
-0.000110
  0
LTYPE
  2
BORDER
 70
    64
  3
__ __ . __ __ . __ __ . __ __ . __ __ . __ __
 72
    65
 73
     6
 40
0.000770
 49
0.000220
 49
-0.000110
 49
0.000220
 49
-0.000110
 49
0.000000
 49
-0.000110
  0
LTYPE
  2
DIVIDE
 70
    64
  3
__ . . __ . . __ . . __ . . __ . . __ . . __
 72
    65
 73
     6
 40
0.000550
 49
0.000220
 49
-0.000110
 49
0.000000
 49
-0.000110
 49
0.000000
 49
-0.000110
  0
LTYPE
  2
DOTDOT
 70
    64
  3
 . .  . .  . .  . .  . .  . . 
 72
    65
 73
     5
 40
0.000242
 49
-0.000110
 49
0.000000
 49
-0.000110
 49
0.000000
 49
-0.000110
  0
ENDTAB
  0
TABLE
  2
STYLE
 70
     2
  0
STYLE
 70
     0
  2
SN0
 40
0.000000
 41
0.000440
 50
0.000000
 71
     0
 42
0.000000
  3
ROMAND
  0
STYLE
 70
    68
  2
SV0
 40
0.000000
 41
0.000440
 50
0.000000
 71
     0
 42
0.000000
  3
ROMAND
  0
ENDTAB
  0
TABLE
  2
LAYER
 70
     3
  0
LAYER
  2
FOREGROUND
 70
    64
 62
     7
  6
CONTINUOUS
  0
LAYER
  2
BACKGROUND
 70
    65
 62
    -7
  6
CONTINUOUS
  0
LAYER
  2
0
 70
    64
 62
     7
  6
CONTINUOUS
  0
ENDTAB
  0
ENDSEC
  0
SECTION
  2
ENTITIES
  0
POLYLINE
  8
FOREGROUND
  6
CONTINUOUS
 66
     1
 40
0.000000
 41
0.000000
  0
VERTEX
  8
FOREGROUND
  6
CONTINUOUS
 10
0.000000
 20
14.361600
  0
VERTEX
  8
FOREGROUND
  6
CONTINUOUS
 10
8.499920
 20
14.361600
  0
VERTEX
  8
FOREGROUND
  6
CONTINUOUS
 10
8.499920
 20
3.361600
  0
VERTEX
  8
FOREGROUND
  6
CONTINUOUS
 10
0.000000
 20
3.361600
  0
VERTEX
  8
FOREGROUND
  6
CONTINUOUS
 10
0.000000
 20
14.361600
  0
SEQEND
  8
0
  0
POLYLINE
  8
FOREGROUND
  6
CONTINUOUS
 66
     1
 40
0.000000
 41
0.000000
  0
VERTEX
  8
FOREGROUND
  6
CONTINUOUS
 10
0.000000
 20
14.361600
  0
VERTEX
  8
FOREGROUND
  6
CONTINUOUS
 10
8.499920
 20
14.361600
  0
VERTEX
  8
FOREGROUND
  6
CONTINUOUS
 10
8.499920
 20
3.361600
  0
VERTEX
  8
FOREGROUND
  6
CONTINUOUS
 10
0.000000
 20
3.361600
  0
VERTEX
  8
FOREGROUND
  6
CONTINUOUS
 10
0.000000
 20
14.361600
  0
SEQEND
  8
0
  0
SOLID
  8
0
 62
    15
 10
4.404400
 20
5.950560
 11
4.396480
 21
6.687120
 12
4.473040
 22
5.941320
 13
4.465120
 23
6.677880
  0
POLYLINE
  8
0
  6
CONTINUOUS
 66
     1
 40
0.000000
 41
0.000000
  0
VERTEX
  8
0
  6
CONTINUOUS
 10
4.404400
 20
5.950560
  0
VERTEX
  8
0
  6
CONTINUOUS
 10
4.396480
 20
6.687120
  0
VERTEX
  8
0
  6
CONTINUOUS
 10
4.465120
 20
6.677880
  0
VERTEX
  8
0
  6
CONTINUOUS
 10
4.473040
 20
5.941320
  0
VERTEX
  8
0
  6
CONTINUOUS
 10
4.404400
 20
5.950560
  0
SEQEND
  8
0
  0
SOLID
  8
0
 62
    15
 10
2.440680
 20
5.606040
 11
2.432760
 21
6.342600
 12
2.440680
 22
6.438520
 13
2.432760
 23
7.175080
  0
POLYLINE
  8
0
  6
CONTINUOUS
 66
     1
 40
0.000000
 41
0.000000
  0
VERTEX
  8
0
  6
CONTINUOUS
 10
2.440680
 20
5.606040
  0
VERTEX
  8
0
  6
CONTINUOUS
 10
2.432760
 20
6.342600
  0
VERTEX
  8
0
  6
CONTINUOUS
 10
2.432760
 20
7.175080
  0
VERTEX
  8
0
  6
CONTINUOUS
 10
2.440680
 20
6.438520
  0
VERTEX
  8
0
  6
CONTINUOUS
 10
2.440680
 20
5.606040
  0
SEQEND
  8
0
  0
SOLID
  8
0
 62
    15
 10
2.836240
 20
6.438520
 11
2.828320
 21
7.175080
 12
2.850760
 22
6.304320
 13
2.842840
 23
7.040880
  0
POLYLINE
  8
0
  6
CONTINUOUS
 66
     1
 40
0.000000
 41
0.000000
  0
VERTEX
  8
0
  6
CONTINUOUS
 10
2.836240
 20
6.438520
  0
VERTEX
  8
0
  6
CONTINUOUS
 10
2.828320
 20
7.175080
  0
VERTEX
  8
0
  6
CONTINUOUS
 10
2.842840
 20
7.040880
  0
VERTEX
  8
0
  6
CONTINUOUS
 10
2.850760
 20
6.304320
  0
VERTEX
  8
0
  6
CONTINUOUS
 10
2.836240
 20
6.438520
  0
SEQEND
  8
0
  0
SOLID
  8
0
 62
    15
 10
2.850760
 20
6.304320
 11
2.842840
 21
7.040880
 12
2.883320
 22
6.304320
 13
2.875400
 23
7.040880
  0
POLYLINE
  8
0
  6
CONTINUOUS
 66
     1
 40
0.000000
 41
0.000000
  0
VERTEX
  8
0
  6
CONTINUOUS
 10
2.850760
 20
6.304320
  0
VERTEX
  8
0
  6
CONTINUOUS
 10
2.842840
 20
7.040880
  0
VERTEX
  8
0
  6
CONTINUOUS
 10
2.875400
 20
7.040880
  0
VERTEX
  8
0
  6
CONTINUOUS
 10
2.883320
 20
6.304320
  0
VERTEX
  8
0
  6
CONTINUOUS
 10
2.850760
 20
6.304320
  0
SEQEND
  8
0
  0
SOLID
  8
0
 62
    15
 10
2.883320
 20
6.304320
 11
2.875400
 21
7.040880
 12
2.911920
 22
6.346560
 13
2.904000
 23
7.083120
  0
POLYLINE
  8
0
  6
CONTINUOUS
 66
     1
 40
0.000000
 41
0.000000
  0
VERTEX
  8
0
  6
CONTINUOUS
 10
2.883320
 20
6.304320
  0
VERTEX
  8
0
  6
CONTINUOUS
 10
2.875400
 20
7.040880
  0
VERTEX
  8
0
  6
CONTINUOUS
 10
2.904000
 20
7.083120
  0
VERTEX
  8
0
  6
CONTINUOUS
 10
2.911920
 20
6.346560
  0
VERTEX
  8
0
  6
CONTINUOUS
 10
2.883320
 20
6.304320
  0
SEQEND
  8
0
  0
SOLID
  8
0
 62
    15
 10
2.911920
 20
6.346560
 11
2.904000
 21
7.083120
 12
2.946240
 22
6.380000
 13
2.937880
 23
7.116560
  0
POLYLINE
  8
0
  6
CONTINUOUS
 66
     1
 40
0.000000
 41
0.000000
  0
VERTEX
  8
0
  6
CONTINUOUS
 10
2.911920
 20
6.346560
  0
VERTEX
  8
0
  6
CONTINUOUS
 10
2.904000
 20
7.083120
  0
VERTEX
  8
0
  6
CONTINUOUS
 10
2.937880
 20
7.116560
  0
VERTEX
  8
0
  6
CONTINUOUS
 10
2.946240
 20
6.380000
  0
VERTEX
  8
0
  6
CONTINUOUS
 10
2.911920
 20
6.346560
  0
SEQEND
  8
0
  0
SOLID
  8
0
 62
    15
 10
2.946240
 20
6.380000
 11
2.937880
 21
7.116560
 12
2.984960
 22
6.405520
 13
2.976600
 23
7.142080
  0
POLYLINE
  8
0
  6
CONTINUOUS
 66
     1
 40
0.000000
 41
0.000000
  0
VERTEX
  8
0
  6
CONTINUOUS
 10
2.946240
 20
6.380000
  0
VERTEX
  8
0
  6
CONTINUOUS
 10
2.937880
 20
7.116560
  0
VERTEX
  8
0
  6
CONTINUOUS
 10
2.976600
 20
7.142080
  0
VERTEX
  8
0
  6
CONTINUOUS
 10
2.984960
 20
6.405520
  0
VERTEX
  8
0
  6
CONTINUOUS
 10
2.946240
 20
6.380000
  0
SEQEND
  8
0
  0
SOLID
  8
0
 62
    15
 10
2.984960
 20
6.405520
 11
2.976600
 21
7.142080
 12
3.027640
 22
6.423120
 13
3.019280
 23
7.159680
  0
POLYLINE
  8
0
  6
CONTINUOUS
 66
     1
 40
0.000000
 41
0.000000
  0
VERTEX
  8
0
  6
CONTINUOUS
 10
2.984960
 20
6.405520
  0
VERTEX
  8
0
  6
CONTINUOUS
 10
2.976600
 20
7.142080
  0
VERTEX
  8
0
  6
CONTINUOUS
 10
3.019280
 20
7.159680
  0
VERTEX
  8
0
  6
CONTINUOUS
 10
3.027640
 20
6.423120
  0
VERTEX
  8
0
  6
CONTINUOUS
 10
2.984960
 20
6.405520
  0
SEQEND
  8
0
  0
SOLID
  8
0
 62
    15
 10
3.027640
 20
6.423120
 11
3.019280
 21
7.159680
 12
3.072960
 22
6.433240
 13
3.065040
 23
7.169800
  0
POLYLINE
  8
0
  6
CONTINUOUS
 66
     1
 40
0.000000
 41
0.000000
  0
VERTEX
  8
0
  6
CONTINUOUS
 10
3.027640
 20
6.423120
  0
VERTEX
  8
0
  6
CONTINUOUS
 10
3.019280
 20
7.159680
  0
VERTEX
  8
0
  6
CONTINUOUS
 10
3.065040
 20
7.169800
  0
VERTEX
  8
0
  6
CONTINUOUS
 10
3.072960
 20
6.433240
  0
VERTEX
  8
0
  6
CONTINUOUS
 10
3.027640
 20
6.423120
  0
SEQEND
  8
0
  0
SOLID
  8
0
 62
    15
 10
3.072960
 20
6.433240
 11
3.065040
 21
7.169800
 12
3.121360
 22
6.436760
 13
3.113440
 23
7.173320
  0
POLYLINE
  8
0
  6
CONTINUOUS
 66
     1
 40
0.000000
 41
0.000000
  0
VERTEX
  8
0
  6
CONTINUOUS
 10
3.072960
 20
6.433240
  0
VERTEX
  8
0
  6
CONTINUOUS
 10
3.065040
 20
7.169800
  0
VERTEX
  8
0
  6
CONTINUOUS
 10
3.113440
 20
7.173320
  0
VERTEX
  8
0
  6
CONTINUOUS
 10
3.121360
 20
6.436760
  0
VERTEX
  8
0
  6
CONTINUOUS
 10
3.072960
 20
6.433240
  0
SEQEND
  8
0
  0
SOLID
  8
0
 62
    15
 10
3.121360
 20
6.436760
 11
3.113440
 21
7.173320
 12
3.171080
 22
6.433680
 13
3.163160
 23
7.170240
  0
POLYLINE
  8
0
  6
CONTINUOUS
 66
     1
 40
0.000000
 41
0.000000
  0
VERTEX
  8
0
  6
CONTINUOUS
 10
3.121360
 20
6.436760
  0
VERTEX
  8
0
  6
CONTINUOUS
 10
3.113440
 20
7.173320
  0
VERTEX
  8
0
  6
CONTINUOUS
 10
3.163160
 20
7.170240
  0
VERTEX
  8
0
  6
CONTINUOUS
 10
3.171080
 20
6.433680
  0
VERTEX
  8
0
  6
CONTINUOUS
 10
3.121360
 20
6.436760
  0
SEQEND
  8
0
  0
SOLID
  8
0
 62
    15
 10
3.171080
 20
6.433680
 11
3.163160
 21
7.170240
 12
3.221680
 22
6.424880
 13
3.213760
 23
7.161440
  0
POLYLINE
  8
0
  6
CONTINUOUS
 66
     1
 40
0.000000
 41
0.000000
  0
VERTEX
  8
0
  6
CONTINUOUS
 10
3.171080
 20
6.433680
  0
VERTEX
  8
0
  6
CONTINUOUS
 10
3.163160
 20
7.170240
  0
VERTEX
  8
0
  6
CONTINUOUS
 10
3.213760
 20
7.161440
  0
VERTEX
  8
0
  6
CONTINUOUS
 10
3.221680
 20
6.424880
  0
VERTEX
  8
0
  6
CONTINUOUS
 10
3.171080
 20
6.433680
  0
SEQEND
  8
0
  0
SOLID
  8
0
 62
    15
 10
3.221680
 20
6.424880
 11
3.213760
 21
7.161440
 12
3.272720
 22
6.410360
 13
3.264800
 23
7.146920
  0
POLYLINE
  8
0
  6
CONTINUOUS
 66
     1
 40
0.000000
 41
0.000000
  0
VERTEX
  8
0
  6
CONTINUOUS
 10
3.221680
 20
6.424880
  0
VERTEX
  8
0
  6
CONTINUOUS
 10
3.213760
 20
7.161440
  0
VERTEX
  8
0
  6
CONTINUOUS
 10
3.264800
 20
7.146920
  0
VERTEX
  8
0
  6
CONTINUOUS
 10
3.272720
 20
6.410360
  0
VERTEX
  8
0
  6
CONTINUOUS
 10
3.221680
 20
6.424880
  0
SEQEND
  8
0
  0
SOLID
  8
0
 62
    15
 10
3.272720
 20
6.410360
 11
3.264800
 21
7.146920
 12
3.322880
 22
6.390560
 13
3.314960
 23
7.127120
  0
POLYLINE
  8
0
  6
CONTINUOUS
 66
     1
 40
0.000000
 41
0.000000
  0
VERTEX
  8
0
  6
CONTINUOUS
 10
3.272720
 20
6.410360
  0
VERTEX
  8
0
  6
CONTINUOUS
 10
3.264800
 20
7.146920
  0
VERTEX
  8
0
  6
CONTINUOUS
 10
3.314960
 20
7.127120
  0
VERTEX
  8
0
  6
CONTINUOUS
 10
3.322880
 20
6.390560
  0
VERTEX
  8
0
  6
CONTINUOUS
 10
3.272720
 20
6.410360
  0
SEQEND
  8
0
  0
SOLID
  8
0
 62
    15
 10
3.322880
 20
6.390560
 11
3.314960
 21
7.127120
 12
3.371720
 22
6.366360
 13
3.363800
 23
7.102920
  0
POLYLINE
  8
0
  6
CONTINUOUS
 66
     1
 40
0.000000
 41
0.000000
  0
VERTEX
  8
0
  6
CONTINUOUS
 10
3.322880
 20
6.390560
  0
VERTEX
  8
0
  6
CONTINUOUS
 10
3.314960
 20
7.127120
  0
VERTEX
  8
0
  6
CONTINUOUS
 10
3.363800
 20
7.102920
  0
VERTEX
  8
0
  6
CONTINUOUS
 10
3.371720
 20
6.366360
  0
VERTEX
  8
0
  6
CONTINUOUS
 10
3.322880
 20
6.390560
  0
SEQEND
  8
0
  0
SOLID
  8
0
 62
    15
 10
3.371720
 20
6.366360
 11
3.363800
 21
7.102920
 12
3.418800
 22
6.337760
 13
3.410880
 23
7.074320
  0
POLYLINE
  8
0
  6
CONTINUOUS
 66
     1
 40
0.000000
 41
0.000000
  0
VERTEX
  8
0
  6
CONTINUOUS
 10
3.371720
 20
6.366360
  0
VERTEX
  8
0
  6
CONTINUOUS
 10
3.363800
 20
7.102920
  0
VERTEX
  8
0
  6
CONTINUOUS
 10
3.410880
 20
7.074320
  0
VERTEX
  8
0
  6
CONTINUOUS
 10
3.418800
 20
6.337760
  0
VERTEX
  8
0
  6
CONTINUOUS
 10
3.371720
 20
6.366360
  0
SEQEND
  8
0
  0
SOLID
  8
0
 62
    15
 10
3.418800
 20
6.337760
 11
3.410880
 21
7.074320
 12
3.462800
 22
6.305200
 13
3.454880
 23
7.041760
  0
POLYLINE
  8
0
  6
CONTINUOUS
 66
     1
 40
0.000000
 41
0.000000
  0
VERTEX
  8
0
  6
CONTINUOUS
 10
3.418800
 20
6.337760
  0
VERTEX
  8
0
  6
CONTINUOUS
 10
3.410880
 20
7.074320
  0
VERTEX
  8
0
  6
CONTINUOUS
 10
3.454880
 20
7.041760
  0
VERTEX
  8
0
  6
CONTINUOUS
 10
3.462800
 20
6.305200
  0
VERTEX
  8
0
  6
CONTINUOUS
 10
3.418800
 20
6.337760
  0
SEQEND
  8
0
  0
SOLID
  8
0
 62
    15
 10
3.462800
 20
6.305200
 11
3.454880
 21
7.041760
 12
3.503280
 22
6.269560
 13
3.495360
 23
7.006120
  0
POLYLINE
  8
0
  6
CONTINUOUS
 66
     1
 40
0.000000
 41
0.000000
  0
VERTEX
  8
0
  6
CONTINUOUS
 10
3.462800
 20
6.305200
  0
VERTEX
  8
0
  6
CONTINUOUS
 10
3.454880
 20
7.041760
  0
VERTEX
  8
0
  6
CONTINUOUS
 10
3.495360
 20
7.006120
  0
VERTEX
  8
0
  6
CONTINUOUS
 10
3.503280
 20
6.269560
  0
VERTEX
  8
0
  6
CONTINUOUS
 10
3.462800
 20
6.305200
  0
SEQEND
  8
0
  0
SOLID
  8
0
 62
    15
 10
3.503280
 20
6.269560
 11
3.495360
 21
7.006120
 12
3.539360
 22
6.230840
 13
3.531440
 23
6.967400
  0
POLYLINE
  8
0
  6
CONTINUOUS
 66
     1
 40
0.000000
 41
0.000000
  0
VERTEX
  8
0
  6
CONTINUOUS
 10
3.503280
 20
6.269560
  0
VERTEX
  8
0
  6
CONTINUOUS
 10
3.495360
 20
7.006120
  0
VERTEX
  8
0
  6
CONTINUOUS
 10
3.531440
 20
6.967400
  0
VERTEX
  8
0
  6
CONTINUOUS
 10
3.539360
 20
6.230840
  0
VERTEX
  8
0
  6
CONTINUOUS
 10
3.503280
 20
6.269560
  0
SEQEND
  8
0
  0
SOLID
  8
0
 62
    15
 10
3.539360
 20
6.230840
 11
3.531440
 21
6.967400
 12
3.570600
 22
6.189920
 13
3.562240
 23
6.926040
  0
POLYLINE
  8
0
  6
CONTINUOUS
 66
     1
 40
0.000000
 41
0.000000
  0
VERTEX
  8
0
  6
CONTINUOUS
 10
3.539360
 20
6.230840
  0
VERTEX
  8
0
  6
CONTINUOUS
 10
3.531440
 20
6.967400
  0
VERTEX
  8
0
  6
CONTINUOUS
 10
3.562240
 20
6.926040
  0
VERTEX
  8
0
  6
CONTINUOUS
 10
3.570600
 20
6.189920
  0
VERTEX
  8
0
  6
CONTINUOUS
 10
3.539360
 20
6.230840
  0
SEQEND
  8
0
  0
SOLID
  8
0
 62
    15
 10
3.570600
 20
6.189920
 11
3.562240
 21
6.926040
 12
3.901480
 22
6.189920
 13
3.893560
 23
6.926040
  0
POLYLINE
  8
0
  6
CONTINUOUS
 66
     1
 40
0.000000
 41
0.000000
  0
VERTEX
  8
0
  6
CONTINUOUS
 10
3.570600
 20
6.189920
  0
VERTEX
  8
0
  6
CONTINUOUS
 10
3.562240
 20
6.926040
  0
VERTEX
  8
0
  6
CONTINUOUS
 10
3.893560
 20
6.926040
  0
VERTEX
  8
0
  6
CONTINUOUS
 10
3.901480
 20
6.189920
  0
VERTEX
  8
0
  6
CONTINUOUS
 10
3.570600
 20
6.189920
  0
SEQEND
  8
0
  0
SOLID
  8
0
 62
    15
 10
3.901480
 20
6.189920
 11
3.893560
 21
6.926040
 12
3.936680
 22
6.150760
 13
3.928760
 23
6.887320
  0
POLYLINE
  8
0
  6
CONTINUOUS
 66
     1
 40
0.000000
 41
0.000000
  0
VERTEX
  8
0
  6
CONTINUOUS
 10
3.901480
 20
6.189920
  0
VERTEX
  8
0
  6
CONTINUOUS
 10
3.893560
 20
6.926040
  0
VERTEX
  8
0
  6
CONTINUOUS
 10
3.928760
 20
6.887320
  0
VERTEX
  8
0
  6
CONTINUOUS
 10
3.936680
 20
6.150760
  0
VERTEX
  8
0
  6
CONTINUOUS
 10
3.901480
 20
6.189920
  0
SEQEND
  8
0
  0
SOLID
  8
0
 62
    15
 10
3.936680
 20
6.150760
 11
3.928760
 21
6.887320
 12
3.975400
 22
6.115560
 13
3.967480
 23
6.852120
  0
POLYLINE
  8
0
  6
CONTINUOUS
 66
     1
 40
0.000000
 41
0.000000
  0
VERTEX
  8
0
  6
CONTINUOUS
 10
3.936680
 20
6.150760
  0
VERTEX
  8
0
  6
CONTINUOUS
 10
3.928760
 20
6.887320
  0
VERTEX
  8
0
  6
CONTINUOUS
 10
3.967480
 20
6.852120
  0
VERTEX
  8
0
  6
CONTINUOUS
 10
3.975400
 20
6.115560
  0
VERTEX
  8
0
  6
CONTINUOUS
 10
3.936680
 20
6.150760
  0
SEQEND
  8
0
  0
SOLID
  8
0
 62
    15
 10
3.975400
 20
6.115560
 11
3.967480
 21
6.852120
 12
4.017200
 22
6.083880
 13
4.009280
 23
6.820440
  0
POLYLINE
  8
0
  6
CONTINUOUS
 66
     1
 40
0.000000
 41
0.000000
  0
VERTEX
  8
0
  6
CONTINUOUS
 10
3.975400
 20
6.115560
  0
VERTEX
  8
0
  6
CONTINUOUS
 10
3.967480
 20
6.852120
  0
VERTEX
  8
0
  6
CONTINUOUS
 10
4.009280
 20
6.820440
  0
VERTEX
  8
0
  6
CONTINUOUS
 10
4.017200
 20
6.083880
  0
VERTEX
  8
0
  6
CONTINUOUS
 10
3.975400
 20
6.115560
  0
SEQEND
  8
0
  0
SOLID
  8
0
 62
    15
 10
4.017200
 20
6.083880
 11
4.009280
 21
6.820440
 12
4.062520
 22
6.056160
 13
4.054600
 23
6.792280
  0
POLYLINE
  8
0
  6
CONTINUOUS
 66
     1
 40
0.000000
 41
0.000000
  0
VERTEX
  8
0
  6
CONTINUOUS
 10
4.017200
 20
6.083880
  0
VERTEX
  8
0
  6
CONTINUOUS
 10
4.009280
 20
6.820440
  0
VERTEX
  8
0
  6
CONTINUOUS
 10
4.054600
 20
6.792280
  0
VERTEX
  8
0
  6
CONTINUOUS
 10
4.062520
 20
6.056160
  0
VERTEX
  8
0
  6
CONTINUOUS
 10
4.017200
 20
6.083880
  0
SEQEND
  8
0
  0
SOLID
  8
0
 62
    15
 10
4.062520
 20
6.056160
 11
4.054600
 21
6.792280
 12
4.111360
 22
6.031520
 13
4.103000
 23
6.767640
  0
POLYLINE
  8
0
  6
CONTINUOUS
 66
     1
 40
0.000000
 41
0.000000
  0
VERTEX
  8
0
  6
CONTINUOUS
 10
4.062520
 20
6.056160
  0
VERTEX
  8
0
  6
CONTINUOUS
 10
4.054600
 20
6.792280
  0
VERTEX
  8
0
  6
CONTINUOUS
 10
4.103000
 20
6.767640
  0
VERTEX
  8
0
  6
CONTINUOUS
 10
4.111360
 20
6.031520
  0
VERTEX
  8
0
  6
CONTINUOUS
 10
4.062520
 20
6.056160
  0
SEQEND
  8
0
  0
SOLID
  8
0
 62
    15
 10
4.111360
 20
6.031520
 11
4.103000
 21
6.767640
 12
4.163280
 22
6.009960
 13
4.155360
 23
6.746080
  0
POLYLINE
  8
0
  6
CONTINUOUS
 66
     1
 40
0.000000
 41
0.000000
  0
VERTEX
  8
0
  6
CONTINUOUS
 10
4.111360
 20
6.031520
  0
VERTEX
  8
0
  6
CONTINUOUS
 10
4.103000
 20
6.767640
  0
VERTEX
  8
0
  6
CONTINUOUS
 10
4.155360
 20
6.746080
  0
VERTEX
  8
0
  6
CONTINUOUS
 10
4.163280
 20
6.009960
  0
VERTEX
  8
0
  6
CONTINUOUS
 10
4.111360
 20
6.031520
  0
SEQEND
  8
0
  0
SOLID
  8
0
 62
    15
 10
4.163280
 20
6.009960
 11
4.155360
 21
6.746080
 12
4.218280
 22
5.991040
 13
4.210360
 23
6.727600
  0
POLYLINE
  8
0
  6
CONTINUOUS
 66
     1
 40
0.000000
 41
0.000000
  0
VERTEX
  8
0
  6
CONTINUOUS
 10
4.163280
 20
6.009960
  0
VERTEX
  8
0
  6
CONTINUOUS
 10
4.155360
 20
6.746080
  0
VERTEX
  8
0
  6
CONTINUOUS
 10
4.210360
 20
6.727600
  0
VERTEX
  8
0
  6
CONTINUOUS
 10
4.218280
 20
5.991040
  0
VERTEX
  8
0
  6
CONTINUOUS
 10
4.163280
 20
6.009960
  0
SEQEND
  8
0
  0
SOLID
  8
0
 62
    15
 10
4.218280
 20
5.991040
 11
4.210360
 21
6.727600
 12
4.277240
 22
5.975200
 13
4.268880
 23
6.711320
  0
POLYLINE
  8
0
  6
CONTINUOUS
 66
     1
 40
0.000000
 41
0.000000
  0
VERTEX
  8
0
  6
CONTINUOUS
 10
4.218280
 20
5.991040
  0
VERTEX
  8
0
  6
CONTINUOUS
 10
4.210360
 20
6.727600
  0
VERTEX
  8
0
  6
CONTINUOUS
 10
4.268880
 20
6.711320
  0
VERTEX
  8
0
  6
CONTINUOUS
 10
4.277240
 20
5.975200
  0
VERTEX
  8
0
  6
CONTINUOUS
 10
4.218280
 20
5.991040
  0
SEQEND
  8
0
  0
SOLID
  8
0
 62
    15
 10
4.277240
 20
5.975200
 11
4.268880
 21
6.711320
 12
4.338840
 22
5.961560
 13
4.330920
 23
6.698120
  0
POLYLINE
  8
0
  6
CONTINUOUS
 66
     1
 40
0.000000
 41
0.000000
  0
VERTEX
  8
0
  6
CONTINUOUS
 10
4.277240
 20
5.975200
  0
VERTEX
  8
0
  6
CONTINUOUS
 10
4.268880
 20
6.711320
  0
VERTEX
  8
0
  6
CONTINUOUS
 10
4.330920
 20
6.698120
  0
VERTEX
  8
0
  6
CONTINUOUS
 10
4.338840
 20
5.961560
  0
VERTEX
  8
0
  6
CONTINUOUS
 10
4.277240
 20
5.975200
  0
SEQEND
  8
0
  0
SOLID
  8
0
 62
    15
 10
4.338840
 20
5.961560
 11
4.330920
 21
6.698120
 12
4.404400
 22
5.950560
 13
4.396480
 23
6.687120
  0
POLYLINE
  8
0
  6
CONTINUOUS
 66
     1
 40
0.000000
 41
0.000000
  0
VERTEX
  8
0
  6
CONTINUOUS
 10
4.338840
 20
5.961560
  0
VERTEX
  8
0
  6
CONTINUOUS
 10
4.330920
 20
6.698120
  0
VERTEX
  8
0
  6
CONTINUOUS
 10
4.396480
 20
6.687120
  0
VERTEX
  8
0
  6
CONTINUOUS
 10
4.404400
 20
5.950560
  0
VERTEX
  8
0
  6
CONTINUOUS
 10
4.338840
 20
5.961560
  0
SEQEND
  8
0
  0
SOLID
  8
0
 62
    15
 10
2.440680
 20
6.438520
 11
2.432760
 21
7.175080
 12
2.836240
 22
6.438520
 13
2.828320
 23
7.175080
  0
POLYLINE
  8
0
  6
CONTINUOUS
 66
     1
 40
0.000000
 41
0.000000
  0
VERTEX
  8
0
  6
CONTINUOUS
 10
2.440680
 20
6.438520
  0
VERTEX
  8
0
  6
CONTINUOUS
 10
2.432760
 20
7.175080
  0
VERTEX
  8
0
  6
CONTINUOUS
 10
2.828320
 20
7.175080
  0
VERTEX
  8
0
  6
CONTINUOUS
 10
2.836240
 20
6.438520
  0
VERTEX
  8
0
  6
CONTINUOUS
 10
2.440680
 20
6.438520
  0
SEQEND
  8
0
  0
SOLID
  8
0
 62
    15
 10
4.473040
 20
5.941320
 11
4.465120
 21
6.677880
 12
4.544760
 22
5.934280
 13
4.536840
 23
6.670840
  0
POLYLINE
  8
0
  6
CONTINUOUS
 66
     1
 40
0.000000
 41
0.000000
  0
VERTEX
  8
0
  6
CONTINUOUS
 10
4.473040
 20
5.941320
  0
VERTEX
  8
0
  6
CONTINUOUS
 10
4.465120
 20
6.677880
  0
VERTEX
  8
0
  6
CONTINUOUS
 10
4.536840
 20
6.670840
  0
VERTEX
  8
0
  6
CONTINUOUS
 10
4.544760
 20
5.934280
  0
VERTEX
  8
0
  6
CONTINUOUS
 10
4.473040
 20
5.941320
  0
SEQEND
  8
0
  0
SOLID
  8
0
 62
    15
 10
4.544760
 20
5.934280
 11
4.536840
 21
6.670840
 12
4.698760
 22
5.925040
 13
4.690840
 23
6.661160
  0
POLYLINE
  8
0
  6
CONTINUOUS
 66
     1
 40
0.000000
 41
0.000000
  0
VERTEX
  8
0
  6
CONTINUOUS
 10
4.544760
 20
5.934280
  0
VERTEX
  8
0
  6
CONTINUOUS
 10
4.536840
 20
6.670840
  0
VERTEX
  8
0
  6
CONTINUOUS
 10
4.690840
 20
6.661160
  0
VERTEX
  8
0
  6
CONTINUOUS
 10
4.698760
 20
5.925040
  0
VERTEX
  8
0
  6
CONTINUOUS
 10
4.544760
 20
5.934280
  0
SEQEND
  8
0
  0
SOLID
  8
0
 62
    15
 10
4.698760
 20
5.925040
 11
4.690840
 21
6.661160
 12
4.865960
 22
5.920640
 13
4.857600
 23
6.657200
  0
POLYLINE
  8
0
  6
CONTINUOUS
 66
     1
 40
0.000000
 41
0.000000
  0
VERTEX
  8
0
  6
CONTINUOUS
 10
4.698760
 20
5.925040
  0
VERTEX
  8
0
  6
CONTINUOUS
 10
4.690840
 20
6.661160
  0
VERTEX
  8
0
  6
CONTINUOUS
 10
4.857600
 20
6.657200
  0
VERTEX
  8
0
  6
CONTINUOUS
 10
4.865960
 20
5.920640
  0
VERTEX
  8
0
  6
CONTINUOUS
 10
4.698760
 20
5.925040
  0
SEQEND
  8
0
  0
SOLID
  8
0
 62
    15
 10
4.865960
 20
5.920640
 11
4.857600
 21
6.657200
 12
5.599440
 22
5.931640
 13
5.591520
 23
6.667760
  0
POLYLINE
  8
0
  6
CONTINUOUS
 66
     1
 40
0.000000
 41
0.000000
  0
VERTEX
  8
0
  6
CONTINUOUS
 10
4.865960
 20
5.920640
  0
VERTEX
  8
0
  6
CONTINUOUS
 10
4.857600
 20
6.657200
  0
VERTEX
  8
0
  6
CONTINUOUS
 10
5.591520
 20
6.667760
  0
VERTEX
  8
0
  6
CONTINUOUS
 10
5.599440
 20
5.931640
  0
VERTEX
  8
0
  6
CONTINUOUS
 10
4.865960
 20
5.920640
  0
SEQEND
  8
0
  0
SOLID
  8
0
 62
    15
 10
5.599440
 20
5.931640
 11
5.591520
 21
6.667760
 12
5.602520
 22
5.981360
 13
5.594600
 23
6.717920
  0
POLYLINE
  8
0
  6
CONTINUOUS
 66
     1
 40
0.000000
 41
0.000000
  0
VERTEX
  8
0
  6
CONTINUOUS
 10
5.599440
 20
5.931640
  0
VERTEX
  8
0
  6
CONTINUOUS
 10
5.591520
 20
6.667760
  0
VERTEX
  8
0
  6
CONTINUOUS
 10
5.594600
 20
6.717920
  0
VERTEX
  8
0
  6
CONTINUOUS
 10
5.602520
 20
5.981360
  0
VERTEX
  8
0
  6
CONTINUOUS
 10
5.599440
 20
5.931640
  0
SEQEND
  8
0
  0
SOLID
  8
0
 62
    15
 10
5.602520
 20
5.981360
 11
5.594600
 21
6.717920
 12
5.612200
 22
6.024040
 13
5.604280
 23
6.760160
  0
POLYLINE
  8
0
  6
CONTINUOUS
 66
     1
 40
0.000000
 41
0.000000
  0
VERTEX
  8
0
  6
CONTINUOUS
 10
5.602520
 20
5.981360
  0
VERTEX
  8
0
  6
CONTINUOUS
 10
5.594600
 20
6.717920
  0
VERTEX
  8
0
  6
CONTINUOUS
 10
5.604280
 20
6.760160
  0
VERTEX
  8
0
  6
CONTINUOUS
 10
5.612200
 20
6.024040
  0
VERTEX
  8
0
  6
CONTINUOUS
 10
5.602520
 20
5.981360
  0
SEQEND
  8
0
  0
SOLID
  8
0
 62
    15
 10
5.612200
 20
6.024040
 11
5.604280
 21
6.760160
 12
5.626720
 22
6.059240
 13
5.618800
 23
6.795800
  0
POLYLINE
  8
0
  6
CONTINUOUS
 66
     1
 40
0.000000
 41
0.000000
  0
VERTEX
  8
0
  6
CONTINUOUS
 10
5.612200
 20
6.024040
  0
VERTEX
  8
0
  6
CONTINUOUS
 10
5.604280
 20
6.760160
  0
VERTEX
  8
0
  6
CONTINUOUS
 10
5.618800
 20
6.795800
  0
VERTEX
  8
0
  6
CONTINUOUS
 10
5.626720
 20
6.059240
  0
VERTEX
  8
0
  6
CONTINUOUS
 10
5.612200
 20
6.024040
  0
SEQEND
  8
0
  0
SOLID
  8
0
 62
    15
 10
5.626720
 20
6.059240
 11
5.618800
 21
6.795800
 12
5.645640
 22
6.087400
 13
5.637720
 23
6.823960
  0
POLYLINE
  8
0
  6
CONTINUOUS
 66
     1
 40
0.000000
 41
0.000000
  0
VERTEX
  8
0
  6
CONTINUOUS
 10
5.626720
 20
6.059240
  0
VERTEX
  8
0
  6
CONTINUOUS
 10
5.618800
 20
6.795800
  0
VERTEX
  8
0
  6
CONTINUOUS
 10
5.637720
 20
6.823960
  0
VERTEX
  8
0
  6
CONTINUOUS
 10
5.645640
 20
6.087400
  0
VERTEX
  8
0
  6
CONTINUOUS
 10
5.626720
 20
6.059240
  0
SEQEND
  8
0
  0
SOLID
  8
0
 62
    15
 10
5.645640
 20
6.087400
 11
5.637720
 21
6.823960
 12
5.667640
 22
6.108960
 13
5.659720
 23
6.845520
  0
POLYLINE
  8
0
  6
CONTINUOUS
 66
     1
 40
0.000000
 41
0.000000
  0
VERTEX
  8
0
  6
CONTINUOUS
 10
5.645640
 20
6.087400
  0
VERTEX
  8
0
  6
CONTINUOUS
 10
5.637720
 20
6.823960
  0
VERTEX
  8
0
  6
CONTINUOUS
 10
5.659720
 20
6.845520
  0
VERTEX
  8
0
  6
CONTINUOUS
 10
5.667640
 20
6.108960
  0
VERTEX
  8
0
  6
CONTINUOUS
 10
5.645640
 20
6.087400
  0
SEQEND
  8
0
  0
SOLID
  8
0
 62
    15
 10
5.667640
 20
6.108960
 11
5.659720
 21
6.845520
 12
5.692720
 22
6.123920
 13
5.684800
 23
6.860480
  0
POLYLINE
  8
0
  6
CONTINUOUS
 66
     1
 40
0.000000
 41
0.000000
  0
VERTEX
  8
0
  6
CONTINUOUS
 10
5.667640
 20
6.108960
  0
VERTEX
  8
0
  6
CONTINUOUS
 10
5.659720
 20
6.845520
  0
VERTEX
  8
0
  6
CONTINUOUS
 10
5.684800
 20
6.860480
  0
VERTEX
  8
0
  6
CONTINUOUS
 10
5.692720
 20
6.123920
  0
VERTEX
  8
0
  6
CONTINUOUS
 10
5.667640
 20
6.108960
  0
SEQEND
  8
0
  0
SOLID
  8
0
 62
    15
 10
5.692720
 20
6.123920
 11
5.684800
 21
6.860480
 12
5.719120
 22
6.132720
 13
5.711200
 23
6.868840
  0
POLYLINE
  8
0
  6
CONTINUOUS
 66
     1
 40
0.000000
 41
0.000000
  0
VERTEX
  8
0
  6
CONTINUOUS
 10
5.692720
 20
6.123920
  0
VERTEX
  8
0
  6
CONTINUOUS
 10
5.684800
 20
6.860480
  0
VERTEX
  8
0
  6
CONTINUOUS
 10
5.711200
 20
6.868840
  0
VERTEX
  8
0
  6
CONTINUOUS
 10
5.719120
 20
6.132720
  0
VERTEX
  8
0
  6
CONTINUOUS
 10
5.692720
 20
6.123920
  0
SEQEND
  8
0
  0
SOLID
  8
0
 62
    15
 10
5.719120
 20
6.132720
 11
5.711200
 21
6.868840
 12
5.746840
 22
6.134480
 13
5.738920
 23
6.871040
  0
POLYLINE
  8
0
  6
CONTINUOUS
 66
     1
 40
0.000000
 41
0.000000
  0
VERTEX
  8
0
  6
CONTINUOUS
 10
5.719120
 20
6.132720
  0
VERTEX
  8
0
  6
CONTINUOUS
 10
5.711200
 20
6.868840
  0
VERTEX
  8
0
  6
CONTINUOUS
 10
5.738920
 20
6.871040
  0
VERTEX
  8
0
  6
CONTINUOUS
 10
5.746840
 20
6.134480
  0
VERTEX
  8
0
  6
CONTINUOUS
 10
5.719120
 20
6.132720
  0
SEQEND
  8
0
  0
SOLID
  8
0
 62
    15
 10
5.746840
 20
6.134480
 11
5.738920
 21
6.871040
 12
5.774560
 22
6.130520
 13
5.766200
 23
6.867080
  0
POLYLINE
  8
0
  6
CONTINUOUS
 66
     1
 40
0.000000
 41
0.000000
  0
VERTEX
  8
0
  6
CONTINUOUS
 10
5.746840
 20
6.134480
  0
VERTEX
  8
0
  6
CONTINUOUS
 10
5.738920
 20
6.871040
  0
VERTEX
  8
0
  6
CONTINUOUS
 10
5.766200
 20
6.867080
  0
VERTEX
  8
0
  6
CONTINUOUS
 10
5.774560
 20
6.130520
  0
VERTEX
  8
0
  6
CONTINUOUS
 10
5.746840
 20
6.134480
  0
SEQEND
  8
0
  0
SOLID
  8
0
 62
    15
 10
5.774560
 20
6.130520
 11
5.766200
 21
6.867080
 12
5.800960
 22
6.120840
 13
5.793040
 23
6.857400
  0
POLYLINE
  8
0
  6
CONTINUOUS
 66
     1
 40
0.000000
 41
0.000000
  0
VERTEX
  8
0
  6
CONTINUOUS
 10
5.774560
 20
6.130520
  0
VERTEX
  8
0
  6
CONTINUOUS
 10
5.766200
 20
6.867080
  0
VERTEX
  8
0
  6
CONTINUOUS
 10
5.793040
 20
6.857400
  0
VERTEX
  8
0
  6
CONTINUOUS
 10
5.800960
 20
6.120840
  0
VERTEX
  8
0
  6
CONTINUOUS
 10
5.774560
 20
6.130520
  0
SEQEND
  8
0
  0
SOLID
  8
0
 62
    15
 10
5.800960
 20
6.120840
 11
5.793040
 21
6.857400
 12
5.826040
 22
6.105000
 13
5.818120
 23
6.841560
  0
POLYLINE
  8
0
  6
CONTINUOUS
 66
     1
 40
0.000000
 41
0.000000
  0
VERTEX
  8
0
  6
CONTINUOUS
 10
5.800960
 20
6.120840
  0
VERTEX
  8
0
  6
CONTINUOUS
 10
5.793040
 20
6.857400
  0
VERTEX
  8
0
  6
CONTINUOUS
 10
5.818120
 20
6.841560
  0
VERTEX
  8
0
  6
CONTINUOUS
 10
5.826040
 20
6.105000
  0
VERTEX
  8
0
  6
CONTINUOUS
 10
5.800960
 20
6.120840
  0
SEQEND
  8
0
  0
SOLID
  8
0
 62
    15
 10
5.826040
 20
6.105000
 11
5.818120
 21
6.841560
 12
5.848480
 22
6.083880
 13
5.840120
 23
6.820440
  0
POLYLINE
  8
0
  6
CONTINUOUS
 66
     1
 40
0.000000
 41
0.000000
  0
VERTEX
  8
0
  6
CONTINUOUS
 10
5.826040
 20
6.105000
  0
VERTEX
  8
0
  6
CONTINUOUS
 10
5.818120
 20
6.841560
  0
VERTEX
  8
0
  6
CONTINUOUS
 10
5.840120
 20
6.820440
  0
VERTEX
  8
0
  6
CONTINUOUS
 10
5.848480
 20
6.083880
  0
VERTEX
  8
0
  6
CONTINUOUS
 10
5.826040
 20
6.105000
  0
SEQEND
  8
0
  0
SOLID
  8
0
 62
    15
 10
5.848480
 20
6.083880
 11
5.840120
 21
6.820440
 12
5.866960
 22
6.057040
 13
5.859040
 23
6.793600
  0
POLYLINE
  8
0
  6
CONTINUOUS
 66
     1
 40
0.000000
 41
0.000000
  0
VERTEX
  8
0
  6
CONTINUOUS
 10
5.848480
 20
6.083880
  0
VERTEX
  8
0
  6
CONTINUOUS
 10
5.840120
 20
6.820440
  0
VERTEX
  8
0
  6
CONTINUOUS
 10
5.859040
 20
6.793600
  0
VERTEX
  8
0
  6
CONTINUOUS
 10
5.866960
 20
6.057040
  0
VERTEX
  8
0
  6
CONTINUOUS
 10
5.848480
 20
6.083880
  0
SEQEND
  8
0
  0
SOLID
  8
0
 62
    15
 10
5.881480
 20
6.025360
 11
5.873560
 21
6.761480
 12
5.891160
 22
5.987960
 13
5.883240
 23
6.724520
  0
POLYLINE
  8
0
  6
CONTINUOUS
 66
     1
 40
0.000000
 41
0.000000
  0
VERTEX
  8
0
  6
CONTINUOUS
 10
5.881480
 20
6.025360
  0
VERTEX
  8
0
  6
CONTINUOUS
 10
5.873560
 20
6.761480
  0
VERTEX
  8
0
  6
CONTINUOUS
 10
5.883240
 20
6.724520
  0
VERTEX
  8
0
  6
CONTINUOUS
 10
5.891160
 20
5.987960
  0
VERTEX
  8
0
  6
CONTINUOUS
 10
5.881480
 20
6.025360
  0
SEQEND
  8
0
  0
SOLID
  8
0
 62
    15
 10
5.866960
 20
6.057040
 11
5.859040
 21
6.793600
 12
5.881480
 22
6.025360
 13
5.873560
 23
6.761480
  0
POLYLINE
  8
0
  6
CONTINUOUS
 66
     1
 40
0.000000
 41
0.000000
  0
VERTEX
  8
0
  6
CONTINUOUS
 10
5.866960
 20
6.057040
  0
VERTEX
  8
0
  6
CONTINUOUS
 10
5.859040
 20
6.793600
  0
VERTEX
  8
0
  6
CONTINUOUS
 10
5.873560
 20
6.761480
  0
VERTEX
  8
0
  6
CONTINUOUS
 10
5.881480
 20
6.025360
  0
VERTEX
  8
0
  6
CONTINUOUS
 10
5.866960
 20
6.057040
  0
SEQEND
  8
0
  0
SOLID
  8
0
 62
    15
 10
5.894240
 20
5.946160
 11
5.886320
 21
6.682280
 12
6.037240
 22
5.946160
 13
6.028880
 23
6.682280
  0
POLYLINE
  8
0
  6
CONTINUOUS
 66
     1
 40
0.000000
 41
0.000000
  0
VERTEX
  8
0
  6
CONTINUOUS
 10
5.894240
 20
5.946160
  0
VERTEX
  8
0
  6
CONTINUOUS
 10
5.886320
 20
6.682280
  0
VERTEX
  8
0
  6
CONTINUOUS
 10
6.028880
 20
6.682280
  0
VERTEX
  8
0
  6
CONTINUOUS
 10
6.037240
 20
5.946160
  0
VERTEX
  8
0
  6
CONTINUOUS
 10
5.894240
 20
5.946160
  0
SEQEND
  8
0
  0
SOLID
  8
0
 62
    15
 10
5.891160
 20
5.987960
 11
5.883240
 21
6.724520
 12
5.894240
 22
5.946160
 13
5.886320
 23
6.682280
  0
POLYLINE
  8
0
  6
CONTINUOUS
 66
     1
 40
0.000000
 41
0.000000
  0
VERTEX
  8
0
  6
CONTINUOUS
 10
5.891160
 20
5.987960
  0
VERTEX
  8
0
  6
CONTINUOUS
 10
5.883240
 20
6.724520
  0
VERTEX
  8
0
  6
CONTINUOUS
 10
5.886320
 20
6.682280
  0
VERTEX
  8
0
  6
CONTINUOUS
 10
5.894240
 20
5.946160
  0
VERTEX
  8
0
  6
CONTINUOUS
 10
5.891160
 20
5.987960
  0
SEQEND
  8
0
  0
SOLID
  8
0
 62
    15
 10
6.037240
 20
5.946160
 11
6.028880
 21
6.682280
 12
6.059680
 22
5.889400
 13
6.051760
 23
6.625960
  0
POLYLINE
  8
0
  6
CONTINUOUS
 66
     1
 40
0.000000
 41
0.000000
  0
VERTEX
  8
0
  6
CONTINUOUS
 10
6.037240
 20
5.946160
  0
VERTEX
  8
0
  6
CONTINUOUS
 10
6.028880
 20
6.682280
  0
VERTEX
  8
0
  6
CONTINUOUS
 10
6.051760
 20
6.625960
  0
VERTEX
  8
0
  6
CONTINUOUS
 10
6.059680
 20
5.889400
  0
VERTEX
  8
0
  6
CONTINUOUS
 10
6.037240
 20
5.946160
  0
SEQEND
  8
0
  0
SOLID
  8
0
 62
    15
 10
6.059680
 20
5.889400
 11
6.051760
 21
6.625960
 12
6.092680
 22
5.843200
 13
6.084760
 23
6.579320
  0
POLYLINE
  8
0
  6
CONTINUOUS
 66
     1
 40
0.000000
 41
0.000000
  0
VERTEX
  8
0
  6
CONTINUOUS
 10
6.059680
 20
5.889400
  0
VERTEX
  8
0
  6
CONTINUOUS
 10
6.051760
 20
6.625960
  0
VERTEX
  8
0
  6
CONTINUOUS
 10
6.084760
 20
6.579320
  0
VERTEX
  8
0
  6
CONTINUOUS
 10
6.092680
 20
5.843200
  0
VERTEX
  8
0
  6
CONTINUOUS
 10
6.059680
 20
5.889400
  0
SEQEND
  8
0
  0
SOLID
  8
0
 62
    15
 10
6.092680
 20
5.843200
 11
6.084760
 21
6.579320
 12
6.134480
 22
5.805800
 13
6.126560
 23
6.542360
  0
POLYLINE
  8
0
  6
CONTINUOUS
 66
     1
 40
0.000000
 41
0.000000
  0
VERTEX
  8
0
  6
CONTINUOUS
 10
6.092680
 20
5.843200
  0
VERTEX
  8
0
  6
CONTINUOUS
 10
6.084760
 20
6.579320
  0
VERTEX
  8
0
  6
CONTINUOUS
 10
6.126560
 20
6.542360
  0
VERTEX
  8
0
  6
CONTINUOUS
 10
6.134480
 20
5.805800
  0
VERTEX
  8
0
  6
CONTINUOUS
 10
6.092680
 20
5.843200
  0
SEQEND
  8
0
  0
SOLID
  8
0
 62
    15
 10
6.134480
 20
5.805800
 11
6.126560
 21
6.542360
 12
6.182880
 22
5.776760
 13
6.174960
 23
6.513320
  0
POLYLINE
  8
0
  6
CONTINUOUS
 66
     1
 40
0.000000
 41
0.000000
  0
VERTEX
  8
0
  6
CONTINUOUS
 10
6.134480
 20
5.805800
  0
VERTEX
  8
0
  6
CONTINUOUS
 10
6.126560
 20
6.542360
  0
VERTEX
  8
0
  6
CONTINUOUS
 10
6.174960
 20
6.513320
  0
VERTEX
  8
0
  6
CONTINUOUS
 10
6.182880
 20
5.776760
  0
VERTEX
  8
0
  6
CONTINUOUS
 10
6.134480
 20
5.805800
  0
SEQEND
  8
0
  0
SOLID
  8
0
 62
    15
 10
6.182880
 20
5.776760
 11
6.174960
 21
6.513320
 12
6.235240
 22
5.755640
 13
6.227320
 23
6.492200
  0
POLYLINE
  8
0
  6
CONTINUOUS
 66
     1
 40
0.000000
 41
0.000000
  0
VERTEX
  8
0
  6
CONTINUOUS
 10
6.182880
 20
5.776760
  0
VERTEX
  8
0
  6
CONTINUOUS
 10
6.174960
 20
6.513320
  0
VERTEX
  8
0
  6
CONTINUOUS
 10
6.227320
 20
6.492200
  0
VERTEX
  8
0
  6
CONTINUOUS
 10
6.235240
 20
5.755640
  0
VERTEX
  8
0
  6
CONTINUOUS
 10
6.182880
 20
5.776760
  0
SEQEND
  8
0
  0
SOLID
  8
0
 62
    15
 10
6.235240
 20
5.755640
 11
6.227320
 21
6.492200
 12
6.290240
 22
5.741560
 13
6.281880
 23
6.477680
  0
POLYLINE
  8
0
  6
CONTINUOUS
 66
     1
 40
0.000000
 41
0.000000
  0
VERTEX
  8
0
  6
CONTINUOUS
 10
6.235240
 20
5.755640
  0
VERTEX
  8
0
  6
CONTINUOUS
 10
6.227320
 20
6.492200
  0
VERTEX
  8
0
  6
CONTINUOUS
 10
6.281880
 20
6.477680
  0
VERTEX
  8
0
  6
CONTINUOUS
 10
6.290240
 20
5.741560
  0
VERTEX
  8
0
  6
CONTINUOUS
 10
6.235240
 20
5.755640
  0
SEQEND
  8
0
  0
SOLID
  8
0
 62
    15
 10
6.290240
 20
5.741560
 11
6.281880
 21
6.477680
 12
6.344800
 22
5.733200
 13
6.336880
 23
6.469760
  0
POLYLINE
  8
0
  6
CONTINUOUS
 66
     1
 40
0.000000
 41
0.000000
  0
VERTEX
  8
0
  6
CONTINUOUS
 10
6.290240
 20
5.741560
  0
VERTEX
  8
0
  6
CONTINUOUS
 10
6.281880
 20
6.477680
  0
VERTEX
  8
0
  6
CONTINUOUS
 10
6.336880
 20
6.469760
  0
VERTEX
  8
0
  6
CONTINUOUS
 10
6.344800
 20
5.733200
  0
VERTEX
  8
0
  6
CONTINUOUS
 10
6.290240
 20
5.741560
  0
SEQEND
  8
0
  0
SOLID
  8
0
 62
    15
 10
6.344800
 20
5.733200
 11
6.336880
 21
6.469760
 12
6.397160
 22
5.731000
 13
6.389240
 23
6.467120
  0
POLYLINE
  8
0
  6
CONTINUOUS
 66
     1
 40
0.000000
 41
0.000000
  0
VERTEX
  8
0
  6
CONTINUOUS
 10
6.344800
 20
5.733200
  0
VERTEX
  8
0
  6
CONTINUOUS
 10
6.336880
 20
6.469760
  0
VERTEX
  8
0
  6
CONTINUOUS
 10
6.389240
 20
6.467120
  0
VERTEX
  8
0
  6
CONTINUOUS
 10
6.397160
 20
5.731000
  0
VERTEX
  8
0
  6
CONTINUOUS
 10
6.344800
 20
5.733200
  0
SEQEND
  8
0
  0
SOLID
  8
0
 62
    15
 10
6.397160
 20
5.731000
 11
6.389240
 21
6.467120
 12
6.398920
 22
5.730120
 13
6.391000
 23
6.466240
  0
POLYLINE
  8
0
  6
CONTINUOUS
 66
     1
 40
0.000000
 41
0.000000
  0
VERTEX
  8
0
  6
CONTINUOUS
 10
6.397160
 20
5.731000
  0
VERTEX
  8
0
  6
CONTINUOUS
 10
6.389240
 20
6.467120
  0
VERTEX
  8
0
  6
CONTINUOUS
 10
6.391000
 20
6.466240
  0
VERTEX
  8
0
  6
CONTINUOUS
 10
6.398920
 20
5.730120
  0
VERTEX
  8
0
  6
CONTINUOUS
 10
6.397160
 20
5.731000
  0
SEQEND
  8
0
  0
POLYLINE
  8
0
  6
CONTINUOUS
 66
     1
 40
0.000000
 41
0.000000
  0
VERTEX
  8
0
  6
CONTINUOUS
 10
6.398920
 20
5.730120
  0
VERTEX
  8
0
  6
CONTINUOUS
 10
6.398920
 20
5.606040
  0
VERTEX
  8
0
  6
CONTINUOUS
 10
2.440680
 20
5.606040
  0
VERTEX
  8
0
  6
CONTINUOUS
 10
2.440680
 20
6.438520
  0
VERTEX
  8
0
  6
CONTINUOUS
 10
2.836240
 20
6.438520
  0
VERTEX
  8
0
  6
CONTINUOUS
 10
2.850760
 20
6.304320
  0
VERTEX
  8
0
  6
CONTINUOUS
 10
2.883320
 20
6.304320
  0
VERTEX
  8
0
  6
CONTINUOUS
 10
2.911920
 20
6.346560
  0
VERTEX
  8
0
  6
CONTINUOUS
 10
2.946240
 20
6.380000
  0
VERTEX
  8
0
  6
CONTINUOUS
 10
2.984960
 20
6.405520
  0
VERTEX
  8
0
  6
CONTINUOUS
 10
3.027640
 20
6.423120
  0
VERTEX
  8
0
  6
CONTINUOUS
 10
3.072960
 20
6.433240
  0
VERTEX
  8
0
  6
CONTINUOUS
 10
3.121360
 20
6.436760
  0
VERTEX
  8
0
  6
CONTINUOUS
 10
3.171080
 20
6.433680
  0
VERTEX
  8
0
  6
CONTINUOUS
 10
3.221680
 20
6.424880
  0
VERTEX
  8
0
  6
CONTINUOUS
 10
3.272720
 20
6.410360
  0
VERTEX
  8
0
  6
CONTINUOUS
 10
3.322880
 20
6.390560
  0
VERTEX
  8
0
  6
CONTINUOUS
 10
3.371720
 20
6.366360
  0
VERTEX
  8
0
  6
CONTINUOUS
 10
3.418800
 20
6.337760
  0
VERTEX
  8
0
  6
CONTINUOUS
 10
3.462800
 20
6.305200
  0
VERTEX
  8
0
  6
CONTINUOUS
 10
3.503280
 20
6.269560
  0
VERTEX
  8
0
  6
CONTINUOUS
 10
3.539360
 20
6.230840
  0
VERTEX
  8
0
  6
CONTINUOUS
 10
3.570600
 20
6.189920
  0
VERTEX
  8
0
  6
CONTINUOUS
 10
3.901480
 20
6.189920
  0
VERTEX
  8
0
  6
CONTINUOUS
 10
3.936680
 20
6.150760
  0
VERTEX
  8
0
  6
CONTINUOUS
 10
3.975400
 20
6.115560
  0
VERTEX
  8
0
  6
CONTINUOUS
 10
4.017200
 20
6.083880
  0
VERTEX
  8
0
  6
CONTINUOUS
 10
4.062520
 20
6.056160
  0
VERTEX
  8
0
  6
CONTINUOUS
 10
4.111360
 20
6.031520
  0
VERTEX
  8
0
  6
CONTINUOUS
 10
4.163280
 20
6.009960
  0
VERTEX
  8
0
  6
CONTINUOUS
 10
4.218280
 20
5.991040
  0
VERTEX
  8
0
  6
CONTINUOUS
 10
4.277240
 20
5.975200
  0
VERTEX
  8
0
  6
CONTINUOUS
 10
4.338840
 20
5.961560
  0
VERTEX
  8
0
  6
CONTINUOUS
 10
4.404400
 20
5.950560
  0
VERTEX
  8
0
  6
CONTINUOUS
 10
4.473040
 20
5.941320
  0
VERTEX
  8
0
  6
CONTINUOUS
 10
4.544760
 20
5.934280
  0
VERTEX
  8
0
  6
CONTINUOUS
 10
4.698760
 20
5.925040
  0
VERTEX
  8
0
  6
CONTINUOUS
 10
4.865960
 20
5.920640
  0
VERTEX
  8
0
  6
CONTINUOUS
 10
5.599440
 20
5.931640
  0
VERTEX
  8
0
  6
CONTINUOUS
 10
5.602520
 20
5.981360
  0
VERTEX
  8
0
  6
CONTINUOUS
 10
5.612200
 20
6.024040
  0
VERTEX
  8
0
  6
CONTINUOUS
 10
5.626720
 20
6.059240
  0
VERTEX
  8
0
  6
CONTINUOUS
 10
5.645640
 20
6.087400
  0
VERTEX
  8
0
  6
CONTINUOUS
 10
5.667640
 20
6.108960
  0
VERTEX
  8
0
  6
CONTINUOUS
 10
5.692720
 20
6.123920
  0
VERTEX
  8
0
  6
CONTINUOUS
 10
5.719120
 20
6.132720
  0
VERTEX
  8
0
  6
CONTINUOUS
 10
5.746840
 20
6.134480
  0
VERTEX
  8
0
  6
CONTINUOUS
 10
5.774560
 20
6.130520
  0
VERTEX
  8
0
  6
CONTINUOUS
 10
5.800960
 20
6.120840
  0
VERTEX
  8
0
  6
CONTINUOUS
 10
5.826040
 20
6.105000
  0
VERTEX
  8
0
  6
CONTINUOUS
 10
5.848480
 20
6.083880
  0
VERTEX
  8
0
  6
CONTINUOUS
 10
5.866960
 20
6.057040
  0
VERTEX
  8
0
  6
CONTINUOUS
 10
5.881480
 20
6.025360
  0
VERTEX
  8
0
  6
CONTINUOUS
 10
5.891160
 20
5.987960
  0
VERTEX
  8
0
  6
CONTINUOUS
 10
5.894240
 20
5.946160
  0
VERTEX
  8
0
  6
CONTINUOUS
 10
6.037240
 20
5.946160
  0
VERTEX
  8
0
  6
CONTINUOUS
 10
6.059680
 20
5.889400
  0
VERTEX
  8
0
  6
CONTINUOUS
 10
6.092680
 20
5.843200
  0
VERTEX
  8
0
  6
CONTINUOUS
 10
6.134480
 20
5.805800
  0
VERTEX
  8
0
  6
CONTINUOUS
 10
6.182880
 20
5.776760
  0
VERTEX
  8
0
  6
CONTINUOUS
 10
6.235240
 20
5.755640
  0
VERTEX
  8
0
  6
CONTINUOUS
 10
6.290240
 20
5.741560
  0
VERTEX
  8
0
  6
CONTINUOUS
 10
6.344800
 20
5.733200
  0
VERTEX
  8
0
  6
CONTINUOUS
 10
6.397160
 20
5.731000
  0
VERTEX
  8
0
  6
CONTINUOUS
 10
6.398920
 20
5.730120
  0
SEQEND
  8
0
  0
TEXT
  8
0
 10
4.143480
 20
5.379440
 40
0.138236
  1
BA 602
 41
1.000000
  7
SN0
 71
     0
 72
     5
 11
4.688568
 21
5.379440
  0
TEXT
  8
0
 10
3.780040
 20
5.188040
 40
0.138236
  1
13/16" x 3-15/16"
 41
1.000000
  7
SN0
 71
     0
 72
     5
 11
5.051240
 21
5.188040
  0
SOLID
  8
0
 62
    15
 10
3.303080
 20
3.822280
 11
3.301320
 21
4.570280
 12
3.303080
 22
3.945920
 13
3.301320
 23
4.693920
  0
POLYLINE
  8
0
  6
CONTINUOUS
 66
     1
 40
0.000000
 41
0.000000
  0
VERTEX
  8
0
  6
CONTINUOUS
 10
3.303080
 20
3.822280
  0
VERTEX
  8
0
  6
CONTINUOUS
 10
3.301320
 20
4.570280
  0
VERTEX
  8
0
  6
CONTINUOUS
 10
3.301320
 20
4.693920
  0
VERTEX
  8
0
  6
CONTINUOUS
 10
3.303080
 20
3.945920
  0
VERTEX
  8
0
  6
CONTINUOUS
 10
3.303080
 20
3.822280
  0
SEQEND
  8
0
  0
SOLID
  8
0
 62
    15
 10
5.056480
 20
4.133800
 11
5.054720
 21
4.881360
 12
5.069240
 22
4.106960
 13
5.067480
 23
4.854520
  0
POLYLINE
  8
0
  6
CONTINUOUS
 66
     1
 40
0.000000
 41
0.000000
  0
VERTEX
  8
0
  6
CONTINUOUS
 10
5.056480
 20
4.133800
  0
VERTEX
  8
0
  6
CONTINUOUS
 10
5.054720
 20
4.881360
  0
VERTEX
  8
0
  6
CONTINUOUS
 10
5.067480
 20
4.854520
  0
VERTEX
  8
0
  6
CONTINUOUS
 10
5.069240
 20
4.106960
  0
VERTEX
  8
0
  6
CONTINUOUS
 10
5.056480
 20
4.133800
  0
SEQEND
  8
0
  0
SOLID
  8
0
 62
    15
 10
5.069240
 20
4.106960
 11
5.067480
 21
4.854520
 12
5.084640
 22
4.082320
 13
5.082880
 23
4.830320
  0
POLYLINE
  8
0
  6
CONTINUOUS
 66
     1
 40
0.000000
 41
0.000000
  0
VERTEX
  8
0
  6
CONTINUOUS
 10
5.069240
 20
4.106960
  0
VERTEX
  8
0
  6
CONTINUOUS
 10
5.067480
 20
4.854520
  0
VERTEX
  8
0
  6
CONTINUOUS
 10
5.082880
 20
4.830320
  0
VERTEX
  8
0
  6
CONTINUOUS
 10
5.084640
 20
4.082320
  0
VERTEX
  8
0
  6
CONTINUOUS
 10
5.069240
 20
4.106960
  0
SEQEND
  8
0
  0
SOLID
  8
0
 62
    15
 10
5.084640
 20
4.082320
 11
5.082880
 21
4.830320
 12
5.102680
 22
4.060320
 13
5.100920
 23
4.807880
  0
POLYLINE
  8
0
  6
CONTINUOUS
 66
     1
 40
0.000000
 41
0.000000
  0
VERTEX
  8
0
  6
CONTINUOUS
 10
5.084640
 20
4.082320
  0
VERTEX
  8
0
  6
CONTINUOUS
 10
5.082880
 20
4.830320
  0
VERTEX
  8
0
  6
CONTINUOUS
 10
5.100920
 20
4.807880
  0
VERTEX
  8
0
  6
CONTINUOUS
 10
5.102680
 20
4.060320
  0
VERTEX
  8
0
  6
CONTINUOUS
 10
5.084640
 20
4.082320
  0
SEQEND
  8
0
  0
SOLID
  8
0
 62
    15
 10
5.102680
 20
4.060320
 11
5.100920
 21
4.807880
 12
5.122480
 22
4.040520
 13
5.120720
 23
4.788080
  0
POLYLINE
  8
0
  6
CONTINUOUS
 66
     1
 40
0.000000
 41
0.000000
  0
VERTEX
  8
0
  6
CONTINUOUS
 10
5.102680
 20
4.060320
  0
VERTEX
  8
0
  6
CONTINUOUS
 10
5.100920
 20
4.807880
  0
VERTEX
  8
0
  6
CONTINUOUS
 10
5.120720
 20
4.788080
  0
VERTEX
  8
0
  6
CONTINUOUS
 10
5.122480
 20
4.040520
  0
VERTEX
  8
0
  6
CONTINUOUS
 10
5.102680
 20
4.060320
  0
SEQEND
  8
0
  0
SOLID
  8
0
 62
    15
 10
5.122480
 20
4.040520
 11
5.120720
 21
4.788080
 12
5.144480
 22
4.022920
 13
5.142720
 23
4.770920
  0
POLYLINE
  8
0
  6
CONTINUOUS
 66
     1
 40
0.000000
 41
0.000000
  0
VERTEX
  8
0
  6
CONTINUOUS
 10
5.122480
 20
4.040520
  0
VERTEX
  8
0
  6
CONTINUOUS
 10
5.120720
 20
4.788080
  0
VERTEX
  8
0
  6
CONTINUOUS
 10
5.142720
 20
4.770920
  0
VERTEX
  8
0
  6
CONTINUOUS
 10
5.144480
 20
4.022920
  0
VERTEX
  8
0
  6
CONTINUOUS
 10
5.122480
 20
4.040520
  0
SEQEND
  8
0
  0
SOLID
  8
0
 62
    15
 10
5.144480
 20
4.022920
 11
5.142720
 21
4.770920
 12
5.167800
 22
4.007520
 13
5.166040
 23
4.755080
  0
POLYLINE
  8
0
  6
CONTINUOUS
 66
     1
 40
0.000000
 41
0.000000
  0
VERTEX
  8
0
  6
CONTINUOUS
 10
5.144480
 20
4.022920
  0
VERTEX
  8
0
  6
CONTINUOUS
 10
5.142720
 20
4.770920
  0
VERTEX
  8
0
  6
CONTINUOUS
 10
5.166040
 20
4.755080
  0
VERTEX
  8
0
  6
CONTINUOUS
 10
5.167800
 20
4.007520
  0
VERTEX
  8
0
  6
CONTINUOUS
 10
5.144480
 20
4.022920
  0
SEQEND
  8
0
  0
SOLID
  8
0
 62
    15
 10
5.167800
 20
4.007520
 11
5.166040
 21
4.755080
 12
5.192880
 22
3.993880
 13
5.191120
 23
4.741880
  0
POLYLINE
  8
0
  6
CONTINUOUS
 66
     1
 40
0.000000
 41
0.000000
  0
VERTEX
  8
0
  6
CONTINUOUS
 10
5.167800
 20
4.007520
  0
VERTEX
  8
0
  6
CONTINUOUS
 10
5.166040
 20
4.755080
  0
VERTEX
  8
0
  6
CONTINUOUS
 10
5.191120
 20
4.741880
  0
VERTEX
  8
0
  6
CONTINUOUS
 10
5.192880
 20
3.993880
  0
VERTEX
  8
0
  6
CONTINUOUS
 10
5.167800
 20
4.007520
  0
SEQEND
  8
0
  0
SOLID
  8
0
 62
    15
 10
5.192880
 20
3.993880
 11
5.191120
 21
4.741880
 12
5.218400
 22
3.982440
 13
5.216640
 23
4.730440
  0
POLYLINE
  8
0
  6
CONTINUOUS
 66
     1
 40
0.000000
 41
0.000000
  0
VERTEX
  8
0
  6
CONTINUOUS
 10
5.192880
 20
3.993880
  0
VERTEX
  8
0
  6
CONTINUOUS
 10
5.191120
 20
4.741880
  0
VERTEX
  8
0
  6
CONTINUOUS
 10
5.216640
 20
4.730440
  0
VERTEX
  8
0
  6
CONTINUOUS
 10
5.218400
 20
3.982440
  0
VERTEX
  8
0
  6
CONTINUOUS
 10
5.192880
 20
3.993880
  0
SEQEND
  8
0
  0
SOLID
  8
0
 62
    15
 10
5.218400
 20
3.982440
 11
5.216640
 21
4.730440
 12
5.245240
 22
3.972760
 13
5.243480
 23
4.720760
  0
POLYLINE
  8
0
  6
CONTINUOUS
 66
     1
 40
0.000000
 41
0.000000
  0
VERTEX
  8
0
  6
CONTINUOUS
 10
5.218400
 20
3.982440
  0
VERTEX
  8
0
  6
CONTINUOUS
 10
5.216640
 20
4.730440
  0
VERTEX
  8
0
  6
CONTINUOUS
 10
5.243480
 20
4.720760
  0
VERTEX
  8
0
  6
CONTINUOUS
 10
5.245240
 20
3.972760
  0
VERTEX
  8
0
  6
CONTINUOUS
 10
5.218400
 20
3.982440
  0
SEQEND
  8
0
  0
SOLID
  8
0
 62
    15
 10
5.245240
 20
3.972760
 11
5.243480
 21
4.720760
 12
5.272520
 22
3.964840
 13
5.270760
 23
4.712840
  0
POLYLINE
  8
0
  6
CONTINUOUS
 66
     1
 40
0.000000
 41
0.000000
  0
VERTEX
  8
0
  6
CONTINUOUS
 10
5.245240
 20
3.972760
  0
VERTEX
  8
0
  6
CONTINUOUS
 10
5.243480
 20
4.720760
  0
VERTEX
  8
0
  6
CONTINUOUS
 10
5.270760
 20
4.712840
  0
VERTEX
  8
0
  6
CONTINUOUS
 10
5.272520
 20
3.964840
  0
VERTEX
  8
0
  6
CONTINUOUS
 10
5.245240
 20
3.972760
  0
SEQEND
  8
0
  0
SOLID
  8
0
 62
    15
 10
5.272520
 20
3.964840
 11
5.270760
 21
4.712840
 12
5.299800
 22
3.958680
 13
5.298040
 23
4.706240
  0
POLYLINE
  8
0
  6
CONTINUOUS
 66
     1
 40
0.000000
 41
0.000000
  0
VERTEX
  8
0
  6
CONTINUOUS
 10
5.272520
 20
3.964840
  0
VERTEX
  8
0
  6
CONTINUOUS
 10
5.270760
 20
4.712840
  0
VERTEX
  8
0
  6
CONTINUOUS
 10
5.298040
 20
4.706240
  0
VERTEX
  8
0
  6
CONTINUOUS
 10
5.299800
 20
3.958680
  0
VERTEX
  8
0
  6
CONTINUOUS
 10
5.272520
 20
3.964840
  0
SEQEND
  8
0
  0
SOLID
  8
0
 62
    15
 10
5.299800
 20
3.958680
 11
5.298040
 21
4.706240
 12
5.354360
 22
3.950760
 13
5.352600
 23
4.698320
  0
POLYLINE
  8
0
  6
CONTINUOUS
 66
     1
 40
0.000000
 41
0.000000
  0
VERTEX
  8
0
  6
CONTINUOUS
 10
5.299800
 20
3.958680
  0
VERTEX
  8
0
  6
CONTINUOUS
 10
5.298040
 20
4.706240
  0
VERTEX
  8
0
  6
CONTINUOUS
 10
5.352600
 20
4.698320
  0
VERTEX
  8
0
  6
CONTINUOUS
 10
5.354360
 20
3.950760
  0
VERTEX
  8
0
  6
CONTINUOUS
 10
5.299800
 20
3.958680
  0
SEQEND
  8
0
  0
SOLID
  8
0
 62
    15
 10
5.354360
 20
3.950760
 11
5.352600
 21
4.698320
 12
5.407160
 22
3.948120
 13
5.405400
 23
4.695680
  0
POLYLINE
  8
0
  6
CONTINUOUS
 66
     1
 40
0.000000
 41
0.000000
  0
VERTEX
  8
0
  6
CONTINUOUS
 10
5.354360
 20
3.950760
  0
VERTEX
  8
0
  6
CONTINUOUS
 10
5.352600
 20
4.698320
  0
VERTEX
  8
0
  6
CONTINUOUS
 10
5.405400
 20
4.695680
  0
VERTEX
  8
0
  6
CONTINUOUS
 10
5.407160
 20
3.948120
  0
VERTEX
  8
0
  6
CONTINUOUS
 10
5.354360
 20
3.950760
  0
SEQEND
  8
0
  0
SOLID
  8
0
 62
    15
 10
5.407160
 20
3.948120
 11
5.405400
 21
4.695680
 12
5.408920
 22
3.947240
 13
5.407160
 23
4.695240
  0
POLYLINE
  8
0
  6
CONTINUOUS
 66
     1
 40
0.000000
 41
0.000000
  0
VERTEX
  8
0
  6
CONTINUOUS
 10
5.407160
 20
3.948120
  0
VERTEX
  8
0
  6
CONTINUOUS
 10
5.405400
 20
4.695680
  0
VERTEX
  8
0
  6
CONTINUOUS
 10
5.407160
 20
4.695240
  0
VERTEX
  8
0
  6
CONTINUOUS
 10
5.408920
 20
3.947240
  0
VERTEX
  8
0
  6
CONTINUOUS
 10
5.407160
 20
3.948120
  0
SEQEND
  8
0
  0
SOLID
  8
0
 62
    15
 10
3.303080
 20
3.945920
 11
3.301320
 21
4.693920
 12
3.304840
 22
3.946800
 13
3.303080
 23
4.694800
  0
POLYLINE
  8
0
  6
CONTINUOUS
 66
     1
 40
0.000000
 41
0.000000
  0
VERTEX
  8
0
  6
CONTINUOUS
 10
3.303080
 20
3.945920
  0
VERTEX
  8
0
  6
CONTINUOUS
 10
3.301320
 20
4.693920
  0
VERTEX
  8
0
  6
CONTINUOUS
 10
3.303080
 20
4.694800
  0
VERTEX
  8
0
  6
CONTINUOUS
 10
3.304840
 20
3.946800
  0
VERTEX
  8
0
  6
CONTINUOUS
 10
3.303080
 20
3.945920
  0
SEQEND
  8
0
  0
SOLID
  8
0
 62
    15
 10
5.046800
 20
4.163280
 11
5.045040
 21
4.910840
 12
5.056480
 22
4.133800
 13
5.054720
 23
4.881360
  0
POLYLINE
  8
0
  6
CONTINUOUS
 66
     1
 40
0.000000
 41
0.000000
  0
VERTEX
  8
0
  6
CONTINUOUS
 10
5.046800
 20
4.163280
  0
VERTEX
  8
0
  6
CONTINUOUS
 10
5.045040
 20
4.910840
  0
VERTEX
  8
0
  6
CONTINUOUS
 10
5.054720
 20
4.881360
  0
VERTEX
  8
0
  6
CONTINUOUS
 10
5.056480
 20
4.133800
  0
VERTEX
  8
0
  6
CONTINUOUS
 10
5.046800
 20
4.163280
  0
SEQEND
  8
0
  0
SOLID
  8
0
 62
    15
 10
3.304840
 20
3.946800
 11
3.303080
 21
4.694800
 12
3.357200
 22
3.949440
 13
3.355440
 23
4.697000
  0
POLYLINE
  8
0
  6
CONTINUOUS
 66
     1
 40
0.000000
 41
0.000000
  0
VERTEX
  8
0
  6
CONTINUOUS
 10
3.304840
 20
3.946800
  0
VERTEX
  8
0
  6
CONTINUOUS
 10
3.303080
 20
4.694800
  0
VERTEX
  8
0
  6
CONTINUOUS
 10
3.355440
 20
4.697000
  0
VERTEX
  8
0
  6
CONTINUOUS
 10
3.357200
 20
3.949440
  0
VERTEX
  8
0
  6
CONTINUOUS
 10
3.304840
 20
3.946800
  0
SEQEND
  8
0
  0
SOLID
  8
0
 62
    15
 10
3.357200
 20
3.949440
 11
3.355440
 21
4.697000
 12
3.412200
 22
3.957360
 13
3.410440
 23
4.705360
  0
POLYLINE
  8
0
  6
CONTINUOUS
 66
     1
 40
0.000000
 41
0.000000
  0
VERTEX
  8
0
  6
CONTINUOUS
 10
3.357200
 20
3.949440
  0
VERTEX
  8
0
  6
CONTINUOUS
 10
3.355440
 20
4.697000
  0
VERTEX
  8
0
  6
CONTINUOUS
 10
3.410440
 20
4.705360
  0
VERTEX
  8
0
  6
CONTINUOUS
 10
3.412200
 20
3.957360
  0
VERTEX
  8
0
  6
CONTINUOUS
 10
3.357200
 20
3.949440
  0
SEQEND
  8
0
  0
SOLID
  8
0
 62
    15
 10
3.412200
 20
3.957360
 11
3.410440
 21
4.705360
 12
3.439480
 22
3.963520
 13
3.437720
 23
4.711520
  0
POLYLINE
  8
0
  6
CONTINUOUS
 66
     1
 40
0.000000
 41
0.000000
  0
VERTEX
  8
0
  6
CONTINUOUS
 10
3.412200
 20
3.957360
  0
VERTEX
  8
0
  6
CONTINUOUS
 10
3.410440
 20
4.705360
  0
VERTEX
  8
0
  6
CONTINUOUS
 10
3.437720
 20
4.711520
  0
VERTEX
  8
0
  6
CONTINUOUS
 10
3.439480
 20
3.963520
  0
VERTEX
  8
0
  6
CONTINUOUS
 10
3.412200
 20
3.957360
  0
SEQEND
  8
0
  0
SOLID
  8
0
 62
    15
 10
3.439480
 20
3.963520
 11
3.437720
 21
4.711520
 12
3.466760
 22
3.971440
 13
3.465000
 23
4.719440
  0
POLYLINE
  8
0
  6
CONTINUOUS
 66
     1
 40
0.000000
 41
0.000000
  0
VERTEX
  8
0
  6
CONTINUOUS
 10
3.439480
 20
3.963520
  0
VERTEX
  8
0
  6
CONTINUOUS
 10
3.437720
 20
4.711520
  0
VERTEX
  8
0
  6
CONTINUOUS
 10
3.465000
 20
4.719440
  0
VERTEX
  8
0
  6
CONTINUOUS
 10
3.466760
 20
3.971440
  0
VERTEX
  8
0
  6
CONTINUOUS
 10
3.439480
 20
3.963520
  0
SEQEND
  8
0
  0
SOLID
  8
0
 62
    15
 10
3.466760
 20
3.971440
 11
3.465000
 21
4.719440
 12
3.493160
 22
3.981120
 13
3.491400
 23
4.729120
  0
POLYLINE
  8
0
  6
CONTINUOUS
 66
     1
 40
0.000000
 41
0.000000
  0
VERTEX
  8
0
  6
CONTINUOUS
 10
3.466760
 20
3.971440
  0
VERTEX
  8
0
  6
CONTINUOUS
 10
3.465000
 20
4.719440
  0
VERTEX
  8
0
  6
CONTINUOUS
 10
3.491400
 20
4.729120
  0
VERTEX
  8
0
  6
CONTINUOUS
 10
3.493160
 20
3.981120
  0
VERTEX
  8
0
  6
CONTINUOUS
 10
3.466760
 20
3.971440
  0
SEQEND
  8
0
  0
SOLID
  8
0
 62
    15
 10
3.493160
 20
3.981120
 11
3.491400
 21
4.729120
 12
3.519120
 22
3.993000
 13
3.517360
 23
4.740560
  0
POLYLINE
  8
0
  6
CONTINUOUS
 66
     1
 40
0.000000
 41
0.000000
  0
VERTEX
  8
0
  6
CONTINUOUS
 10
3.493160
 20
3.981120
  0
VERTEX
  8
0
  6
CONTINUOUS
 10
3.491400
 20
4.729120
  0
VERTEX
  8
0
  6
CONTINUOUS
 10
3.517360
 20
4.740560
  0
VERTEX
  8
0
  6
CONTINUOUS
 10
3.519120
 20
3.993000
  0
VERTEX
  8
0
  6
CONTINUOUS
 10
3.493160
 20
3.981120
  0
SEQEND
  8
0
  0
SOLID
  8
0
 62
    15
 10
3.519120
 20
3.993000
 11
3.517360
 21
4.740560
 12
3.543760
 22
4.006200
 13
3.542000
 23
4.754200
  0
POLYLINE
  8
0
  6
CONTINUOUS
 66
     1
 40
0.000000
 41
0.000000
  0
VERTEX
  8
0
  6
CONTINUOUS
 10
3.519120
 20
3.993000
  0
VERTEX
  8
0
  6
CONTINUOUS
 10
3.517360
 20
4.740560
  0
VERTEX
  8
0
  6
CONTINUOUS
 10
3.542000
 20
4.754200
  0
VERTEX
  8
0
  6
CONTINUOUS
 10
3.543760
 20
4.006200
  0
VERTEX
  8
0
  6
CONTINUOUS
 10
3.519120
 20
3.993000
  0
SEQEND
  8
0
  0
SOLID
  8
0
 62
    15
 10
3.543760
 20
4.006200
 11
3.542000
 21
4.754200
 12
3.567520
 22
4.021600
 13
3.565760
 23
4.769600
  0
POLYLINE
  8
0
  6
CONTINUOUS
 66
     1
 40
0.000000
 41
0.000000
  0
VERTEX
  8
0
  6
CONTINUOUS
 10
3.543760
 20
4.006200
  0
VERTEX
  8
0
  6
CONTINUOUS
 10
3.542000
 20
4.754200
  0
VERTEX
  8
0
  6
CONTINUOUS
 10
3.565760
 20
4.769600
  0
VERTEX
  8
0
  6
CONTINUOUS
 10
3.567520
 20
4.021600
  0
VERTEX
  8
0
  6
CONTINUOUS
 10
3.543760
 20
4.006200
  0
SEQEND
  8
0
  0
SOLID
  8
0
 62
    15
 10
3.567520
 20
4.021600
 11
3.565760
 21
4.769600
 12
3.589080
 22
4.039200
 13
3.587320
 23
4.787200
  0
POLYLINE
  8
0
  6
CONTINUOUS
 66
     1
 40
0.000000
 41
0.000000
  0
VERTEX
  8
0
  6
CONTINUOUS
 10
3.567520
 20
4.021600
  0
VERTEX
  8
0
  6
CONTINUOUS
 10
3.565760
 20
4.769600
  0
VERTEX
  8
0
  6
CONTINUOUS
 10
3.587320
 20
4.787200
  0
VERTEX
  8
0
  6
CONTINUOUS
 10
3.589080
 20
4.039200
  0
VERTEX
  8
0
  6
CONTINUOUS
 10
3.567520
 20
4.021600
  0
SEQEND
  8
0
  0
SOLID
  8
0
 62
    15
 10
3.589080
 20
4.039200
 11
3.587320
 21
4.787200
 12
3.609320
 22
4.059000
 13
3.607560
 23
4.807000
  0
POLYLINE
  8
0
  6
CONTINUOUS
 66
     1
 40
0.000000
 41
0.000000
  0
VERTEX
  8
0
  6
CONTINUOUS
 10
3.589080
 20
4.039200
  0
VERTEX
  8
0
  6
CONTINUOUS
 10
3.587320
 20
4.787200
  0
VERTEX
  8
0
  6
CONTINUOUS
 10
3.607560
 20
4.807000
  0
VERTEX
  8
0
  6
CONTINUOUS
 10
3.609320
 20
4.059000
  0
VERTEX
  8
0
  6
CONTINUOUS
 10
3.589080
 20
4.039200
  0
SEQEND
  8
0
  0
SOLID
  8
0
 62
    15
 10
3.609320
 20
4.059000
 11
3.607560
 21
4.807000
 12
3.626920
 22
4.081000
 13
3.625160
 23
4.829000
  0
POLYLINE
  8
0
  6
CONTINUOUS
 66
     1
 40
0.000000
 41
0.000000
  0
VERTEX
  8
0
  6
CONTINUOUS
 10
3.609320
 20
4.059000
  0
VERTEX
  8
0
  6
CONTINUOUS
 10
3.607560
 20
4.807000
  0
VERTEX
  8
0
  6
CONTINUOUS
 10
3.625160
 20
4.829000
  0
VERTEX
  8
0
  6
CONTINUOUS
 10
3.626920
 20
4.081000
  0
VERTEX
  8
0
  6
CONTINUOUS
 10
3.609320
 20
4.059000
  0
SEQEND
  8
0
  0
SOLID
  8
0
 62
    15
 10
3.626920
 20
4.081000
 11
3.625160
 21
4.829000
 12
3.642320
 22
4.105640
 13
3.640560
 23
4.853200
  0
POLYLINE
  8
0
  6
CONTINUOUS
 66
     1
 40
0.000000
 41
0.000000
  0
VERTEX
  8
0
  6
CONTINUOUS
 10
3.626920
 20
4.081000
  0
VERTEX
  8
0
  6
CONTINUOUS
 10
3.625160
 20
4.829000
  0
VERTEX
  8
0
  6
CONTINUOUS
 10
3.640560
 20
4.853200
  0
VERTEX
  8
0
  6
CONTINUOUS
 10
3.642320
 20
4.105640
  0
VERTEX
  8
0
  6
CONTINUOUS
 10
3.626920
 20
4.081000
  0
SEQEND
  8
0
  0
SOLID
  8
0
 62
    15
 10
3.642320
 20
4.105640
 11
3.640560
 21
4.853200
 12
3.655080
 22
4.132480
 13
3.653320
 23
4.880480
  0
POLYLINE
  8
0
  6
CONTINUOUS
 66
     1
 40
0.000000
 41
0.000000
  0
VERTEX
  8
0
  6
CONTINUOUS
 10
3.642320
 20
4.105640
  0
VERTEX
  8
0
  6
CONTINUOUS
 10
3.640560
 20
4.853200
  0
VERTEX
  8
0
  6
CONTINUOUS
 10
3.653320
 20
4.880480
  0
VERTEX
  8
0
  6
CONTINUOUS
 10
3.655080
 20
4.132480
  0
VERTEX
  8
0
  6
CONTINUOUS
 10
3.642320
 20
4.105640
  0
SEQEND
  8
0
  0
SOLID
  8
0
 62
    15
 10
3.655080
 20
4.132480
 11
3.653320
 21
4.880480
 12
3.665200
 22
4.161960
 13
3.663440
 23
4.909960
  0
POLYLINE
  8
0
  6
CONTINUOUS
 66
     1
 40
0.000000
 41
0.000000
  0
VERTEX
  8
0
  6
CONTINUOUS
 10
3.655080
 20
4.132480
  0
VERTEX
  8
0
  6
CONTINUOUS
 10
3.653320
 20
4.880480
  0
VERTEX
  8
0
  6
CONTINUOUS
 10
3.663440
 20
4.909960
  0
VERTEX
  8
0
  6
CONTINUOUS
 10
3.665200
 20
4.161960
  0
VERTEX
  8
0
  6
CONTINUOUS
 10
3.655080
 20
4.132480
  0
SEQEND
  8
0
  0
SOLID
  8
0
 62
    15
 10
3.665200
 20
4.161960
 11
3.663440
 21
4.909960
 12
5.046800
 22
4.163280
 13
5.045040
 23
4.910840
  0
POLYLINE
  8
0
  6
CONTINUOUS
 66
     1
 40
0.000000
 41
0.000000
  0
VERTEX
  8
0
  6
CONTINUOUS
 10
3.665200
 20
4.161960
  0
VERTEX
  8
0
  6
CONTINUOUS
 10
3.663440
 20
4.909960
  0
VERTEX
  8
0
  6
CONTINUOUS
 10
5.045040
 20
4.910840
  0
VERTEX
  8
0
  6
CONTINUOUS
 10
5.046800
 20
4.163280
  0
VERTEX
  8
0
  6
CONTINUOUS
 10
3.665200
 20
4.161960
  0
SEQEND
  8
0
  0
POLYLINE
  8
0
  6
CONTINUOUS
 66
     1
 40
0.000000
 41
0.000000
  0
VERTEX
  8
0
  6
CONTINUOUS
 10
5.046800
 20
4.163280
  0
VERTEX
  8
0
  6
CONTINUOUS
 10
5.056480
 20
4.133800
  0
VERTEX
  8
0
  6
CONTINUOUS
 10
5.069240
 20
4.106960
  0
VERTEX
  8
0
  6
CONTINUOUS
 10
5.084640
 20
4.082320
  0
VERTEX
  8
0
  6
CONTINUOUS
 10
5.102680
 20
4.060320
  0
VERTEX
  8
0
  6
CONTINUOUS
 10
5.122480
 20
4.040520
  0
VERTEX
  8
0
  6
CONTINUOUS
 10
5.144480
 20
4.022920
  0
VERTEX
  8
0
  6
CONTINUOUS
 10
5.167800
 20
4.007520
  0
VERTEX
  8
0
  6
CONTINUOUS
 10
5.192880
 20
3.993880
  0
VERTEX
  8
0
  6
CONTINUOUS
 10
5.218400
 20
3.982440
  0
VERTEX
  8
0
  6
CONTINUOUS
 10
5.245240
 20
3.972760
  0
VERTEX
  8
0
  6
CONTINUOUS
 10
5.272520
 20
3.964840
  0
VERTEX
  8
0
  6
CONTINUOUS
 10
5.299800
 20
3.958680
  0
VERTEX
  8
0
  6
CONTINUOUS
 10
5.354360
 20
3.950760
  0
VERTEX
  8
0
  6
CONTINUOUS
 10
5.407160
 20
3.948120
  0
VERTEX
  8
0
  6
CONTINUOUS
 10
5.408920
 20
3.947240
  0
VERTEX
  8
0
  6
CONTINUOUS
 10
5.408920
 20
3.823600
  0
VERTEX
  8
0
  6
CONTINUOUS
 10
5.408040
 20
3.822280
  0
VERTEX
  8
0
  6
CONTINUOUS
 10
3.303080
 20
3.822280
  0
VERTEX
  8
0
  6
CONTINUOUS
 10
3.303080
 20
3.945920
  0
VERTEX
  8
0
  6
CONTINUOUS
 10
3.304840
 20
3.946800
  0
VERTEX
  8
0
  6
CONTINUOUS
 10
3.357200
 20
3.949440
  0
VERTEX
  8
0
  6
CONTINUOUS
 10
3.412200
 20
3.957360
  0
VERTEX
  8
0
  6
CONTINUOUS
 10
3.439480
 20
3.963520
  0
VERTEX
  8
0
  6
CONTINUOUS
 10
3.466760
 20
3.971440
  0
VERTEX
  8
0
  6
CONTINUOUS
 10
3.493160
 20
3.981120
  0
VERTEX
  8
0
  6
CONTINUOUS
 10
3.519120
 20
3.993000
  0
VERTEX
  8
0
  6
CONTINUOUS
 10
3.543760
 20
4.006200
  0
VERTEX
  8
0
  6
CONTINUOUS
 10
3.567520
 20
4.021600
  0
VERTEX
  8
0
  6
CONTINUOUS
 10
3.589080
 20
4.039200
  0
VERTEX
  8
0
  6
CONTINUOUS
 10
3.609320
 20
4.059000
  0
VERTEX
  8
0
  6
CONTINUOUS
 10
3.626920
 20
4.081000
  0
VERTEX
  8
0
  6
CONTINUOUS
 10
3.642320
 20
4.105640
  0
VERTEX
  8
0
  6
CONTINUOUS
 10
3.655080
 20
4.132480
  0
VERTEX
  8
0
  6
CONTINUOUS
 10
3.665200
 20
4.161960
  0
VERTEX
  8
0
  6
CONTINUOUS
 10
5.046800
 20
4.163280
  0
SEQEND
  8
0
  0
TEXT
  8
0
 10
3.635720
 20
7.494080
 40
0.138236
  1
BA 602  
 41
1.000000
  7
SN0
 71
     0
 72
     5
 11
4.272831
 21
7.494080
  0
TEXT
  8
0
 10
4.272840
 20
7.494080
 40
0.138236
  1
3/16" x 3-15/16"
 41
1.000000
  7
SN0
 71
     0
 72
     5
 11
5.451681
 21
7.494080
  0
TEXT
  8
0
 10
3.635720
 20
7.302680
 40
0.138236
  1
BA  602B  Cope
 41
1.000000
  7
SN0
 71
     0
 72
     5
 11
4.826651
 21
7.302680
  0
TEXT
  8
0
 10
3.635720
 20
7.110840
 40
0.138236
  1
BA  602C Stick
 41
1.000000
  7
SN0
 71
     0
 72
     5
 11
4.752092
 21
7.110840
  0
SOLID
  8
0
 62
    15
 10
4.302760
 20
8.126800
 11
4.319040
 21
9.101840
 12
4.371400
 22
8.117560
 13
4.387680
 23
9.092600
  0
POLYLINE
  8
0
  6
CONTINUOUS
 66
     1
 40
0.000000
 41
0.000000
  0
VERTEX
  8
0
  6
CONTINUOUS
 10
4.302760
 20
8.126800
  0
VERTEX
  8
0
  6
CONTINUOUS
 10
4.319040
 20
9.101840
  0
VERTEX
  8
0
  6
CONTINUOUS
 10
4.387680
 20
9.092600
  0
VERTEX
  8
0
  6
CONTINUOUS
 10
4.371400
 20
8.117560
  0
VERTEX
  8
0
  6
CONTINUOUS
 10
4.302760
 20
8.126800
  0
SEQEND
  8
0
  0
SOLID
  8
0
 62
    15
 10
2.339040
 20
8.614760
 11
2.355320
 21
9.589800
 12
2.734600
 22
8.614760
 13
2.750880
 23
9.589800
  0
POLYLINE
  8
0
  6
CONTINUOUS
 66
     1
 40
0.000000
 41
0.000000
  0
VERTEX
  8
0
  6
CONTINUOUS
 10
2.339040
 20
8.614760
  0
VERTEX
  8
0
  6
CONTINUOUS
 10
2.355320
 20
9.589800
  0
VERTEX
  8
0
  6
CONTINUOUS
 10
2.750880
 20
9.589800
  0
VERTEX
  8
0
  6
CONTINUOUS
 10
2.734600
 20
8.614760
  0
VERTEX
  8
0
  6
CONTINUOUS
 10
2.339040
 20
8.614760
  0
SEQEND
  8
0
  0
SOLID
  8
0
 62
    15
 10
2.734600
 20
8.614760
 11
2.750880
 21
9.589800
 12
2.749560
 22
8.481000
 13
2.765400
 23
9.456040
  0
POLYLINE
  8
0
  6
CONTINUOUS
 66
     1
 40
0.000000
 41
0.000000
  0
VERTEX
  8
0
  6
CONTINUOUS
 10
2.734600
 20
8.614760
  0
VERTEX
  8
0
  6
CONTINUOUS
 10
2.750880
 20
9.589800
  0
VERTEX
  8
0
  6
CONTINUOUS
 10
2.765400
 20
9.456040
  0
VERTEX
  8
0
  6
CONTINUOUS
 10
2.749560
 20
8.481000
  0
VERTEX
  8
0
  6
CONTINUOUS
 10
2.734600
 20
8.614760
  0
SEQEND
  8
0
  0
SOLID
  8
0
 62
    15
 10
2.749560
 20
8.481000
 11
2.765400
 21
9.456040
 12
2.781680
 22
8.481000
 13
2.797960
 23
9.456040
  0
POLYLINE
  8
0
  6
CONTINUOUS
 66
     1
 40
0.000000
 41
0.000000
  0
VERTEX
  8
0
  6
CONTINUOUS
 10
2.749560
 20
8.481000
  0
VERTEX
  8
0
  6
CONTINUOUS
 10
2.765400
 20
9.456040
  0
VERTEX
  8
0
  6
CONTINUOUS
 10
2.797960
 20
9.456040
  0
VERTEX
  8
0
  6
CONTINUOUS
 10
2.781680
 20
8.481000
  0
VERTEX
  8
0
  6
CONTINUOUS
 10
2.749560
 20
8.481000
  0
SEQEND
  8
0
  0
SOLID
  8
0
 62
    15
 10
2.781680
 20
8.481000
 11
2.797960
 21
9.456040
 12
2.810280
 22
8.522800
 13
2.826560
 23
9.497840
  0
POLYLINE
  8
0
  6
CONTINUOUS
 66
     1
 40
0.000000
 41
0.000000
  0
VERTEX
  8
0
  6
CONTINUOUS
 10
2.781680
 20
8.481000
  0
VERTEX
  8
0
  6
CONTINUOUS
 10
2.797960
 20
9.456040
  0
VERTEX
  8
0
  6
CONTINUOUS
 10
2.826560
 20
9.497840
  0
VERTEX
  8
0
  6
CONTINUOUS
 10
2.810280
 20
8.522800
  0
VERTEX
  8
0
  6
CONTINUOUS
 10
2.781680
 20
8.481000
  0
SEQEND
  8
0
  0
SOLID
  8
0
 62
    15
 10
2.810280
 20
8.522800
 11
2.826560
 21
9.497840
 12
2.844600
 22
8.556680
 13
2.860440
 23
9.531720
  0
POLYLINE
  8
0
  6
CONTINUOUS
 66
     1
 40
0.000000
 41
0.000000
  0
VERTEX
  8
0
  6
CONTINUOUS
 10
2.810280
 20
8.522800
  0
VERTEX
  8
0
  6
CONTINUOUS
 10
2.826560
 20
9.497840
  0
VERTEX
  8
0
  6
CONTINUOUS
 10
2.860440
 20
9.531720
  0
VERTEX
  8
0
  6
CONTINUOUS
 10
2.844600
 20
8.556680
  0
VERTEX
  8
0
  6
CONTINUOUS
 10
2.810280
 20
8.522800
  0
SEQEND
  8
0
  0
SOLID
  8
0
 62
    15
 10
2.844600
 20
8.556680
 11
2.860440
 21
9.531720
 12
2.883320
 22
8.581760
 13
2.899160
 23
9.556800
  0
POLYLINE
  8
0
  6
CONTINUOUS
 66
     1
 40
0.000000
 41
0.000000
  0
VERTEX
  8
0
  6
CONTINUOUS
 10
2.844600
 20
8.556680
  0
VERTEX
  8
0
  6
CONTINUOUS
 10
2.860440
 20
9.531720
  0
VERTEX
  8
0
  6
CONTINUOUS
 10
2.899160
 20
9.556800
  0
VERTEX
  8
0
  6
CONTINUOUS
 10
2.883320
 20
8.581760
  0
VERTEX
  8
0
  6
CONTINUOUS
 10
2.844600
 20
8.556680
  0
SEQEND
  8
0
  0
SOLID
  8
0
 62
    15
 10
2.883320
 20
8.581760
 11
2.899160
 21
9.556800
 12
2.926000
 22
8.599360
 13
2.941840
 23
9.574400
  0
POLYLINE
  8
0
  6
CONTINUOUS
 66
     1
 40
0.000000
 41
0.000000
  0
VERTEX
  8
0
  6
CONTINUOUS
 10
2.883320
 20
8.581760
  0
VERTEX
  8
0
  6
CONTINUOUS
 10
2.899160
 20
9.556800
  0
VERTEX
  8
0
  6
CONTINUOUS
 10
2.941840
 20
9.574400
  0
VERTEX
  8
0
  6
CONTINUOUS
 10
2.926000
 20
8.599360
  0
VERTEX
  8
0
  6
CONTINUOUS
 10
2.883320
 20
8.581760
  0
SEQEND
  8
0
  0
SOLID
  8
0
 62
    15
 10
2.926000
 20
8.599360
 11
2.941840
 21
9.574400
 12
2.971760
 22
8.609920
 13
2.987600
 23
9.584960
  0
POLYLINE
  8
0
  6
CONTINUOUS
 66
     1
 40
0.000000
 41
0.000000
  0
VERTEX
  8
0
  6
CONTINUOUS
 10
2.926000
 20
8.599360
  0
VERTEX
  8
0
  6
CONTINUOUS
 10
2.941840
 20
9.574400
  0
VERTEX
  8
0
  6
CONTINUOUS
 10
2.987600
 20
9.584960
  0
VERTEX
  8
0
  6
CONTINUOUS
 10
2.971760
 20
8.609920
  0
VERTEX
  8
0
  6
CONTINUOUS
 10
2.926000
 20
8.599360
  0
SEQEND
  8
0
  0
SOLID
  8
0
 62
    15
 10
2.971760
 20
8.609920
 11
2.987600
 21
9.584960
 12
3.019720
 22
8.613000
 13
3.036000
 23
9.588040
  0
POLYLINE
  8
0
  6
CONTINUOUS
 66
     1
 40
0.000000
 41
0.000000
  0
VERTEX
  8
0
  6
CONTINUOUS
 10
2.971760
 20
8.609920
  0
VERTEX
  8
0
  6
CONTINUOUS
 10
2.987600
 20
9.584960
  0
VERTEX
  8
0
  6
CONTINUOUS
 10
3.036000
 20
9.588040
  0
VERTEX
  8
0
  6
CONTINUOUS
 10
3.019720
 20
8.613000
  0
VERTEX
  8
0
  6
CONTINUOUS
 10
2.971760
 20
8.609920
  0
SEQEND
  8
0
  0
SOLID
  8
0
 62
    15
 10
3.019720
 20
8.613000
 11
3.036000
 21
9.588040
 12
3.069440
 22
8.610360
 13
3.085720
 23
9.585400
  0
POLYLINE
  8
0
  6
CONTINUOUS
 66
     1
 40
0.000000
 41
0.000000
  0
VERTEX
  8
0
  6
CONTINUOUS
 10
3.019720
 20
8.613000
  0
VERTEX
  8
0
  6
CONTINUOUS
 10
3.036000
 20
9.588040
  0
VERTEX
  8
0
  6
CONTINUOUS
 10
3.085720
 20
9.585400
  0
VERTEX
  8
0
  6
CONTINUOUS
 10
3.069440
 20
8.610360
  0
VERTEX
  8
0
  6
CONTINUOUS
 10
3.019720
 20
8.613000
  0
SEQEND
  8
0
  0
SOLID
  8
0
 62
    15
 10
3.069440
 20
8.610360
 11
3.085720
 21
9.585400
 12
3.120480
 22
8.601120
 13
3.136320
 23
9.576160
  0
POLYLINE
  8
0
  6
CONTINUOUS
 66
     1
 40
0.000000
 41
0.000000
  0
VERTEX
  8
0
  6
CONTINUOUS
 10
3.069440
 20
8.610360
  0
VERTEX
  8
0
  6
CONTINUOUS
 10
3.085720
 20
9.585400
  0
VERTEX
  8
0
  6
CONTINUOUS
 10
3.136320
 20
9.576160
  0
VERTEX
  8
0
  6
CONTINUOUS
 10
3.120480
 20
8.601120
  0
VERTEX
  8
0
  6
CONTINUOUS
 10
3.069440
 20
8.610360
  0
SEQEND
  8
0
  0
SOLID
  8
0
 62
    15
 10
3.120480
 20
8.601120
 11
3.136320
 21
9.576160
 12
3.171080
 22
8.586600
 13
3.187360
 23
9.561640
  0
POLYLINE
  8
0
  6
CONTINUOUS
 66
     1
 40
0.000000
 41
0.000000
  0
VERTEX
  8
0
  6
CONTINUOUS
 10
3.120480
 20
8.601120
  0
VERTEX
  8
0
  6
CONTINUOUS
 10
3.136320
 20
9.576160
  0
VERTEX
  8
0
  6
CONTINUOUS
 10
3.187360
 20
9.561640
  0
VERTEX
  8
0
  6
CONTINUOUS
 10
3.171080
 20
8.586600
  0
VERTEX
  8
0
  6
CONTINUOUS
 10
3.120480
 20
8.601120
  0
SEQEND
  8
0
  0
SOLID
  8
0
 62
    15
 10
3.171080
 20
8.586600
 11
3.187360
 21
9.561640
 12
3.221240
 22
8.566800
 13
3.237520
 23
9.541840
  0
POLYLINE
  8
0
  6
CONTINUOUS
 66
     1
 40
0.000000
 41
0.000000
  0
VERTEX
  8
0
  6
CONTINUOUS
 10
3.171080
 20
8.586600
  0
VERTEX
  8
0
  6
CONTINUOUS
 10
3.187360
 20
9.561640
  0
VERTEX
  8
0
  6
CONTINUOUS
 10
3.237520
 20
9.541840
  0
VERTEX
  8
0
  6
CONTINUOUS
 10
3.221240
 20
8.566800
  0
VERTEX
  8
0
  6
CONTINUOUS
 10
3.171080
 20
8.586600
  0
SEQEND
  8
0
  0
SOLID
  8
0
 62
    15
 10
3.221240
 20
8.566800
 11
3.237520
 21
9.541840
 12
3.270520
 22
8.542600
 13
3.286360
 23
9.517640
  0
POLYLINE
  8
0
  6
CONTINUOUS
 66
     1
 40
0.000000
 41
0.000000
  0
VERTEX
  8
0
  6
CONTINUOUS
 10
3.221240
 20
8.566800
  0
VERTEX
  8
0
  6
CONTINUOUS
 10
3.237520
 20
9.541840
  0
VERTEX
  8
0
  6
CONTINUOUS
 10
3.286360
 20
9.517640
  0
VERTEX
  8
0
  6
CONTINUOUS
 10
3.270520
 20
8.542600
  0
VERTEX
  8
0
  6
CONTINUOUS
 10
3.221240
 20
8.566800
  0
SEQEND
  8
0
  0
SOLID
  8
0
 62
    15
 10
3.270520
 20
8.542600
 11
3.286360
 21
9.517640
 12
3.317160
 22
8.514000
 13
3.333440
 23
9.489040
  0
POLYLINE
  8
0
  6
CONTINUOUS
 66
     1
 40
0.000000
 41
0.000000
  0
VERTEX
  8
0
  6
CONTINUOUS
 10
3.270520
 20
8.542600
  0
VERTEX
  8
0
  6
CONTINUOUS
 10
3.286360
 20
9.517640
  0
VERTEX
  8
0
  6
CONTINUOUS
 10
3.333440
 20
9.489040
  0
VERTEX
  8
0
  6
CONTINUOUS
 10
3.317160
 20
8.514000
  0
VERTEX
  8
0
  6
CONTINUOUS
 10
3.270520
 20
8.542600
  0
SEQEND
  8
0
  0
SOLID
  8
0
 62
    15
 10
3.317160
 20
8.514000
 11
3.333440
 21
9.489040
 12
3.361160
 22
8.481880
 13
3.377440
 23
9.456920
  0
POLYLINE
  8
0
  6
CONTINUOUS
 66
     1
 40
0.000000
 41
0.000000
  0
VERTEX
  8
0
  6
CONTINUOUS
 10
3.317160
 20
8.514000
  0
VERTEX
  8
0
  6
CONTINUOUS
 10
3.333440
 20
9.489040
  0
VERTEX
  8
0
  6
CONTINUOUS
 10
3.377440
 20
9.456920
  0
VERTEX
  8
0
  6
CONTINUOUS
 10
3.361160
 20
8.481880
  0
VERTEX
  8
0
  6
CONTINUOUS
 10
3.317160
 20
8.514000
  0
SEQEND
  8
0
  0
SOLID
  8
0
 62
    15
 10
3.361160
 20
8.481880
 11
3.377440
 21
9.456920
 12
3.401640
 22
8.445800
 13
3.417920
 23
9.420840
  0
POLYLINE
  8
0
  6
CONTINUOUS
 66
     1
 40
0.000000
 41
0.000000
  0
VERTEX
  8
0
  6
CONTINUOUS
 10
3.361160
 20
8.481880
  0
VERTEX
  8
0
  6
CONTINUOUS
 10
3.377440
 20
9.456920
  0
VERTEX
  8
0
  6
CONTINUOUS
 10
3.417920
 20
9.420840
  0
VERTEX
  8
0
  6
CONTINUOUS
 10
3.401640
 20
8.445800
  0
VERTEX
  8
0
  6
CONTINUOUS
 10
3.361160
 20
8.481880
  0
SEQEND
  8
0
  0
SOLID
  8
0
 62
    15
 10
3.401640
 20
8.445800
 11
3.417920
 21
9.420840
 12
3.437720
 22
8.407520
 13
3.454000
 23
9.382560
  0
POLYLINE
  8
0
  6
CONTINUOUS
 66
     1
 40
0.000000
 41
0.000000
  0
VERTEX
  8
0
  6
CONTINUOUS
 10
3.401640
 20
8.445800
  0
VERTEX
  8
0
  6
CONTINUOUS
 10
3.417920
 20
9.420840
  0
VERTEX
  8
0
  6
CONTINUOUS
 10
3.454000
 20
9.382560
  0
VERTEX
  8
0
  6
CONTINUOUS
 10
3.437720
 20
8.407520
  0
VERTEX
  8
0
  6
CONTINUOUS
 10
3.401640
 20
8.445800
  0
SEQEND
  8
0
  0
SOLID
  8
0
 62
    15
 10
3.437720
 20
8.407520
 11
3.454000
 21
9.382560
 12
3.468960
 22
8.366160
 13
3.484800
 23
9.341200
  0
POLYLINE
  8
0
  6
CONTINUOUS
 66
     1
 40
0.000000
 41
0.000000
  0
VERTEX
  8
0
  6
CONTINUOUS
 10
3.437720
 20
8.407520
  0
VERTEX
  8
0
  6
CONTINUOUS
 10
3.454000
 20
9.382560
  0
VERTEX
  8
0
  6
CONTINUOUS
 10
3.484800
 20
9.341200
  0
VERTEX
  8
0
  6
CONTINUOUS
 10
3.468960
 20
8.366160
  0
VERTEX
  8
0
  6
CONTINUOUS
 10
3.437720
 20
8.407520
  0
SEQEND
  8
0
  0
SOLID
  8
0
 62
    15
 10
3.468960
 20
8.366160
 11
3.484800
 21
9.341200
 12
3.799840
 22
8.366160
 13
3.816120
 23
9.341200
  0
POLYLINE
  8
0
  6
CONTINUOUS
 66
     1
 40
0.000000
 41
0.000000
  0
VERTEX
  8
0
  6
CONTINUOUS
 10
3.468960
 20
8.366160
  0
VERTEX
  8
0
  6
CONTINUOUS
 10
3.484800
 20
9.341200
  0
VERTEX
  8
0
  6
CONTINUOUS
 10
3.816120
 20
9.341200
  0
VERTEX
  8
0
  6
CONTINUOUS
 10
3.799840
 20
8.366160
  0
VERTEX
  8
0
  6
CONTINUOUS
 10
3.468960
 20
8.366160
  0
SEQEND
  8
0
  0
SOLID
  8
0
 62
    15
 10
3.799840
 20
8.366160
 11
3.816120
 21
9.341200
 12
3.835040
 22
8.327000
 13
3.851320
 23
9.302040
  0
POLYLINE
  8
0
  6
CONTINUOUS
 66
     1
 40
0.000000
 41
0.000000
  0
VERTEX
  8
0
  6
CONTINUOUS
 10
3.799840
 20
8.366160
  0
VERTEX
  8
0
  6
CONTINUOUS
 10
3.816120
 20
9.341200
  0
VERTEX
  8
0
  6
CONTINUOUS
 10
3.851320
 20
9.302040
  0
VERTEX
  8
0
  6
CONTINUOUS
 10
3.835040
 20
8.327000
  0
VERTEX
  8
0
  6
CONTINUOUS
 10
3.799840
 20
8.366160
  0
SEQEND
  8
0
  0
SOLID
  8
0
 62
    15
 10
3.835040
 20
8.327000
 11
3.851320
 21
9.302040
 12
3.873760
 22
8.291800
 13
3.890040
 23
9.266840
  0
POLYLINE
  8
0
  6
CONTINUOUS
 66
     1
 40
0.000000
 41
0.000000
  0
VERTEX
  8
0
  6
CONTINUOUS
 10
3.835040
 20
8.327000
  0
VERTEX
  8
0
  6
CONTINUOUS
 10
3.851320
 20
9.302040
  0
VERTEX
  8
0
  6
CONTINUOUS
 10
3.890040
 20
9.266840
  0
VERTEX
  8
0
  6
CONTINUOUS
 10
3.873760
 20
8.291800
  0
VERTEX
  8
0
  6
CONTINUOUS
 10
3.835040
 20
8.327000
  0
SEQEND
  8
0
  0
SOLID
  8
0
 62
    15
 10
3.873760
 20
8.291800
 11
3.890040
 21
9.266840
 12
3.915560
 22
8.260120
 13
3.931840
 23
9.235160
  0
POLYLINE
  8
0
  6
CONTINUOUS
 66
     1
 40
0.000000
 41
0.000000
  0
VERTEX
  8
0
  6
CONTINUOUS
 10
3.873760
 20
8.291800
  0
VERTEX
  8
0
  6
CONTINUOUS
 10
3.890040
 20
9.266840
  0
VERTEX
  8
0
  6
CONTINUOUS
 10
3.931840
 20
9.235160
  0
VERTEX
  8
0
  6
CONTINUOUS
 10
3.915560
 20
8.260120
  0
VERTEX
  8
0
  6
CONTINUOUS
 10
3.873760
 20
8.291800
  0
SEQEND
  8
0
  0
SOLID
  8
0
 62
    15
 10
3.915560
 20
8.260120
 11
3.931840
 21
9.235160
 12
3.960880
 22
8.232400
 13
3.977160
 23
9.207440
  0
POLYLINE
  8
0
  6
CONTINUOUS
 66
     1
 40
0.000000
 41
0.000000
  0
VERTEX
  8
0
  6
CONTINUOUS
 10
3.915560
 20
8.260120
  0
VERTEX
  8
0
  6
CONTINUOUS
 10
3.931840
 20
9.235160
  0
VERTEX
  8
0
  6
CONTINUOUS
 10
3.977160
 20
9.207440
  0
VERTEX
  8
0
  6
CONTINUOUS
 10
3.960880
 20
8.232400
  0
VERTEX
  8
0
  6
CONTINUOUS
 10
3.915560
 20
8.260120
  0
SEQEND
  8
0
  0
SOLID
  8
0
 62
    15
 10
3.960880
 20
8.232400
 11
3.977160
 21
9.207440
 12
4.009720
 22
8.207760
 13
4.025560
 23
9.182800
  0
POLYLINE
  8
0
  6
CONTINUOUS
 66
     1
 40
0.000000
 41
0.000000
  0
VERTEX
  8
0
  6
CONTINUOUS
 10
3.960880
 20
8.232400
  0
VERTEX
  8
0
  6
CONTINUOUS
 10
3.977160
 20
9.207440
  0
VERTEX
  8
0
  6
CONTINUOUS
 10
4.025560
 20
9.182800
  0
VERTEX
  8
0
  6
CONTINUOUS
 10
4.009720
 20
8.207760
  0
VERTEX
  8
0
  6
CONTINUOUS
 10
3.960880
 20
8.232400
  0
SEQEND
  8
0
  0
SOLID
  8
0
 62
    15
 10
4.009720
 20
8.207760
 11
4.025560
 21
9.182800
 12
4.061640
 22
8.186200
 13
4.077920
 23
9.161240
  0
POLYLINE
  8
0
  6
CONTINUOUS
 66
     1
 40
0.000000
 41
0.000000
  0
VERTEX
  8
0
  6
CONTINUOUS
 10
4.009720
 20
8.207760
  0
VERTEX
  8
0
  6
CONTINUOUS
 10
4.025560
 20
9.182800
  0
VERTEX
  8
0
  6
CONTINUOUS
 10
4.077920
 20
9.161240
  0
VERTEX
  8
0
  6
CONTINUOUS
 10
4.061640
 20
8.186200
  0
VERTEX
  8
0
  6
CONTINUOUS
 10
4.009720
 20
8.207760
  0
SEQEND
  8
0
  0
SOLID
  8
0
 62
    15
 10
4.061640
 20
8.186200
 11
4.077920
 21
9.161240
 12
4.117080
 22
8.167280
 13
4.132920
 23
9.142320
  0
POLYLINE
  8
0
  6
CONTINUOUS
 66
     1
 40
0.000000
 41
0.000000
  0
VERTEX
  8
0
  6
CONTINUOUS
 10
4.061640
 20
8.186200
  0
VERTEX
  8
0
  6
CONTINUOUS
 10
4.077920
 20
9.161240
  0
VERTEX
  8
0
  6
CONTINUOUS
 10
4.132920
 20
9.142320
  0
VERTEX
  8
0
  6
CONTINUOUS
 10
4.117080
 20
8.167280
  0
VERTEX
  8
0
  6
CONTINUOUS
 10
4.061640
 20
8.186200
  0
SEQEND
  8
0
  0
SOLID
  8
0
 62
    15
 10
4.117080
 20
8.167280
 11
4.132920
 21
9.142320
 12
4.175600
 22
8.151440
 13
4.191440
 23
9.126480
  0
POLYLINE
  8
0
  6
CONTINUOUS
 66
     1
 40
0.000000
 41
0.000000
  0
VERTEX
  8
0
  6
CONTINUOUS
 10
4.117080
 20
8.167280
  0
VERTEX
  8
0
  6
CONTINUOUS
 10
4.132920
 20
9.142320
  0
VERTEX
  8
0
  6
CONTINUOUS
 10
4.191440
 20
9.126480
  0
VERTEX
  8
0
  6
CONTINUOUS
 10
4.175600
 20
8.151440
  0
VERTEX
  8
0
  6
CONTINUOUS
 10
4.117080
 20
8.167280
  0
SEQEND
  8
0
  0
SOLID
  8
0
 62
    15
 10
4.175600
 20
8.151440
 11
4.191440
 21
9.126480
 12
4.237640
 22
8.137800
 13
4.253480
 23
9.112840
  0
POLYLINE
  8
0
  6
CONTINUOUS
 66
     1
 40
0.000000
 41
0.000000
  0
VERTEX
  8
0
  6
CONTINUOUS
 10
4.175600
 20
8.151440
  0
VERTEX
  8
0
  6
CONTINUOUS
 10
4.191440
 20
9.126480
  0
VERTEX
  8
0
  6
CONTINUOUS
 10
4.253480
 20
9.112840
  0
VERTEX
  8
0
  6
CONTINUOUS
 10
4.237640
 20
8.137800
  0
VERTEX
  8
0
  6
CONTINUOUS
 10
4.175600
 20
8.151440
  0
SEQEND
  8
0
  0
SOLID
  8
0
 62
    15
 10
4.237640
 20
8.137800
 11
4.253480
 21
9.112840
 12
4.302760
 22
8.126800
 13
4.319040
 23
9.101840
  0
POLYLINE
  8
0
  6
CONTINUOUS
 66
     1
 40
0.000000
 41
0.000000
  0
VERTEX
  8
0
  6
CONTINUOUS
 10
4.237640
 20
8.137800
  0
VERTEX
  8
0
  6
CONTINUOUS
 10
4.253480
 20
9.112840
  0
VERTEX
  8
0
  6
CONTINUOUS
 10
4.319040
 20
9.101840
  0
VERTEX
  8
0
  6
CONTINUOUS
 10
4.302760
 20
8.126800
  0
VERTEX
  8
0
  6
CONTINUOUS
 10
4.237640
 20
8.137800
  0
SEQEND
  8
0
  0
SOLID
  8
0
 62
    15
 10
6.297280
 20
7.906360
 11
6.313560
 21
8.881400
 12
6.297280
 22
7.782720
 13
6.313560
 23
8.757760
  0
POLYLINE
  8
0
  6
CONTINUOUS
 66
     1
 40
0.000000
 41
0.000000
  0
VERTEX
  8
0
  6
CONTINUOUS
 10
6.297280
 20
7.906360
  0
VERTEX
  8
0
  6
CONTINUOUS
 10
6.313560
 20
8.881400
  0
VERTEX
  8
0
  6
CONTINUOUS
 10
6.313560
 20
8.757760
  0
VERTEX
  8
0
  6
CONTINUOUS
 10
6.297280
 20
7.782720
  0
VERTEX
  8
0
  6
CONTINUOUS
 10
6.297280
 20
7.906360
  0
SEQEND
  8
0
  0
SOLID
  8
0
 62
    15
 10
4.371400
 20
8.117560
 11
4.387680
 21
9.092600
 12
4.443560
 22
8.110520
 13
4.459400
 23
9.085560
  0
POLYLINE
  8
0
  6
CONTINUOUS
 66
     1
 40
0.000000
 41
0.000000
  0
VERTEX
  8
0
  6
CONTINUOUS
 10
4.371400
 20
8.117560
  0
VERTEX
  8
0
  6
CONTINUOUS
 10
4.387680
 20
9.092600
  0
VERTEX
  8
0
  6
CONTINUOUS
 10
4.459400
 20
9.085560
  0
VERTEX
  8
0
  6
CONTINUOUS
 10
4.443560
 20
8.110520
  0
VERTEX
  8
0
  6
CONTINUOUS
 10
4.371400
 20
8.117560
  0
SEQEND
  8
0
  0
SOLID
  8
0
 62
    15
 10
4.443560
 20
8.110520
 11
4.459400
 21
9.085560
 12
4.597120
 22
8.101280
 13
4.613400
 23
9.076320
  0
POLYLINE
  8
0
  6
CONTINUOUS
 66
     1
 40
0.000000
 41
0.000000
  0
VERTEX
  8
0
  6
CONTINUOUS
 10
4.443560
 20
8.110520
  0
VERTEX
  8
0
  6
CONTINUOUS
 10
4.459400
 20
9.085560
  0
VERTEX
  8
0
  6
CONTINUOUS
 10
4.613400
 20
9.076320
  0
VERTEX
  8
0
  6
CONTINUOUS
 10
4.597120
 20
8.101280
  0
VERTEX
  8
0
  6
CONTINUOUS
 10
4.443560
 20
8.110520
  0
SEQEND
  8
0
  0
SOLID
  8
0
 62
    15
 10
4.597120
 20
8.101280
 11
4.613400
 21
9.076320
 12
4.764320
 22
8.096880
 13
4.780160
 23
9.071920
  0
POLYLINE
  8
0
  6
CONTINUOUS
 66
     1
 40
0.000000
 41
0.000000
  0
VERTEX
  8
0
  6
CONTINUOUS
 10
4.597120
 20
8.101280
  0
VERTEX
  8
0
  6
CONTINUOUS
 10
4.613400
 20
9.076320
  0
VERTEX
  8
0
  6
CONTINUOUS
 10
4.780160
 20
9.071920
  0
VERTEX
  8
0
  6
CONTINUOUS
 10
4.764320
 20
8.096880
  0
VERTEX
  8
0
  6
CONTINUOUS
 10
4.597120
 20
8.101280
  0
SEQEND
  8
0
  0
SOLID
  8
0
 62
    15
 10
4.764320
 20
8.096880
 11
4.780160
 21
9.071920
 12
5.497800
 22
8.107880
 13
5.514080
 23
9.082920
  0
POLYLINE
  8
0
  6
CONTINUOUS
 66
     1
 40
0.000000
 41
0.000000
  0
VERTEX
  8
0
  6
CONTINUOUS
 10
4.764320
 20
8.096880
  0
VERTEX
  8
0
  6
CONTINUOUS
 10
4.780160
 20
9.071920
  0
VERTEX
  8
0
  6
CONTINUOUS
 10
5.514080
 20
9.082920
  0
VERTEX
  8
0
  6
CONTINUOUS
 10
5.497800
 20
8.107880
  0
VERTEX
  8
0
  6
CONTINUOUS
 10
4.764320
 20
8.096880
  0
SEQEND
  8
0
  0
SOLID
  8
0
 62
    15
 10
5.497800
 20
8.107880
 11
5.514080
 21
9.082920
 12
5.501320
 22
8.157600
 13
5.517160
 23
9.132640
  0
POLYLINE
  8
0
  6
CONTINUOUS
 66
     1
 40
0.000000
 41
0.000000
  0
VERTEX
  8
0
  6
CONTINUOUS
 10
5.497800
 20
8.107880
  0
VERTEX
  8
0
  6
CONTINUOUS
 10
5.514080
 20
9.082920
  0
VERTEX
  8
0
  6
CONTINUOUS
 10
5.517160
 20
9.132640
  0
VERTEX
  8
0
  6
CONTINUOUS
 10
5.501320
 20
8.157600
  0
VERTEX
  8
0
  6
CONTINUOUS
 10
5.497800
 20
8.107880
  0
SEQEND
  8
0
  0
SOLID
  8
0
 62
    15
 10
5.501320
 20
8.157600
 11
5.517160
 21
9.132640
 12
5.510560
 22
8.200280
 13
5.526840
 23
9.175320
  0
POLYLINE
  8
0
  6
CONTINUOUS
 66
     1
 40
0.000000
 41
0.000000
  0
VERTEX
  8
0
  6
CONTINUOUS
 10
5.501320
 20
8.157600
  0
VERTEX
  8
0
  6
CONTINUOUS
 10
5.517160
 20
9.132640
  0
VERTEX
  8
0
  6
CONTINUOUS
 10
5.526840
 20
9.175320
  0
VERTEX
  8
0
  6
CONTINUOUS
 10
5.510560
 20
8.200280
  0
VERTEX
  8
0
  6
CONTINUOUS
 10
5.501320
 20
8.157600
  0
SEQEND
  8
0
  0
SOLID
  8
0
 62
    15
 10
5.510560
 20
8.200280
 11
5.526840
 21
9.175320
 12
5.525080
 22
8.235480
 13
5.541360
 23
9.210520
  0
POLYLINE
  8
0
  6
CONTINUOUS
 66
     1
 40
0.000000
 41
0.000000
  0
VERTEX
  8
0
  6
CONTINUOUS
 10
5.510560
 20
8.200280
  0
VERTEX
  8
0
  6
CONTINUOUS
 10
5.526840
 20
9.175320
  0
VERTEX
  8
0
  6
CONTINUOUS
 10
5.541360
 20
9.210520
  0
VERTEX
  8
0
  6
CONTINUOUS
 10
5.525080
 20
8.235480
  0
VERTEX
  8
0
  6
CONTINUOUS
 10
5.510560
 20
8.200280
  0
SEQEND
  8
0
  0
SOLID
  8
0
 62
    15
 10
5.525080
 20
8.235480
 11
5.541360
 21
9.210520
 12
5.544000
 22
8.263640
 13
5.560280
 23
9.238680
  0
POLYLINE
  8
0
  6
CONTINUOUS
 66
     1
 40
0.000000
 41
0.000000
  0
VERTEX
  8
0
  6
CONTINUOUS
 10
5.525080
 20
8.235480
  0
VERTEX
  8
0
  6
CONTINUOUS
 10
5.541360
 20
9.210520
  0
VERTEX
  8
0
  6
CONTINUOUS
 10
5.560280
 20
9.238680
  0
VERTEX
  8
0
  6
CONTINUOUS
 10
5.544000
 20
8.263640
  0
VERTEX
  8
0
  6
CONTINUOUS
 10
5.525080
 20
8.235480
  0
SEQEND
  8
0
  0
SOLID
  8
0
 62
    15
 10
5.544000
 20
8.263640
 11
5.560280
 21
9.238680
 12
5.566440
 22
8.285200
 13
5.582280
 23
9.260240
  0
POLYLINE
  8
0
  6
CONTINUOUS
 66
     1
 40
0.000000
 41
0.000000
  0
VERTEX
  8
0
  6
CONTINUOUS
 10
5.544000
 20
8.263640
  0
VERTEX
  8
0
  6
CONTINUOUS
 10
5.560280
 20
9.238680
  0
VERTEX
  8
0
  6
CONTINUOUS
 10
5.582280
 20
9.260240
  0
VERTEX
  8
0
  6
CONTINUOUS
 10
5.566440
 20
8.285200
  0
VERTEX
  8
0
  6
CONTINUOUS
 10
5.544000
 20
8.263640
  0
SEQEND
  8
0
  0
SOLID
  8
0
 62
    15
 10
5.566440
 20
8.285200
 11
5.582280
 21
9.260240
 12
5.591080
 22
8.300160
 13
5.607360
 23
9.275200
  0
POLYLINE
  8
0
  6
CONTINUOUS
 66
     1
 40
0.000000
 41
0.000000
  0
VERTEX
  8
0
  6
CONTINUOUS
 10
5.566440
 20
8.285200
  0
VERTEX
  8
0
  6
CONTINUOUS
 10
5.582280
 20
9.260240
  0
VERTEX
  8
0
  6
CONTINUOUS
 10
5.607360
 20
9.275200
  0
VERTEX
  8
0
  6
CONTINUOUS
 10
5.591080
 20
8.300160
  0
VERTEX
  8
0
  6
CONTINUOUS
 10
5.566440
 20
8.285200
  0
SEQEND
  8
0
  0
SOLID
  8
0
 62
    15
 10
5.591080
 20
8.300160
 11
5.607360
 21
9.275200
 12
5.617920
 22
8.308960
 13
5.633760
 23
9.284000
  0
POLYLINE
  8
0
  6
CONTINUOUS
 66
     1
 40
0.000000
 41
0.000000
  0
VERTEX
  8
0
  6
CONTINUOUS
 10
5.591080
 20
8.300160
  0
VERTEX
  8
0
  6
CONTINUOUS
 10
5.607360
 20
9.275200
  0
VERTEX
  8
0
  6
CONTINUOUS
 10
5.633760
 20
9.284000
  0
VERTEX
  8
0
  6
CONTINUOUS
 10
5.617920
 20
8.308960
  0
VERTEX
  8
0
  6
CONTINUOUS
 10
5.591080
 20
8.300160
  0
SEQEND
  8
0
  0
SOLID
  8
0
 62
    15
 10
5.617920
 20
8.308960
 11
5.633760
 21
9.284000
 12
5.645200
 22
8.311160
 13
5.661480
 23
9.286200
  0
POLYLINE
  8
0
  6
CONTINUOUS
 66
     1
 40
0.000000
 41
0.000000
  0
VERTEX
  8
0
  6
CONTINUOUS
 10
5.617920
 20
8.308960
  0
VERTEX
  8
0
  6
CONTINUOUS
 10
5.633760
 20
9.284000
  0
VERTEX
  8
0
  6
CONTINUOUS
 10
5.661480
 20
9.286200
  0
VERTEX
  8
0
  6
CONTINUOUS
 10
5.645200
 20
8.311160
  0
VERTEX
  8
0
  6
CONTINUOUS
 10
5.617920
 20
8.308960
  0
SEQEND
  8
0
  0
SOLID
  8
0
 62
    15
 10
5.645200
 20
8.311160
 11
5.661480
 21
9.286200
 12
5.672920
 22
8.307200
 13
5.688760
 23
9.282240
  0
POLYLINE
  8
0
  6
CONTINUOUS
 66
     1
 40
0.000000
 41
0.000000
  0
VERTEX
  8
0
  6
CONTINUOUS
 10
5.645200
 20
8.311160
  0
VERTEX
  8
0
  6
CONTINUOUS
 10
5.661480
 20
9.286200
  0
VERTEX
  8
0
  6
CONTINUOUS
 10
5.688760
 20
9.282240
  0
VERTEX
  8
0
  6
CONTINUOUS
 10
5.672920
 20
8.307200
  0
VERTEX
  8
0
  6
CONTINUOUS
 10
5.645200
 20
8.311160
  0
SEQEND
  8
0
  0
SOLID
  8
0
 62
    15
 10
5.672920
 20
8.307200
 11
5.688760
 21
9.282240
 12
5.699320
 22
8.297080
 13
5.715600
 23
9.272120
  0
POLYLINE
  8
0
  6
CONTINUOUS
 66
     1
 40
0.000000
 41
0.000000
  0
VERTEX
  8
0
  6
CONTINUOUS
 10
5.672920
 20
8.307200
  0
VERTEX
  8
0
  6
CONTINUOUS
 10
5.688760
 20
9.282240
  0
VERTEX
  8
0
  6
CONTINUOUS
 10
5.715600
 20
9.272120
  0
VERTEX
  8
0
  6
CONTINUOUS
 10
5.699320
 20
8.297080
  0
VERTEX
  8
0
  6
CONTINUOUS
 10
5.672920
 20
8.307200
  0
SEQEND
  8
0
  0
SOLID
  8
0
 62
    15
 10
5.699320
 20
8.297080
 11
5.715600
 21
9.272120
 12
5.724400
 22
8.281680
 13
5.740680
 23
9.256720
  0
POLYLINE
  8
0
  6
CONTINUOUS
 66
     1
 40
0.000000
 41
0.000000
  0
VERTEX
  8
0
  6
CONTINUOUS
 10
5.699320
 20
8.297080
  0
VERTEX
  8
0
  6
CONTINUOUS
 10
5.715600
 20
9.272120
  0
VERTEX
  8
0
  6
CONTINUOUS
 10
5.740680
 20
9.256720
  0
VERTEX
  8
0
  6
CONTINUOUS
 10
5.724400
 20
8.281680
  0
VERTEX
  8
0
  6
CONTINUOUS
 10
5.699320
 20
8.297080
  0
SEQEND
  8
0
  0
SOLID
  8
0
 62
    15
 10
5.724400
 20
8.281680
 11
5.740680
 21
9.256720
 12
5.746840
 22
8.260120
 13
5.762680
 23
9.235160
  0
POLYLINE
  8
0
  6
CONTINUOUS
 66
     1
 40
0.000000
 41
0.000000
  0
VERTEX
  8
0
  6
CONTINUOUS
 10
5.724400
 20
8.281680
  0
VERTEX
  8
0
  6
CONTINUOUS
 10
5.740680
 20
9.256720
  0
VERTEX
  8
0
  6
CONTINUOUS
 10
5.762680
 20
9.235160
  0
VERTEX
  8
0
  6
CONTINUOUS
 10
5.746840
 20
8.260120
  0
VERTEX
  8
0
  6
CONTINUOUS
 10
5.724400
 20
8.281680
  0
SEQEND
  8
0
  0
SOLID
  8
0
 62
    15
 10
5.746840
 20
8.260120
 11
5.762680
 21
9.235160
 12
5.765760
 22
8.233280
 13
5.781600
 23
9.208320
  0
POLYLINE
  8
0
  6
CONTINUOUS
 66
     1
 40
0.000000
 41
0.000000
  0
VERTEX
  8
0
  6
CONTINUOUS
 10
5.746840
 20
8.260120
  0
VERTEX
  8
0
  6
CONTINUOUS
 10
5.762680
 20
9.235160
  0
VERTEX
  8
0
  6
CONTINUOUS
 10
5.781600
 20
9.208320
  0
VERTEX
  8
0
  6
CONTINUOUS
 10
5.765760
 20
8.233280
  0
VERTEX
  8
0
  6
CONTINUOUS
 10
5.746840
 20
8.260120
  0
SEQEND
  8
0
  0
SOLID
  8
0
 62
    15
 10
5.765760
 20
8.233280
 11
5.781600
 21
9.208320
 12
5.780280
 22
8.201600
 13
5.796120
 23
9.176640
  0
POLYLINE
  8
0
  6
CONTINUOUS
 66
     1
 40
0.000000
 41
0.000000
  0
VERTEX
  8
0
  6
CONTINUOUS
 10
5.765760
 20
8.233280
  0
VERTEX
  8
0
  6
CONTINUOUS
 10
5.781600
 20
9.208320
  0
VERTEX
  8
0
  6
CONTINUOUS
 10
5.796120
 20
9.176640
  0
VERTEX
  8
0
  6
CONTINUOUS
 10
5.780280
 20
8.201600
  0
VERTEX
  8
0
  6
CONTINUOUS
 10
5.765760
 20
8.233280
  0
SEQEND
  8
0
  0
SOLID
  8
0
 62
    15
 10
5.793040
 20
8.122400
 11
5.808880
 21
9.097440
 12
5.935600
 22
8.122400
 13
5.951440
 23
9.097440
  0
POLYLINE
  8
0
  6
CONTINUOUS
 66
     1
 40
0.000000
 41
0.000000
  0
VERTEX
  8
0
  6
CONTINUOUS
 10
5.793040
 20
8.122400
  0
VERTEX
  8
0
  6
CONTINUOUS
 10
5.808880
 20
9.097440
  0
VERTEX
  8
0
  6
CONTINUOUS
 10
5.951440
 20
9.097440
  0
VERTEX
  8
0
  6
CONTINUOUS
 10
5.935600
 20
8.122400
  0
VERTEX
  8
0
  6
CONTINUOUS
 10
5.793040
 20
8.122400
  0
SEQEND
  8
0
  0
SOLID
  8
0
 62
    15
 10
5.789520
 20
8.164200
 11
5.805800
 21
9.139240
 12
5.793040
 22
8.122400
 13
5.808880
 23
9.097440
  0
POLYLINE
  8
0
  6
CONTINUOUS
 66
     1
 40
0.000000
 41
0.000000
  0
VERTEX
  8
0
  6
CONTINUOUS
 10
5.789520
 20
8.164200
  0
VERTEX
  8
0
  6
CONTINUOUS
 10
5.805800
 20
9.139240
  0
VERTEX
  8
0
  6
CONTINUOUS
 10
5.808880
 20
9.097440
  0
VERTEX
  8
0
  6
CONTINUOUS
 10
5.793040
 20
8.122400
  0
VERTEX
  8
0
  6
CONTINUOUS
 10
5.789520
 20
8.164200
  0
SEQEND
  8
0
  0
SOLID
  8
0
 62
    15
 10
5.780280
 20
8.201600
 11
5.796120
 21
9.176640
 12
5.789520
 22
8.164200
 13
5.805800
 23
9.139240
  0
POLYLINE
  8
0
  6
CONTINUOUS
 66
     1
 40
0.000000
 41
0.000000
  0
VERTEX
  8
0
  6
CONTINUOUS
 10
5.780280
 20
8.201600
  0
VERTEX
  8
0
  6
CONTINUOUS
 10
5.796120
 20
9.176640
  0
VERTEX
  8
0
  6
CONTINUOUS
 10
5.805800
 20
9.139240
  0
VERTEX
  8
0
  6
CONTINUOUS
 10
5.789520
 20
8.164200
  0
VERTEX
  8
0
  6
CONTINUOUS
 10
5.780280
 20
8.201600
  0
SEQEND
  8
0
  0
SOLID
  8
0
 62
    15
 10
5.935600
 20
8.122400
 11
5.951440
 21
9.097440
 12
5.958040
 22
8.066080
 13
5.974320
 23
9.041120
  0
POLYLINE
  8
0
  6
CONTINUOUS
 66
     1
 40
0.000000
 41
0.000000
  0
VERTEX
  8
0
  6
CONTINUOUS
 10
5.935600
 20
8.122400
  0
VERTEX
  8
0
  6
CONTINUOUS
 10
5.951440
 20
9.097440
  0
VERTEX
  8
0
  6
CONTINUOUS
 10
5.974320
 20
9.041120
  0
VERTEX
  8
0
  6
CONTINUOUS
 10
5.958040
 20
8.066080
  0
VERTEX
  8
0
  6
CONTINUOUS
 10
5.935600
 20
8.122400
  0
SEQEND
  8
0
  0
SOLID
  8
0
 62
    15
 10
5.958040
 20
8.066080
 11
5.974320
 21
9.041120
 12
5.991480
 22
8.019440
 13
6.007320
 23
8.994480
  0
POLYLINE
  8
0
  6
CONTINUOUS
 66
     1
 40
0.000000
 41
0.000000
  0
VERTEX
  8
0
  6
CONTINUOUS
 10
5.958040
 20
8.066080
  0
VERTEX
  8
0
  6
CONTINUOUS
 10
5.974320
 20
9.041120
  0
VERTEX
  8
0
  6
CONTINUOUS
 10
6.007320
 20
8.994480
  0
VERTEX
  8
0
  6
CONTINUOUS
 10
5.991480
 20
8.019440
  0
VERTEX
  8
0
  6
CONTINUOUS
 10
5.958040
 20
8.066080
  0
SEQEND
  8
0
  0
SOLID
  8
0
 62
    15
 10
5.991480
 20
8.019440
 11
6.007320
 21
8.994480
 12
6.033280
 22
7.982040
 13
6.049120
 23
8.957080
  0
POLYLINE
  8
0
  6
CONTINUOUS
 66
     1
 40
0.000000
 41
0.000000
  0
VERTEX
  8
0
  6
CONTINUOUS
 10
5.991480
 20
8.019440
  0
VERTEX
  8
0
  6
CONTINUOUS
 10
6.007320
 20
8.994480
  0
VERTEX
  8
0
  6
CONTINUOUS
 10
6.049120
 20
8.957080
  0
VERTEX
  8
0
  6
CONTINUOUS
 10
6.033280
 20
7.982040
  0
VERTEX
  8
0
  6
CONTINUOUS
 10
5.991480
 20
8.019440
  0
SEQEND
  8
0
  0
SOLID
  8
0
 62
    15
 10
6.033280
 20
7.982040
 11
6.049120
 21
8.957080
 12
6.081240
 22
7.953000
 13
6.097520
 23
8.928040
  0
POLYLINE
  8
0
  6
CONTINUOUS
 66
     1
 40
0.000000
 41
0.000000
  0
VERTEX
  8
0
  6
CONTINUOUS
 10
6.033280
 20
7.982040
  0
VERTEX
  8
0
  6
CONTINUOUS
 10
6.049120
 20
8.957080
  0
VERTEX
  8
0
  6
CONTINUOUS
 10
6.097520
 20
8.928040
  0
VERTEX
  8
0
  6
CONTINUOUS
 10
6.081240
 20
7.953000
  0
VERTEX
  8
0
  6
CONTINUOUS
 10
6.033280
 20
7.982040
  0
SEQEND
  8
0
  0
SOLID
  8
0
 62
    15
 10
6.081240
 20
7.953000
 11
6.097520
 21
8.928040
 12
6.133600
 22
7.931880
 13
6.149880
 23
8.906920
  0
POLYLINE
  8
0
  6
CONTINUOUS
 66
     1
 40
0.000000
 41
0.000000
  0
VERTEX
  8
0
  6
CONTINUOUS
 10
6.081240
 20
7.953000
  0
VERTEX
  8
0
  6
CONTINUOUS
 10
6.097520
 20
8.928040
  0
VERTEX
  8
0
  6
CONTINUOUS
 10
6.149880
 20
8.906920
  0
VERTEX
  8
0
  6
CONTINUOUS
 10
6.133600
 20
7.931880
  0
VERTEX
  8
0
  6
CONTINUOUS
 10
6.081240
 20
7.953000
  0
SEQEND
  8
0
  0
SOLID
  8
0
 62
    15
 10
6.133600
 20
7.931880
 11
6.149880
 21
8.906920
 12
6.188600
 22
7.917800
 13
6.204440
 23
8.892840
  0
POLYLINE
  8
0
  6
CONTINUOUS
 66
     1
 40
0.000000
 41
0.000000
  0
VERTEX
  8
0
  6
CONTINUOUS
 10
6.133600
 20
7.931880
  0
VERTEX
  8
0
  6
CONTINUOUS
 10
6.149880
 20
8.906920
  0
VERTEX
  8
0
  6
CONTINUOUS
 10
6.204440
 20
8.892840
  0
VERTEX
  8
0
  6
CONTINUOUS
 10
6.188600
 20
7.917800
  0
VERTEX
  8
0
  6
CONTINUOUS
 10
6.133600
 20
7.931880
  0
SEQEND
  8
0
  0
SOLID
  8
0
 62
    15
 10
6.188600
 20
7.917800
 11
6.204440
 21
8.892840
 12
6.243160
 22
7.909880
 13
6.259440
 23
8.884920
  0
POLYLINE
  8
0
  6
CONTINUOUS
 66
     1
 40
0.000000
 41
0.000000
  0
VERTEX
  8
0
  6
CONTINUOUS
 10
6.188600
 20
7.917800
  0
VERTEX
  8
0
  6
CONTINUOUS
 10
6.204440
 20
8.892840
  0
VERTEX
  8
0
  6
CONTINUOUS
 10
6.259440
 20
8.884920
  0
VERTEX
  8
0
  6
CONTINUOUS
 10
6.243160
 20
7.909880
  0
VERTEX
  8
0
  6
CONTINUOUS
 10
6.188600
 20
7.917800
  0
SEQEND
  8
0
  0
SOLID
  8
0
 62
    15
 10
6.243160
 20
7.909880
 11
6.259440
 21
8.884920
 12
6.295520
 22
7.907240
 13
6.311800
 23
8.882280
  0
POLYLINE
  8
0
  6
CONTINUOUS
 66
     1
 40
0.000000
 41
0.000000
  0
VERTEX
  8
0
  6
CONTINUOUS
 10
6.243160
 20
7.909880
  0
VERTEX
  8
0
  6
CONTINUOUS
 10
6.259440
 20
8.884920
  0
VERTEX
  8
0
  6
CONTINUOUS
 10
6.311800
 20
8.882280
  0
VERTEX
  8
0
  6
CONTINUOUS
 10
6.295520
 20
7.907240
  0
VERTEX
  8
0
  6
CONTINUOUS
 10
6.243160
 20
7.909880
  0
SEQEND
  8
0
  0
SOLID
  8
0
 62
    15
 10
6.295520
 20
7.907240
 11
6.311800
 21
8.882280
 12
6.297280
 22
7.906360
 13
6.313560
 23
8.881400
  0
POLYLINE
  8
0
  6
CONTINUOUS
 66
     1
 40
0.000000
 41
0.000000
  0
VERTEX
  8
0
  6
CONTINUOUS
 10
6.295520
 20
7.907240
  0
VERTEX
  8
0
  6
CONTINUOUS
 10
6.311800
 20
8.882280
  0
VERTEX
  8
0
  6
CONTINUOUS
 10
6.313560
 20
8.881400
  0
VERTEX
  8
0
  6
CONTINUOUS
 10
6.297280
 20
7.906360
  0
VERTEX
  8
0
  6
CONTINUOUS
 10
6.295520
 20
7.907240
  0
SEQEND
  8
0
  0
POLYLINE
  8
0
  6
CONTINUOUS
 66
     1
 40
0.000000
 41
0.000000
  0
VERTEX
  8
0
  6
CONTINUOUS
 10
6.297280
 20
7.906360
  0
VERTEX
  8
0
  6
CONTINUOUS
 10
6.297280
 20
7.782720
  0
VERTEX
  8
0
  6
CONTINUOUS
 10
2.339040
 20
7.782720
  0
VERTEX
  8
0
  6
CONTINUOUS
 10
2.339040
 20
8.614760
  0
VERTEX
  8
0
  6
CONTINUOUS
 10
2.734600
 20
8.614760
  0
VERTEX
  8
0
  6
CONTINUOUS
 10
2.749560
 20
8.481000
  0
VERTEX
  8
0
  6
CONTINUOUS
 10
2.781680
 20
8.481000
  0
VERTEX
  8
0
  6
CONTINUOUS
 10
2.810280
 20
8.522800
  0
VERTEX
  8
0
  6
CONTINUOUS
 10
2.844600
 20
8.556680
  0
VERTEX
  8
0
  6
CONTINUOUS
 10
2.883320
 20
8.581760
  0
VERTEX
  8
0
  6
CONTINUOUS
 10
2.926000
 20
8.599360
  0
VERTEX
  8
0
  6
CONTINUOUS
 10
2.971760
 20
8.609920
  0
VERTEX
  8
0
  6
CONTINUOUS
 10
3.019720
 20
8.613000
  0
VERTEX
  8
0
  6
CONTINUOUS
 10
3.069440
 20
8.610360
  0
VERTEX
  8
0
  6
CONTINUOUS
 10
3.120480
 20
8.601120
  0
VERTEX
  8
0
  6
CONTINUOUS
 10
3.171080
 20
8.586600
  0
VERTEX
  8
0
  6
CONTINUOUS
 10
3.221240
 20
8.566800
  0
VERTEX
  8
0
  6
CONTINUOUS
 10
3.270520
 20
8.542600
  0
VERTEX
  8
0
  6
CONTINUOUS
 10
3.317160
 20
8.514000
  0
VERTEX
  8
0
  6
CONTINUOUS
 10
3.361160
 20
8.481880
  0
VERTEX
  8
0
  6
CONTINUOUS
 10
3.401640
 20
8.445800
  0
VERTEX
  8
0
  6
CONTINUOUS
 10
3.437720
 20
8.407520
  0
VERTEX
  8
0
  6
CONTINUOUS
 10
3.468960
 20
8.366160
  0
VERTEX
  8
0
  6
CONTINUOUS
 10
3.799840
 20
8.366160
  0
VERTEX
  8
0
  6
CONTINUOUS
 10
3.835040
 20
8.327000
  0
VERTEX
  8
0
  6
CONTINUOUS
 10
3.873760
 20
8.291800
  0
VERTEX
  8
0
  6
CONTINUOUS
 10
3.915560
 20
8.260120
  0
VERTEX
  8
0
  6
CONTINUOUS
 10
3.960880
 20
8.232400
  0
VERTEX
  8
0
  6
CONTINUOUS
 10
4.009720
 20
8.207760
  0
VERTEX
  8
0
  6
CONTINUOUS
 10
4.061640
 20
8.186200
  0
VERTEX
  8
0
  6
CONTINUOUS
 10
4.117080
 20
8.167280
  0
VERTEX
  8
0
  6
CONTINUOUS
 10
4.175600
 20
8.151440
  0
VERTEX
  8
0
  6
CONTINUOUS
 10
4.237640
 20
8.137800
  0
VERTEX
  8
0
  6
CONTINUOUS
 10
4.302760
 20
8.126800
  0
VERTEX
  8
0
  6
CONTINUOUS
 10
4.371400
 20
8.117560
  0
VERTEX
  8
0
  6
CONTINUOUS
 10
4.443560
 20
8.110520
  0
VERTEX
  8
0
  6
CONTINUOUS
 10
4.597120
 20
8.101280
  0
VERTEX
  8
0
  6
CONTINUOUS
 10
4.764320
 20
8.096880
  0
VERTEX
  8
0
  6
CONTINUOUS
 10
5.497800
 20
8.107880
  0
VERTEX
  8
0
  6
CONTINUOUS
 10
5.501320
 20
8.157600
  0
VERTEX
  8
0
  6
CONTINUOUS
 10
5.510560
 20
8.200280
  0
VERTEX
  8
0
  6
CONTINUOUS
 10
5.525080
 20
8.235480
  0
VERTEX
  8
0
  6
CONTINUOUS
 10
5.544000
 20
8.263640
  0
VERTEX
  8
0
  6
CONTINUOUS
 10
5.566440
 20
8.285200
  0
VERTEX
  8
0
  6
CONTINUOUS
 10
5.591080
 20
8.300160
  0
VERTEX
  8
0
  6
CONTINUOUS
 10
5.617920
 20
8.308960
  0
VERTEX
  8
0
  6
CONTINUOUS
 10
5.645200
 20
8.311160
  0
VERTEX
  8
0
  6
CONTINUOUS
 10
5.672920
 20
8.307200
  0
VERTEX
  8
0
  6
CONTINUOUS
 10
5.699320
 20
8.297080
  0
VERTEX
  8
0
  6
CONTINUOUS
 10
5.724400
 20
8.281680
  0
VERTEX
  8
0
  6
CONTINUOUS
 10
5.746840
 20
8.260120
  0
VERTEX
  8
0
  6
CONTINUOUS
 10
5.765760
 20
8.233280
  0
VERTEX
  8
0
  6
CONTINUOUS
 10
5.780280
 20
8.201600
  0
VERTEX
  8
0
  6
CONTINUOUS
 10
5.789520
 20
8.164200
  0
VERTEX
  8
0
  6
CONTINUOUS
 10
5.793040
 20
8.122400
  0
VERTEX
  8
0
  6
CONTINUOUS
 10
5.935600
 20
8.122400
  0
VERTEX
  8
0
  6
CONTINUOUS
 10
5.958040
 20
8.066080
  0
VERTEX
  8
0
  6
CONTINUOUS
 10
5.991480
 20
8.019440
  0
VERTEX
  8
0
  6
CONTINUOUS
 10
6.033280
 20
7.982040
  0
VERTEX
  8
0
  6
CONTINUOUS
 10
6.081240
 20
7.953000
  0
VERTEX
  8
0
  6
CONTINUOUS
 10
6.133600
 20
7.931880
  0
VERTEX
  8
0
  6
CONTINUOUS
 10
6.188600
 20
7.917800
  0
VERTEX
  8
0
  6
CONTINUOUS
 10
6.243160
 20
7.909880
  0
VERTEX
  8
0
  6
CONTINUOUS
 10
6.295520
 20
7.907240
  0
VERTEX
  8
0
  6
CONTINUOUS
 10
6.297280
 20
7.906360
  0
SEQEND
  8
0
  0
SOLID
  8
0
 62
     7
 10
6.300800
 20
7.936720
 11
6.300800
 21
8.060360
 12
7.067720
 22
7.936720
 13
7.067720
 23
8.060360
  0
POLYLINE
  8
0
  6
CONTINUOUS
 66
     1
 40
0.000000
 41
0.000000
  0
VERTEX
  8
0
  6
CONTINUOUS
 10
6.300800
 20
7.936720
  0
VERTEX
  8
0
  6
CONTINUOUS
 10
6.300800
 20
8.060360
  0
VERTEX
  8
0
  6
CONTINUOUS
 10
7.067720
 20
8.060360
  0
VERTEX
  8
0
  6
CONTINUOUS
 10
7.067720
 20
7.936720
  0
VERTEX
  8
0
  6
CONTINUOUS
 10
6.300800
 20
7.936720
  0
SEQEND
  8
0
  0
POLYLINE
  8
0
 62
    15
  6
CONTINUOUS
 66
     1
 40
0.000000
 41
0.000000
  0
VERTEX
  8
0
 62
    15
  6
CONTINUOUS
 10
5.938680
 20
8.425120
  0
VERTEX
  8
0
 62
    15
  6
CONTINUOUS
 10
6.059680
 20
8.303680
  0
VERTEX
  8
0
 62
    15
  6
CONTINUOUS
 10
6.181120
 20
8.182240
  0
VERTEX
  8
0
 62
    15
  6
CONTINUOUS
 10
6.181120
 20
8.181360
  0
VERTEX
  8
0
 62
    15
  6
CONTINUOUS
 10
6.181560
 20
8.181360
  0
VERTEX
  8
0
 62
    15
  6
CONTINUOUS
 10
6.302120
 20
8.060800
  0
VERTEX
  8
0
 62
    15
  6
CONTINUOUS
 10
6.302120
 20
8.059920
  0
VERTEX
  8
0
 62
    15
  6
CONTINUOUS
 10
6.813400
 20
8.060360
  0
VERTEX
  8
0
 62
    15
  6
CONTINUOUS
 10
6.813400
 20
8.060800
  0
VERTEX
  8
0
 62
    15
  6
CONTINUOUS
 10
7.068600
 20
8.060800
  0
VERTEX
  8
0
 62
    15
  6
CONTINUOUS
 10
7.068600
 20
8.425120
  0
VERTEX
  8
0
 62
    15
  6
CONTINUOUS
 10
5.938680
 20
8.425120
  0
SEQEND
  8
0
  0
LINE
  8
0
  6
CONTINUOUS
 10
6.302120
 20
8.060360
 11
6.557320
 21
8.060360
  0
LINE
  8
0
  6
CONTINUOUS
 10
6.247120
 20
8.115800
 11
7.068160
 21
8.115800
  0
LINE
  8
0
  6
CONTINUOUS
 10
6.191240
 20
8.171680
 11
7.068160
 21
8.171680
  0
LINE
  8
0
  6
CONTINUOUS
 10
6.135800
 20
8.227560
 11
7.068160
 21
8.227560
  0
LINE
  8
0
  6
CONTINUOUS
 10
6.080360
 20
8.283000
 11
7.068160
 21
8.283000
  0
LINE
  8
0
  6
CONTINUOUS
 10
6.024920
 20
8.338880
 11
7.068160
 21
8.338880
  0
LINE
  8
0
  6
CONTINUOUS
 10
5.969480
 20
8.394320
 11
7.068160
 21
8.394320
  0
POLYLINE
  8
0
  6
CONTINUOUS
 66
     1
 40
0.000000
 41
0.000000
  0
VERTEX
  8
0
  6
CONTINUOUS
 10
6.302120
 20
8.060360
  0
VERTEX
  8
0
  6
CONTINUOUS
 10
7.068160
 20
8.061240
  0
VERTEX
  8
0
  6
CONTINUOUS
 10
7.068160
 20
8.425120
  0
VERTEX
  8
0
  6
CONTINUOUS
 10
5.938680
 20
8.425120
  0
VERTEX
  8
0
  6
CONTINUOUS
 10
6.302120
 20
8.060360
  0
SEQEND
  8
0
  0
POLYLINE
  8
0
  6
CONTINUOUS
 66
     1
 40
0.000000
 41
0.000000
  0
VERTEX
  8
0
  6
CONTINUOUS
 10
5.952320
 20
8.414560
  0
VERTEX
  8
0
  6
CONTINUOUS
 10
6.686240
 20
8.414560
  0
VERTEX
  8
0
  6
CONTINUOUS
 10
7.067280
 20
8.414560
  0
SEQEND
  8
0
  0
POLYLINE
  8
0
  6
CONTINUOUS
 66
     1
 40
0.000000
 41
0.000000
  0
VERTEX
  8
0
  6
CONTINUOUS
 10
5.961560
 20
8.403560
  0
VERTEX
  8
0
  6
CONTINUOUS
 10
6.677000
 20
8.403560
  0
VERTEX
  8
0
  6
CONTINUOUS
 10
7.067280
 20
8.403560
  0
SEQEND
  8
0
  0
POLYLINE
  8
0
  6
CONTINUOUS
 66
     1
 40
0.000000
 41
0.000000
  0
VERTEX
  8
0
  6
CONTINUOUS
 10
5.981800
 20
8.383320
  0
VERTEX
  8
0
  6
CONTINUOUS
 10
6.684480
 20
8.383320
  0
VERTEX
  8
0
  6
CONTINUOUS
 10
7.067280
 20
8.383320
  0
SEQEND
  8
0
  0
POLYLINE
  8
0
  6
CONTINUOUS
 66
     1
 40
0.000000
 41
0.000000
  0
VERTEX
  8
0
  6
CONTINUOUS
 10
5.999840
 20
8.365280
  0
VERTEX
  8
0
  6
CONTINUOUS
 10
6.680520
 20
8.365280
  0
VERTEX
  8
0
  6
CONTINUOUS
 10
7.067280
 20
8.365280
  0
SEQEND
  8
0
  0
POLYLINE
  8
0
  6
CONTINUOUS
 66
     1
 40
0.000000
 41
0.000000
  0
VERTEX
  8
0
  6
CONTINUOUS
 10
6.014800
 20
8.352080
  0
VERTEX
  8
0
  6
CONTINUOUS
 10
6.671280
 20
8.352080
  0
VERTEX
  8
0
  6
CONTINUOUS
 10
7.067280
 20
8.352080
  0
SEQEND
  8
0
  0
POLYLINE
  8
0
  6
CONTINUOUS
 66
     1
 40
0.000000
 41
0.000000
  0
VERTEX
  8
0
  6
CONTINUOUS
 10
5.992800
 20
8.374080
  0
VERTEX
  8
0
  6
CONTINUOUS
 10
6.666000
 20
8.374080
  0
VERTEX
  8
0
  6
CONTINUOUS
 10
7.067280
 20
8.374080
  0
SEQEND
  8
0
  0
POLYLINE
  8
0
  6
CONTINUOUS
 66
     1
 40
0.000000
 41
0.000000
  0
VERTEX
  8
0
  6
CONTINUOUS
 10
6.045600
 20
8.321280
  0
VERTEX
  8
0
  6
CONTINUOUS
 10
6.650160
 20
8.321280
  0
VERTEX
  8
0
  6
CONTINUOUS
 10
7.067280
 20
8.321280
  0
SEQEND
  8
0
  0
POLYLINE
  8
0
  6
CONTINUOUS
 66
     1
 40
0.000000
 41
0.000000
  0
VERTEX
  8
0
  6
CONTINUOUS
 10
6.065840
 20
8.301040
  0
VERTEX
  8
0
  6
CONTINUOUS
 10
6.641360
 20
8.301040
  0
VERTEX
  8
0
  6
CONTINUOUS
 10
7.067280
 20
8.301040
  0
SEQEND
  8
0
  0
POLYLINE
  8
0
  6
CONTINUOUS
 66
     1
 40
0.000000
 41
0.000000
  0
VERTEX
  8
0
  6
CONTINUOUS
 10
6.108960
 20
8.255720
  0
VERTEX
  8
0
  6
CONTINUOUS
 10
6.618480
 20
8.255720
  0
VERTEX
  8
0
  6
CONTINUOUS
 10
7.067280
 20
8.255720
  0
SEQEND
  8
0
  0
POLYLINE
  8
0
  6
CONTINUOUS
 66
     1
 40
0.000000
 41
0.000000
  0
VERTEX
  8
0
  6
CONTINUOUS
 10
6.169680
 20
8.197200
  0
VERTEX
  8
0
  6
CONTINUOUS
 10
6.580200
 20
8.197200
  0
VERTEX
  8
0
  6
CONTINUOUS
 10
7.067280
 20
8.197200
  0
SEQEND
  8
0
  0
SOLID
  8
0
 62
    15
 10
7.068600
 20
8.425120
 11
5.938680
 21
8.425120
 12
7.068600
 22
9.011640
 13
5.951000
 23
9.012520
  0
POLYLINE
  8
0
  6
CONTINUOUS
 66
     1
 40
0.000000
 41
0.000000
  0
VERTEX
  8
0
  6
CONTINUOUS
 10
7.068600
 20
8.425120
  0
VERTEX
  8
0
  6
CONTINUOUS
 10
5.938680
 20
8.425120
  0
VERTEX
  8
0
  6
CONTINUOUS
 10
5.951000
 20
9.012520
  0
VERTEX
  8
0
  6
CONTINUOUS
 10
7.068600
 20
9.011640
  0
VERTEX
  8
0
  6
CONTINUOUS
 10
7.068600
 20
8.425120
  0
SEQEND
  8
0
  0
TEXT
  8
0
 10
2.458720
 20
7.916040
 40
0.138236
  1
602
 41
1.000000
  7
SN0
 71
     0
 72
     5
 11
2.736134
 21
7.916040
  0
POLYLINE
  8
0
  6
CONTINUOUS
 66
     1
 40
0.014080
 41
0.014080
  0
VERTEX
  8
0
  6
CONTINUOUS
 10
7.518720
 20
9.824320
  0
VERTEX
  8
0
  6
CONTINUOUS
 10
7.492760
 20
9.824760
  0
VERTEX
  8
0
  6
CONTINUOUS
 10
7.439080
 20
9.830040
  0
VERTEX
  8
0
  6
CONTINUOUS
 10
7.384080
 20
9.841040
  0
VERTEX
  8
0
  6
CONTINUOUS
 10
7.357240
 20
9.848960
  0
VERTEX
  8
0
  6
CONTINUOUS
 10
7.330400
 20
9.858640
  0
VERTEX
  8
0
  6
CONTINUOUS
 10
7.304440
 20
9.870080
  0
VERTEX
  8
0
  6
CONTINUOUS
 10
7.267920
 20
9.891200
  0
VERTEX
  8
0
  6
CONTINUOUS
 10
7.234480
 20
9.916720
  0
VERTEX
  8
0
  6
CONTINUOUS
 10
7.205440
 20
9.947080
  0
VERTEX
  8
0
  6
CONTINUOUS
 10
7.188720
 20
9.970400
  0
VERTEX
  8
0
  6
CONTINUOUS
 10
7.168480
 20
10.010000
  0
VERTEX
  8
0
  6
CONTINUOUS
 10
7.158800
 20
10.039480
  0
VERTEX
  8
0
  6
CONTINUOUS
 10
7.015800
 20
10.039480
  0
VERTEX
  8
0
  6
CONTINUOUS
 10
7.014920
 20
10.061040
  0
VERTEX
  8
0
  6
CONTINUOUS
 10
7.008320
 20
10.100640
  0
VERTEX
  8
0
  6
CONTINUOUS
 10
7.003040
 20
10.118680
  0
VERTEX
  8
0
  6
CONTINUOUS
 10
6.988520
 20
10.150360
  0
VERTEX
  8
0
  6
CONTINUOUS
 10
6.969600
 20
10.177200
  0
VERTEX
  8
0
  6
CONTINUOUS
 10
6.959040
 20
10.188640
  0
VERTEX
  8
0
  6
CONTINUOUS
 10
6.935280
 20
10.207120
  0
VERTEX
  8
0
  6
CONTINUOUS
 10
6.909320
 20
10.219880
  0
VERTEX
  8
0
  6
CONTINUOUS
 10
6.882040
 20
10.226480
  0
VERTEX
  8
0
  6
CONTINUOUS
 10
6.854760
 20
10.227800
  0
VERTEX
  8
0
  6
CONTINUOUS
 10
6.827480
 20
10.222080
  0
VERTEX
  8
0
  6
CONTINUOUS
 10
6.814280
 20
10.217240
  0
VERTEX
  8
0
  6
CONTINUOUS
 10
6.789200
 20
10.202280
  0
VERTEX
  8
0
  6
CONTINUOUS
 10
6.777760
 20
10.192600
  0
VERTEX
  8
0
  6
CONTINUOUS
 10
6.757080
 20
10.167520
  0
VERTEX
  8
0
  6
CONTINUOUS
 10
6.740360
 20
10.135840
  0
VERTEX
  8
0
  6
CONTINUOUS
 10
6.733760
 20
10.117360
  0
VERTEX
  8
0
  6
CONTINUOUS
 10
6.724520
 20
10.074680
  0
VERTEX
  8
0
  6
CONTINUOUS
 10
6.721880
 20
10.050920
  0
VERTEX
  8
0
  6
CONTINUOUS
 10
6.721000
 20
10.024960
  0
VERTEX
  8
0
  6
CONTINUOUS
 10
5.987520
 20
10.013960
  0
VERTEX
  8
0
  6
CONTINUOUS
 10
5.860800
 20
10.016600
  0
VERTEX
  8
0
  6
CONTINUOUS
 10
5.703720
 20
10.024520
  0
VERTEX
  8
0
  6
CONTINUOUS
 10
5.594600
 20
10.034640
  0
VERTEX
  8
0
  6
CONTINUOUS
 10
5.492960
 20
10.049160
  0
VERTEX
  8
0
  6
CONTINUOUS
 10
5.429160
 20
10.061480
  0
VERTEX
  8
0
  6
CONTINUOUS
 10
5.368880
 20
10.076000
  0
VERTEX
  8
0
  6
CONTINUOUS
 10
5.312120
 20
10.093160
  0
VERTEX
  8
0
  6
CONTINUOUS
 10
5.258440
 20
10.113400
  0
VERTEX
  8
0
  6
CONTINUOUS
 10
5.207840
 20
10.136720
  0
VERTEX
  8
0
  6
CONTINUOUS
 10
5.161200
 20
10.163120
  0
VERTEX
  8
0
  6
CONTINUOUS
 10
5.138760
 20
10.177200
  0
VERTEX
  8
0
  6
CONTINUOUS
 10
5.096960
 20
10.208880
  0
VERTEX
  8
0
  6
CONTINUOUS
 10
5.058240
 20
10.244080
  0
VERTEX
  8
0
  6
CONTINUOUS
 10
5.023040
 20
10.283240
  0
VERTEX
  8
0
  6
CONTINUOUS
 10
4.692160
 20
10.283240
  0
VERTEX
  8
0
  6
CONTINUOUS
 10
4.660920
 20
10.324600
  0
VERTEX
  8
0
  6
CONTINUOUS
 10
4.624840
 20
10.362880
  0
VERTEX
  8
0
  6
CONTINUOUS
 10
4.584360
 20
10.398960
  0
VERTEX
  8
0
  6
CONTINUOUS
 10
4.540360
 20
10.431080
  0
VERTEX
  8
0
  6
CONTINUOUS
 10
4.493720
 20
10.459680
  0
VERTEX
  8
0
  6
CONTINUOUS
 10
4.444880
 20
10.483880
  0
VERTEX
  8
0
  6
CONTINUOUS
 10
4.394280
 20
10.503680
  0
VERTEX
  8
0
  6
CONTINUOUS
 10
4.343680
 20
10.518200
  0
VERTEX
  8
0
  6
CONTINUOUS
 10
4.318160
 20
10.523480
  0
VERTEX
  8
0
  6
CONTINUOUS
 10
4.268000
 20
10.529200
  0
VERTEX
  8
0
  6
CONTINUOUS
 10
4.242920
 20
10.530080
  0
VERTEX
  8
0
  6
CONTINUOUS
 10
4.218720
 20
10.529200
  0
VERTEX
  8
0
  6
CONTINUOUS
 10
4.194960
 20
10.526560
  0
VERTEX
  8
0
  6
CONTINUOUS
 10
4.149200
 20
10.516440
  0
VERTEX
  8
0
  6
CONTINUOUS
 10
4.127200
 20
10.508520
  0
VERTEX
  8
0
  6
CONTINUOUS
 10
4.106520
 20
10.498840
  0
VERTEX
  8
0
  6
CONTINUOUS
 10
4.086720
 20
10.486960
  0
VERTEX
  8
0
  6
CONTINUOUS
 10
4.067800
 20
10.473320
  0
VERTEX
  8
0
  6
CONTINUOUS
 10
4.041840
 20
10.449120
  0
VERTEX
  8
0
  6
CONTINUOUS
 10
4.018520
 20
10.419640
  0
VERTEX
  8
0
  6
CONTINUOUS
 10
4.004880
 20
10.397640
  0
VERTEX
  8
0
  6
CONTINUOUS
 10
3.972320
 20
10.397640
  0
VERTEX
  8
0
  6
CONTINUOUS
 10
3.957800
 20
10.531840
  0
VERTEX
  8
0
  6
CONTINUOUS
 10
3.562240
 20
10.531840
  0
VERTEX
  8
0
  6
CONTINUOUS
 10
3.562240
 20
9.699360
  0
VERTEX
  8
0
  6
CONTINUOUS
 10
7.520480
 20
9.699360
  0
VERTEX
  8
0
  6
CONTINUOUS
 10
7.520480
 20
9.823440
  0
VERTEX
  8
0
  6
CONTINUOUS
 10
7.518720
 20
9.824320
  0
SEQEND
  8
0
  0
TEXT
  8
0
 10
4.163280
 20
9.965120
 40
0.138236
  1
BA 602
 41
1.000000
  7
SN0
 71
     0
 72
     5
 11
4.708368
 21
9.965120
  0
TEXT
  8
0
 10
3.799840
 20
9.773280
 40
0.138236
  1
13/16" x 3-15/16"
 41
1.000000
  7
SN0
 71
     0
 72
     5
 11
5.071040
 21
9.773280
  0
POLYLINE
  8
0
  6
CONTINUOUS
 66
     1
 40
0.000000
 41
0.000000
  0
VERTEX
  8
0
  6
CONTINUOUS
 10
2.933040
 20
10.452200
  0
VERTEX
  8
0
  6
CONTINUOUS
 10
2.942720
 20
10.422720
  0
VERTEX
  8
0
  6
CONTINUOUS
 10
2.962960
 20
10.383120
  0
VERTEX
  8
0
  6
CONTINUOUS
 10
2.979680
 20
10.359800
  0
VERTEX
  8
0
  6
CONTINUOUS
 10
3.008720
 20
10.329440
  0
VERTEX
  8
0
  6
CONTINUOUS
 10
3.042160
 20
10.303920
  0
VERTEX
  8
0
  6
CONTINUOUS
 10
3.079120
 20
10.282800
  0
VERTEX
  8
0
  6
CONTINUOUS
 10
3.104640
 20
10.271360
  0
VERTEX
  8
0
  6
CONTINUOUS
 10
3.131480
 20
10.261680
  0
VERTEX
  8
0
  6
CONTINUOUS
 10
3.158760
 20
10.253760
  0
VERTEX
  8
0
  6
CONTINUOUS
 10
3.213760
 20
10.242760
  0
VERTEX
  8
0
  6
CONTINUOUS
 10
3.267440
 20
10.237480
  0
VERTEX
  8
0
  6
CONTINUOUS
 10
3.293400
 20
10.237040
  0
VERTEX
  8
0
  6
CONTINUOUS
 10
3.295160
 20
10.236160
  0
VERTEX
  8
0
  6
CONTINUOUS
 10
3.294720
 20
10.111200
  0
VERTEX
  8
0
  6
CONTINUOUS
 10
1.189320
 20
10.111200
  0
VERTEX
  8
0
  6
CONTINUOUS
 10
1.189320
 20
10.234840
  0
VERTEX
  8
0
  6
CONTINUOUS
 10
1.191080
 20
10.235720
  0
VERTEX
  8
0
  6
CONTINUOUS
 10
1.217040
 20
10.236160
  0
VERTEX
  8
0
  6
CONTINUOUS
 10
1.270720
 20
10.241440
  0
VERTEX
  8
0
  6
CONTINUOUS
 10
1.325720
 20
10.252440
  0
VERTEX
  8
0
  6
CONTINUOUS
 10
1.353000
 20
10.260360
  0
VERTEX
  8
0
  6
CONTINUOUS
 10
1.379840
 20
10.270040
  0
VERTEX
  8
0
  6
CONTINUOUS
 10
1.405800
 20
10.281480
  0
VERTEX
  8
0
  6
CONTINUOUS
 10
1.442320
 20
10.302600
  0
VERTEX
  8
0
  6
CONTINUOUS
 10
1.475760
 20
10.328120
  0
VERTEX
  8
0
  6
CONTINUOUS
 10
1.504800
 20
10.358480
  0
VERTEX
  8
0
  6
CONTINUOUS
 10
1.521520
 20
10.381800
  0
VERTEX
  8
0
  6
CONTINUOUS
 10
1.541760
 20
10.421400
  0
VERTEX
  8
0
  6
CONTINUOUS
 10
1.551440
 20
10.450880
  0
VERTEX
  8
0
  6
CONTINUOUS
 10
2.933040
 20
10.452200
  0
SEQEND
  8
0
  0
POLYLINE
  8
0
  6
CONTINUOUS
 66
     1
 40
0.000000
 41
0.000000
  0
VERTEX
  8
0
  6
CONTINUOUS
 10
3.100680
 20
9.691000
  0
VERTEX
  8
0
  6
CONTINUOUS
 10
3.100680
 20
10.030680
  0
VERTEX
  8
0
  6
CONTINUOUS
 10
1.405360
 20
10.030680
  0
VERTEX
  8
0
  6
CONTINUOUS
 10
1.409760
 20
10.015720
  0
VERTEX
  8
0
  6
CONTINUOUS
 10
1.415040
 20
10.001200
  0
VERTEX
  8
0
  6
CONTINUOUS
 10
1.421200
 20
9.987560
  0
VERTEX
  8
0
  6
CONTINUOUS
 10
1.427800
 20
9.974360
  0
VERTEX
  8
0
  6
CONTINUOUS
 10
1.435280
 20
9.961600
  0
VERTEX
  8
0
  6
CONTINUOUS
 10
1.443200
 20
9.949720
  0
VERTEX
  8
0
  6
CONTINUOUS
 10
1.452000
 20
9.938280
  0
VERTEX
  8
0
  6
CONTINUOUS
 10
1.461240
 20
9.927720
  0
VERTEX
  8
0
  6
CONTINUOUS
 10
1.470920
 20
9.917600
  0
VERTEX
  8
0
  6
CONTINUOUS
 10
1.481040
 20
9.907920
  0
VERTEX
  8
0
  6
CONTINUOUS
 10
1.492040
 20
9.898680
  0
VERTEX
  8
0
  6
CONTINUOUS
 10
1.503040
 20
9.890320
  0
VERTEX
  8
0
  6
CONTINUOUS
 10
1.514480
 20
9.882400
  0
VERTEX
  8
0
  6
CONTINUOUS
 10
1.526360
 20
9.874920
  0
VERTEX
  8
0
  6
CONTINUOUS
 10
1.551440
 20
9.861280
  0
VERTEX
  8
0
  6
CONTINUOUS
 10
1.576960
 20
9.849840
  0
VERTEX
  8
0
  6
CONTINUOUS
 10
1.603800
 20
9.840160
  0
VERTEX
  8
0
  6
CONTINUOUS
 10
1.631080
 20
9.832240
  0
VERTEX
  8
0
  6
CONTINUOUS
 10
1.658360
 20
9.826080
  0
VERTEX
  8
0
  6
CONTINUOUS
 10
1.686080
 20
9.821240
  0
VERTEX
  8
0
  6
CONTINUOUS
 10
1.712920
 20
9.818160
  0
VERTEX
  8
0
  6
CONTINUOUS
 10
1.739760
 20
9.815960
  0
VERTEX
  8
0
  6
CONTINUOUS
 10
1.765720
 20
9.815520
  0
VERTEX
  8
0
  6
CONTINUOUS
 10
1.767480
 20
9.814640
  0
VERTEX
  8
0
  6
CONTINUOUS
 10
1.767480
 20
9.691000
  0
VERTEX
  8
0
  6
CONTINUOUS
 10
3.100680
 20
9.691000
  0
SEQEND
  8
0
  0
TEXT
  8
0
 10
2.042920
 20
10.226920
 40
0.138236
  1
602C
 41
1.000000
  7
SN0
 71
     0
 72
     5
 11
2.440233
 21
10.226920
  0
TEXT
  8
0
 10
2.059200
 20
9.806720
 40
0.138236
  1
602B
 41
1.000000
  7
SN0
 71
     0
 72
     5
 11
2.447445
 21
9.806720
  0
ENDSEC
  0
EOF
