  0
SECTION
  2
HEADER
  9
$ACADVER
  1
AC1006
  9
$EXTMIN
 10
2.880680
 20
0.535040
  9
$EXTMAX
 10
7.165840
 20
3.433760
  9
$LTSCALE
 40
0.044000
  9
$PDMODE
 70
    35
  9
$PDSIZE
 40
0.035200
  0
ENDSEC
  0
SECTION
  2
TABLES
  0
TABLE
  2
LTYPE
 70
     9
  0
LTYPE
  2
CONTINUOUS
 70
    64
  3
Solid line
 72
    65
 73
     0
 40
0.000000
  0
LTYPE
  2
DASHED
 70
    64
  3
__ __ __ __ __ __ __ __ __ __ __ __ __ __ __
 72
    65
 73
     2
 40
0.000330
 49
0.000220
 49
-0.000110
  0
LTYPE
  2
HIDDEN
 70
    64
  3
 _ _ _ _ _ _ _ _ _ _ _ _ _ _ _ _ _ _ _ _ _ _
 72
    65
 73
     2
 40
0.000165
 49
0.000110
 49
-0.000055
  0
LTYPE
  2
CENTER
 70
    64
  3
____ _ ____ _ ____ _ ____ _ ____ _ ____ _ ____
 72
    65
 73
     4
 40
0.000880
 49
0.000550
 49
-0.000110
 49
0.000110
 49
-0.000110
  0
LTYPE
  2
PHANTOM
 70
    64
  3
_____ _ _ _____ _ _ _____ _ _ _____ _ _ ____
 72
    65
 73
     6
 40
0.001100
 49
0.000550
 49
-0.000110
 49
0.000110
 49
-0.000110
 49
0.000110
 49
-0.000110
  0
LTYPE
  2
DOT
 70
    64
  3
...............................................
 72
    65
 73
     2
 40
0.000110
 49
0.000000
 49
-0.000110
  0
LTYPE
  2
DASHDOT
 70
    64
  3
__ . __ . __ . __ . __ . __ . __ . __ . __ . __
 72
    65
 73
     4
 40
0.000440
 49
0.000220
 49
-0.000110
 49
0.000000
 49
-0.000110
  0
LTYPE
  2
BORDER
 70
    64
  3
__ __ . __ __ . __ __ . __ __ . __ __ . __ __
 72
    65
 73
     6
 40
0.000770
 49
0.000220
 49
-0.000110
 49
0.000220
 49
-0.000110
 49
0.000000
 49
-0.000110
  0
LTYPE
  2
DIVIDE
 70
    64
  3
__ . . __ . . __ . . __ . . __ . . __ . . __
 72
    65
 73
     6
 40
0.000550
 49
0.000220
 49
-0.000110
 49
0.000000
 49
-0.000110
 49
0.000000
 49
-0.000110
  0
LTYPE
  2
DOTDOT
 70
    64
  3
 . .  . .  . .  . .  . .  . . 
 72
    65
 73
     5
 40
0.000242
 49
-0.000110
 49
0.000000
 49
-0.000110
 49
0.000000
 49
-0.000110
  0
ENDTAB
  0
TABLE
  2
STYLE
 70
     2
  0
STYLE
 70
     0
  2
SN0
 40
0.000000
 41
0.000440
 50
0.000000
 71
     0
 42
0.000000
  3
ROMAND
  0
STYLE
 70
    68
  2
SV0
 40
0.000000
 41
0.000440
 50
0.000000
 71
     0
 42
0.000000
  3
ROMAND
  0
ENDTAB
  0
TABLE
  2
LAYER
 70
     3
  0
LAYER
  2
FOREGROUND
 70
    64
 62
     7
  6
CONTINUOUS
  0
LAYER
  2
BACKGROUND
 70
    65
 62
    -7
  6
CONTINUOUS
  0
LAYER
  2
0
 70
    64
 62
     7
  6
CONTINUOUS
  0
ENDTAB
  0
ENDSEC
  0
SECTION
  2
ENTITIES
  0
POLYLINE
  8
FOREGROUND
  6
CONTINUOUS
 66
     1
 40
0.000000
 41
0.000000
  0
VERTEX
  8
FOREGROUND
  6
CONTINUOUS
 10
0.000000
 20
3.968800
  0
VERTEX
  8
FOREGROUND
  6
CONTINUOUS
 10
8.499920
 20
3.968800
  0
VERTEX
  8
FOREGROUND
  6
CONTINUOUS
 10
8.499920
 20
-7.031200
  0
VERTEX
  8
FOREGROUND
  6
CONTINUOUS
 10
0.000000
 20
-7.031200
  0
VERTEX
  8
FOREGROUND
  6
CONTINUOUS
 10
0.000000
 20
3.968800
  0
SEQEND
  8
0
  0
POLYLINE
  8
FOREGROUND
  6
CONTINUOUS
 66
     1
 40
0.000000
 41
0.000000
  0
VERTEX
  8
FOREGROUND
  6
CONTINUOUS
 10
0.000000
 20
3.968800
  0
VERTEX
  8
FOREGROUND
  6
CONTINUOUS
 10
8.499920
 20
3.968800
  0
VERTEX
  8
FOREGROUND
  6
CONTINUOUS
 10
8.499920
 20
-7.031200
  0
VERTEX
  8
FOREGROUND
  6
CONTINUOUS
 10
0.000000
 20
-7.031200
  0
VERTEX
  8
FOREGROUND
  6
CONTINUOUS
 10
0.000000
 20
3.968800
  0
SEQEND
  8
0
  0
POLYLINE
  8
0
  6
CONTINUOUS
 66
     1
 40
0.014080
 41
0.014080
  0
VERTEX
  8
0
  6
CONTINUOUS
 10
5.806680
 20
3.215520
  0
VERTEX
  8
0
  6
CONTINUOUS
 10
5.797440
 20
3.215520
  0
VERTEX
  8
0
  6
CONTINUOUS
 10
5.795240
 20
3.237960
  0
VERTEX
  8
0
  6
CONTINUOUS
 10
5.788640
 20
3.259080
  0
VERTEX
  8
0
  6
CONTINUOUS
 10
5.778520
 20
3.278000
  0
VERTEX
  8
0
  6
CONTINUOUS
 10
5.764880
 20
3.294280
  0
VERTEX
  8
0
  6
CONTINUOUS
 10
5.748160
 20
3.308360
  0
VERTEX
  8
0
  6
CONTINUOUS
 10
5.729240
 20
3.318480
  0
VERTEX
  8
0
  6
CONTINUOUS
 10
5.708120
 20
3.325080
  0
VERTEX
  8
0
  6
CONTINUOUS
 10
5.685680
 20
3.327280
  0
VERTEX
  8
0
  6
CONTINUOUS
 10
5.663240
 20
3.325080
  0
VERTEX
  8
0
  6
CONTINUOUS
 10
5.642120
 20
3.318480
  0
VERTEX
  8
0
  6
CONTINUOUS
 10
5.622760
 20
3.308360
  0
VERTEX
  8
0
  6
CONTINUOUS
 10
5.599000
 20
3.286360
  0
VERTEX
  8
0
  6
CONTINUOUS
 10
5.587120
 20
3.268760
  0
VERTEX
  8
0
  6
CONTINUOUS
 10
5.578320
 20
3.248520
  0
VERTEX
  8
0
  6
CONTINUOUS
 10
5.573920
 20
3.226960
  0
VERTEX
  8
0
  6
CONTINUOUS
 10
5.573480
 20
3.215520
  0
VERTEX
  8
0
  6
CONTINUOUS
 10
5.533440
 20
3.215520
  0
VERTEX
  8
0
  6
CONTINUOUS
 10
5.475800
 20
3.330800
  0
VERTEX
  8
0
  6
CONTINUOUS
 10
5.003680
 20
3.330800
  0
VERTEX
  8
0
  6
CONTINUOUS
 10
5.003680
 20
3.280640
  0
VERTEX
  8
0
  6
CONTINUOUS
 10
4.975080
 20
3.279760
  0
VERTEX
  8
0
  6
CONTINUOUS
 10
4.950000
 20
3.276240
  0
VERTEX
  8
0
  6
CONTINUOUS
 10
4.917880
 20
3.267000
  0
VERTEX
  8
0
  6
CONTINUOUS
 10
4.892800
 20
3.253800
  0
VERTEX
  8
0
  6
CONTINUOUS
 10
4.873440
 20
3.237080
  0
VERTEX
  8
0
  6
CONTINUOUS
 10
4.867720
 20
3.231360
  0
VERTEX
  8
0
  6
CONTINUOUS
 10
4.851440
 20
3.204960
  0
VERTEX
  8
0
  6
CONTINUOUS
 10
4.841760
 20
3.177240
  0
VERTEX
  8
0
  6
CONTINUOUS
 10
4.836040
 20
3.137200
  0
VERTEX
  8
0
  6
CONTINUOUS
 10
4.835600
 20
3.114320
  0
VERTEX
  8
0
  6
CONTINUOUS
 10
4.709760
 20
3.114320
  0
VERTEX
  8
0
  6
CONTINUOUS
 10
4.709760
 20
2.516360
  0
VERTEX
  8
0
  6
CONTINUOUS
 10
6.858280
 20
2.516360
  0
VERTEX
  8
0
  6
CONTINUOUS
 10
6.858280
 20
3.014000
  0
VERTEX
  8
0
  6
CONTINUOUS
 10
7.158800
 20
3.014000
  0
VERTEX
  8
0
  6
CONTINUOUS
 10
7.158800
 20
3.106840
  0
VERTEX
  8
0
  6
CONTINUOUS
 10
7.061120
 20
3.106840
  0
VERTEX
  8
0
  6
CONTINUOUS
 10
7.060240
 20
3.107720
  0
VERTEX
  8
0
  6
CONTINUOUS
 10
7.056720
 20
3.142920
  0
VERTEX
  8
0
  6
CONTINUOUS
 10
7.049240
 20
3.176360
  0
VERTEX
  8
0
  6
CONTINUOUS
 10
7.036920
 20
3.207160
  0
VERTEX
  8
0
  6
CONTINUOUS
 10
7.019760
 20
3.234000
  0
VERTEX
  8
0
  6
CONTINUOUS
 10
6.997320
 20
3.256000
  0
VERTEX
  8
0
  6
CONTINUOUS
 10
6.983680
 20
3.265240
  0
VERTEX
  8
0
  6
CONTINUOUS
 10
6.969160
 20
3.272720
  0
VERTEX
  8
0
  6
CONTINUOUS
 10
6.952880
 20
3.278880
  0
VERTEX
  8
0
  6
CONTINUOUS
 10
6.934840
 20
3.283280
  0
VERTEX
  8
0
  6
CONTINUOUS
 10
6.904920
 20
3.286800
  0
VERTEX
  8
0
  6
CONTINUOUS
 10
6.894360
 20
3.286800
  0
VERTEX
  8
0
  6
CONTINUOUS
 10
6.875880
 20
3.330360
  0
VERTEX
  8
0
  6
CONTINUOUS
 10
6.383960
 20
3.329920
  0
VERTEX
  8
0
  6
CONTINUOUS
 10
6.341280
 20
3.217280
  0
VERTEX
  8
0
  6
CONTINUOUS
 10
6.339080
 20
3.213760
  0
VERTEX
  8
0
  6
CONTINUOUS
 10
6.303440
 20
3.214200
  0
VERTEX
  8
0
  6
CONTINUOUS
 10
6.302560
 20
3.215080
  0
VERTEX
  8
0
  6
CONTINUOUS
 10
6.300360
 20
3.237520
  0
VERTEX
  8
0
  6
CONTINUOUS
 10
6.293760
 20
3.258640
  0
VERTEX
  8
0
  6
CONTINUOUS
 10
6.283200
 20
3.277560
  0
VERTEX
  8
0
  6
CONTINUOUS
 10
6.269560
 20
3.293840
  0
VERTEX
  8
0
  6
CONTINUOUS
 10
6.253280
 20
3.307920
  0
VERTEX
  8
0
  6
CONTINUOUS
 10
6.223800
 20
3.322000
  0
VERTEX
  8
0
  6
CONTINUOUS
 10
6.201800
 20
3.326400
  0
VERTEX
  8
0
  6
CONTINUOUS
 10
6.178920
 20
3.326400
  0
VERTEX
  8
0
  6
CONTINUOUS
 10
6.157360
 20
3.322000
  0
VERTEX
  8
0
  6
CONTINUOUS
 10
6.137120
 20
3.313200
  0
VERTEX
  8
0
  6
CONTINUOUS
 10
6.119520
 20
3.301320
  0
VERTEX
  8
0
  6
CONTINUOUS
 10
6.097520
 20
3.277560
  0
VERTEX
  8
0
  6
CONTINUOUS
 10
6.087400
 20
3.258640
  0
VERTEX
  8
0
  6
CONTINUOUS
 10
6.080800
 20
3.237520
  0
VERTEX
  8
0
  6
CONTINUOUS
 10
6.078600
 20
3.215080
  0
VERTEX
  8
0
  6
CONTINUOUS
 10
6.047360
 20
3.215520
  0
VERTEX
  8
0
  6
CONTINUOUS
 10
6.045160
 20
3.237960
  0
VERTEX
  8
0
  6
CONTINUOUS
 10
6.038560
 20
3.259080
  0
VERTEX
  8
0
  6
CONTINUOUS
 10
6.028440
 20
3.278000
  0
VERTEX
  8
0
  6
CONTINUOUS
 10
6.014800
 20
3.294280
  0
VERTEX
  8
0
  6
CONTINUOUS
 10
5.998080
 20
3.308360
  0
VERTEX
  8
0
  6
CONTINUOUS
 10
5.979160
 20
3.318480
  0
VERTEX
  8
0
  6
CONTINUOUS
 10
5.958040
 20
3.325080
  0
VERTEX
  8
0
  6
CONTINUOUS
 10
5.935600
 20
3.327280
  0
VERTEX
  8
0
  6
CONTINUOUS
 10
5.913160
 20
3.325080
  0
VERTEX
  8
0
  6
CONTINUOUS
 10
5.892040
 20
3.318480
  0
VERTEX
  8
0
  6
CONTINUOUS
 10
5.872680
 20
3.308360
  0
VERTEX
  8
0
  6
CONTINUOUS
 10
5.848920
 20
3.286360
  0
VERTEX
  8
0
  6
CONTINUOUS
 10
5.837040
 20
3.268760
  0
VERTEX
  8
0
  6
CONTINUOUS
 10
5.828240
 20
3.248520
  0
VERTEX
  8
0
  6
CONTINUOUS
 10
5.823840
 20
3.226960
  0
VERTEX
  8
0
  6
CONTINUOUS
 10
5.823400
 20
3.215520
  0
VERTEX
  8
0
  6
CONTINUOUS
 10
5.800960
 20
3.215520
  0
VERTEX
  8
0
  6
CONTINUOUS
 10
5.806680
 20
3.215520
  0
SEQEND
  8
0
  0
SOLID
  8
0
 62
    15
 10
3.695560
 20
1.266760
 11
4.442680
 21
1.267200
 12
3.652000
 22
1.248280
 13
4.399120
 23
1.248720
  0
POLYLINE
  8
0
  6
CONTINUOUS
 66
     1
 40
0.000000
 41
0.000000
  0
VERTEX
  8
0
  6
CONTINUOUS
 10
3.695560
 20
1.266760
  0
VERTEX
  8
0
  6
CONTINUOUS
 10
4.442680
 20
1.267200
  0
VERTEX
  8
0
  6
CONTINUOUS
 10
4.399120
 20
1.248720
  0
VERTEX
  8
0
  6
CONTINUOUS
 10
3.652000
 20
1.248280
  0
VERTEX
  8
0
  6
CONTINUOUS
 10
3.695560
 20
1.266760
  0
SEQEND
  8
0
  0
SOLID
  8
0
 62
    15
 10
3.580720
 20
2.319240
 11
4.327840
 21
2.319680
 12
3.603160
 22
2.317040
 13
4.350280
 23
2.317480
  0
POLYLINE
  8
0
  6
CONTINUOUS
 66
     1
 40
0.000000
 41
0.000000
  0
VERTEX
  8
0
  6
CONTINUOUS
 10
3.580720
 20
2.319240
  0
VERTEX
  8
0
  6
CONTINUOUS
 10
4.327840
 20
2.319680
  0
VERTEX
  8
0
  6
CONTINUOUS
 10
4.350280
 20
2.317480
  0
VERTEX
  8
0
  6
CONTINUOUS
 10
3.603160
 20
2.317040
  0
VERTEX
  8
0
  6
CONTINUOUS
 10
3.580720
 20
2.319240
  0
SEQEND
  8
0
  0
SOLID
  8
0
 62
    15
 10
3.603160
 20
2.317040
 11
4.350280
 21
2.317480
 12
3.624280
 22
2.310440
 13
4.371400
 23
2.310880
  0
POLYLINE
  8
0
  6
CONTINUOUS
 66
     1
 40
0.000000
 41
0.000000
  0
VERTEX
  8
0
  6
CONTINUOUS
 10
3.603160
 20
2.317040
  0
VERTEX
  8
0
  6
CONTINUOUS
 10
4.350280
 20
2.317480
  0
VERTEX
  8
0
  6
CONTINUOUS
 10
4.371400
 20
2.310880
  0
VERTEX
  8
0
  6
CONTINUOUS
 10
3.624280
 20
2.310440
  0
VERTEX
  8
0
  6
CONTINUOUS
 10
3.603160
 20
2.317040
  0
SEQEND
  8
0
  0
SOLID
  8
0
 62
    15
 10
3.624280
 20
2.310440
 11
4.371400
 21
2.310880
 12
3.643200
 22
2.299880
 13
4.390320
 23
2.300320
  0
POLYLINE
  8
0
  6
CONTINUOUS
 66
     1
 40
0.000000
 41
0.000000
  0
VERTEX
  8
0
  6
CONTINUOUS
 10
3.624280
 20
2.310440
  0
VERTEX
  8
0
  6
CONTINUOUS
 10
4.371400
 20
2.310880
  0
VERTEX
  8
0
  6
CONTINUOUS
 10
4.390320
 20
2.300320
  0
VERTEX
  8
0
  6
CONTINUOUS
 10
3.643200
 20
2.299880
  0
VERTEX
  8
0
  6
CONTINUOUS
 10
3.624280
 20
2.310440
  0
SEQEND
  8
0
  0
SOLID
  8
0
 62
    15
 10
3.643200
 20
2.299880
 11
4.390320
 21
2.300320
 12
3.659920
 22
2.286240
 13
4.407040
 23
2.286680
  0
POLYLINE
  8
0
  6
CONTINUOUS
 66
     1
 40
0.000000
 41
0.000000
  0
VERTEX
  8
0
  6
CONTINUOUS
 10
3.643200
 20
2.299880
  0
VERTEX
  8
0
  6
CONTINUOUS
 10
4.390320
 20
2.300320
  0
VERTEX
  8
0
  6
CONTINUOUS
 10
4.407040
 20
2.286680
  0
VERTEX
  8
0
  6
CONTINUOUS
 10
3.659920
 20
2.286240
  0
VERTEX
  8
0
  6
CONTINUOUS
 10
3.643200
 20
2.299880
  0
SEQEND
  8
0
  0
SOLID
  8
0
 62
    15
 10
3.659920
 20
2.286240
 11
4.407040
 21
2.286680
 12
3.673560
 22
2.269960
 13
4.420680
 23
2.270400
  0
POLYLINE
  8
0
  6
CONTINUOUS
 66
     1
 40
0.000000
 41
0.000000
  0
VERTEX
  8
0
  6
CONTINUOUS
 10
3.659920
 20
2.286240
  0
VERTEX
  8
0
  6
CONTINUOUS
 10
4.407040
 20
2.286680
  0
VERTEX
  8
0
  6
CONTINUOUS
 10
4.420680
 20
2.270400
  0
VERTEX
  8
0
  6
CONTINUOUS
 10
3.673560
 20
2.269960
  0
VERTEX
  8
0
  6
CONTINUOUS
 10
3.659920
 20
2.286240
  0
SEQEND
  8
0
  0
SOLID
  8
0
 62
    15
 10
3.673560
 20
2.269960
 11
4.420680
 21
2.270400
 12
3.683680
 22
2.250600
 13
4.431240
 23
2.251040
  0
POLYLINE
  8
0
  6
CONTINUOUS
 66
     1
 40
0.000000
 41
0.000000
  0
VERTEX
  8
0
  6
CONTINUOUS
 10
3.673560
 20
2.269960
  0
VERTEX
  8
0
  6
CONTINUOUS
 10
4.420680
 20
2.270400
  0
VERTEX
  8
0
  6
CONTINUOUS
 10
4.431240
 20
2.251040
  0
VERTEX
  8
0
  6
CONTINUOUS
 10
3.683680
 20
2.250600
  0
VERTEX
  8
0
  6
CONTINUOUS
 10
3.673560
 20
2.269960
  0
SEQEND
  8
0
  0
SOLID
  8
0
 62
    15
 10
3.683680
 20
2.250600
 11
4.431240
 21
2.251040
 12
3.690280
 22
2.229920
 13
4.437400
 23
2.230360
  0
POLYLINE
  8
0
  6
CONTINUOUS
 66
     1
 40
0.000000
 41
0.000000
  0
VERTEX
  8
0
  6
CONTINUOUS
 10
3.683680
 20
2.250600
  0
VERTEX
  8
0
  6
CONTINUOUS
 10
4.431240
 20
2.251040
  0
VERTEX
  8
0
  6
CONTINUOUS
 10
4.437400
 20
2.230360
  0
VERTEX
  8
0
  6
CONTINUOUS
 10
3.690280
 20
2.229920
  0
VERTEX
  8
0
  6
CONTINUOUS
 10
3.683680
 20
2.250600
  0
SEQEND
  8
0
  0
SOLID
  8
0
 62
    15
 10
3.690280
 20
2.229920
 11
4.437400
 21
2.230360
 12
3.692480
 22
2.207040
 13
4.439600
 23
2.207480
  0
POLYLINE
  8
0
  6
CONTINUOUS
 66
     1
 40
0.000000
 41
0.000000
  0
VERTEX
  8
0
  6
CONTINUOUS
 10
3.690280
 20
2.229920
  0
VERTEX
  8
0
  6
CONTINUOUS
 10
4.437400
 20
2.230360
  0
VERTEX
  8
0
  6
CONTINUOUS
 10
4.439600
 20
2.207480
  0
VERTEX
  8
0
  6
CONTINUOUS
 10
3.692480
 20
2.207040
  0
VERTEX
  8
0
  6
CONTINUOUS
 10
3.690280
 20
2.229920
  0
SEQEND
  8
0
  0
SOLID
  8
0
 62
    15
 10
3.692480
 20
2.207040
 11
4.439600
 21
2.207480
 12
3.690280
 22
2.184600
 13
4.437400
 23
2.185040
  0
POLYLINE
  8
0
  6
CONTINUOUS
 66
     1
 40
0.000000
 41
0.000000
  0
VERTEX
  8
0
  6
CONTINUOUS
 10
3.692480
 20
2.207040
  0
VERTEX
  8
0
  6
CONTINUOUS
 10
4.439600
 20
2.207480
  0
VERTEX
  8
0
  6
CONTINUOUS
 10
4.437400
 20
2.185040
  0
VERTEX
  8
0
  6
CONTINUOUS
 10
3.690280
 20
2.184600
  0
VERTEX
  8
0
  6
CONTINUOUS
 10
3.692480
 20
2.207040
  0
SEQEND
  8
0
  0
SOLID
  8
0
 62
    15
 10
3.690280
 20
2.184600
 11
4.437400
 21
2.185040
 12
3.683680
 22
2.163480
 13
4.431240
 23
2.163920
  0
POLYLINE
  8
0
  6
CONTINUOUS
 66
     1
 40
0.000000
 41
0.000000
  0
VERTEX
  8
0
  6
CONTINUOUS
 10
3.690280
 20
2.184600
  0
VERTEX
  8
0
  6
CONTINUOUS
 10
4.437400
 20
2.185040
  0
VERTEX
  8
0
  6
CONTINUOUS
 10
4.431240
 20
2.163920
  0
VERTEX
  8
0
  6
CONTINUOUS
 10
3.683680
 20
2.163480
  0
VERTEX
  8
0
  6
CONTINUOUS
 10
3.690280
 20
2.184600
  0
SEQEND
  8
0
  0
SOLID
  8
0
 62
    15
 10
3.683680
 20
2.163480
 11
4.431240
 21
2.163920
 12
3.673560
 22
2.144560
 13
4.420680
 23
2.145000
  0
POLYLINE
  8
0
  6
CONTINUOUS
 66
     1
 40
0.000000
 41
0.000000
  0
VERTEX
  8
0
  6
CONTINUOUS
 10
3.683680
 20
2.163480
  0
VERTEX
  8
0
  6
CONTINUOUS
 10
4.431240
 20
2.163920
  0
VERTEX
  8
0
  6
CONTINUOUS
 10
4.420680
 20
2.145000
  0
VERTEX
  8
0
  6
CONTINUOUS
 10
3.673560
 20
2.144560
  0
VERTEX
  8
0
  6
CONTINUOUS
 10
3.683680
 20
2.163480
  0
SEQEND
  8
0
  0
SOLID
  8
0
 62
    15
 10
3.673560
 20
2.144560
 11
4.420680
 21
2.145000
 12
3.659920
 22
2.127840
 13
4.407040
 23
2.128280
  0
POLYLINE
  8
0
  6
CONTINUOUS
 66
     1
 40
0.000000
 41
0.000000
  0
VERTEX
  8
0
  6
CONTINUOUS
 10
3.673560
 20
2.144560
  0
VERTEX
  8
0
  6
CONTINUOUS
 10
4.420680
 20
2.145000
  0
VERTEX
  8
0
  6
CONTINUOUS
 10
4.407040
 20
2.128280
  0
VERTEX
  8
0
  6
CONTINUOUS
 10
3.659920
 20
2.127840
  0
VERTEX
  8
0
  6
CONTINUOUS
 10
3.673560
 20
2.144560
  0
SEQEND
  8
0
  0
SOLID
  8
0
 62
    15
 10
3.659920
 20
2.127840
 11
4.407040
 21
2.128280
 12
3.643200
 22
2.114200
 13
4.390320
 23
2.114640
  0
POLYLINE
  8
0
  6
CONTINUOUS
 66
     1
 40
0.000000
 41
0.000000
  0
VERTEX
  8
0
  6
CONTINUOUS
 10
3.659920
 20
2.127840
  0
VERTEX
  8
0
  6
CONTINUOUS
 10
4.407040
 20
2.128280
  0
VERTEX
  8
0
  6
CONTINUOUS
 10
4.390320
 20
2.114640
  0
VERTEX
  8
0
  6
CONTINUOUS
 10
3.643200
 20
2.114200
  0
VERTEX
  8
0
  6
CONTINUOUS
 10
3.659920
 20
2.127840
  0
SEQEND
  8
0
  0
SOLID
  8
0
 62
    15
 10
3.643200
 20
2.114200
 11
4.390320
 21
2.114640
 12
3.624280
 22
2.104080
 13
4.371400
 23
2.104520
  0
POLYLINE
  8
0
  6
CONTINUOUS
 66
     1
 40
0.000000
 41
0.000000
  0
VERTEX
  8
0
  6
CONTINUOUS
 10
3.643200
 20
2.114200
  0
VERTEX
  8
0
  6
CONTINUOUS
 10
4.390320
 20
2.114640
  0
VERTEX
  8
0
  6
CONTINUOUS
 10
4.371400
 20
2.104520
  0
VERTEX
  8
0
  6
CONTINUOUS
 10
3.624280
 20
2.104080
  0
VERTEX
  8
0
  6
CONTINUOUS
 10
3.643200
 20
2.114200
  0
SEQEND
  8
0
  0
SOLID
  8
0
 62
    15
 10
3.624280
 20
2.104080
 11
4.371400
 21
2.104520
 12
3.603160
 22
2.097480
 13
4.350280
 23
2.097920
  0
POLYLINE
  8
0
  6
CONTINUOUS
 66
     1
 40
0.000000
 41
0.000000
  0
VERTEX
  8
0
  6
CONTINUOUS
 10
3.624280
 20
2.104080
  0
VERTEX
  8
0
  6
CONTINUOUS
 10
4.371400
 20
2.104520
  0
VERTEX
  8
0
  6
CONTINUOUS
 10
4.350280
 20
2.097920
  0
VERTEX
  8
0
  6
CONTINUOUS
 10
3.603160
 20
2.097480
  0
VERTEX
  8
0
  6
CONTINUOUS
 10
3.624280
 20
2.104080
  0
SEQEND
  8
0
  0
SOLID
  8
0
 62
    15
 10
3.603160
 20
2.097480
 11
4.350280
 21
2.097920
 12
3.580720
 22
2.095280
 13
4.327840
 23
2.095720
  0
POLYLINE
  8
0
  6
CONTINUOUS
 66
     1
 40
0.000000
 41
0.000000
  0
VERTEX
  8
0
  6
CONTINUOUS
 10
3.603160
 20
2.097480
  0
VERTEX
  8
0
  6
CONTINUOUS
 10
4.350280
 20
2.097920
  0
VERTEX
  8
0
  6
CONTINUOUS
 10
4.327840
 20
2.095720
  0
VERTEX
  8
0
  6
CONTINUOUS
 10
3.580720
 20
2.095280
  0
VERTEX
  8
0
  6
CONTINUOUS
 10
3.603160
 20
2.097480
  0
SEQEND
  8
0
  0
SOLID
  8
0
 62
    15
 10
3.580720
 20
2.095280
 11
4.327840
 21
2.095720
 12
3.580720
 22
2.064480
 13
4.327840
 23
2.064920
  0
POLYLINE
  8
0
  6
CONTINUOUS
 66
     1
 40
0.000000
 41
0.000000
  0
VERTEX
  8
0
  6
CONTINUOUS
 10
3.580720
 20
2.095280
  0
VERTEX
  8
0
  6
CONTINUOUS
 10
4.327840
 20
2.095720
  0
VERTEX
  8
0
  6
CONTINUOUS
 10
4.327840
 20
2.064920
  0
VERTEX
  8
0
  6
CONTINUOUS
 10
3.580720
 20
2.064480
  0
VERTEX
  8
0
  6
CONTINUOUS
 10
3.580720
 20
2.095280
  0
SEQEND
  8
0
  0
SOLID
  8
0
 62
    15
 10
3.580720
 20
2.064480
 11
4.327840
 21
2.064920
 12
3.580280
 22
2.064040
 13
4.327400
 23
2.064480
  0
POLYLINE
  8
0
  6
CONTINUOUS
 66
     1
 40
0.000000
 41
0.000000
  0
VERTEX
  8
0
  6
CONTINUOUS
 10
3.580720
 20
2.064480
  0
VERTEX
  8
0
  6
CONTINUOUS
 10
4.327840
 20
2.064920
  0
VERTEX
  8
0
  6
CONTINUOUS
 10
4.327400
 20
2.064480
  0
VERTEX
  8
0
  6
CONTINUOUS
 10
3.580280
 20
2.064040
  0
VERTEX
  8
0
  6
CONTINUOUS
 10
3.580720
 20
2.064480
  0
SEQEND
  8
0
  0
SOLID
  8
0
 62
    15
 10
3.580280
 20
2.064040
 11
4.327400
 21
2.064480
 12
3.602720
 22
2.061840
 13
4.349840
 23
2.062280
  0
POLYLINE
  8
0
  6
CONTINUOUS
 66
     1
 40
0.000000
 41
0.000000
  0
VERTEX
  8
0
  6
CONTINUOUS
 10
3.580280
 20
2.064040
  0
VERTEX
  8
0
  6
CONTINUOUS
 10
4.327400
 20
2.064480
  0
VERTEX
  8
0
  6
CONTINUOUS
 10
4.349840
 20
2.062280
  0
VERTEX
  8
0
  6
CONTINUOUS
 10
3.602720
 20
2.061840
  0
VERTEX
  8
0
  6
CONTINUOUS
 10
3.580280
 20
2.064040
  0
SEQEND
  8
0
  0
SOLID
  8
0
 62
    15
 10
3.602720
 20
2.061840
 11
4.349840
 21
2.062280
 12
3.623840
 22
2.055240
 13
4.370960
 23
2.055680
  0
POLYLINE
  8
0
  6
CONTINUOUS
 66
     1
 40
0.000000
 41
0.000000
  0
VERTEX
  8
0
  6
CONTINUOUS
 10
3.602720
 20
2.061840
  0
VERTEX
  8
0
  6
CONTINUOUS
 10
4.349840
 20
2.062280
  0
VERTEX
  8
0
  6
CONTINUOUS
 10
4.370960
 20
2.055680
  0
VERTEX
  8
0
  6
CONTINUOUS
 10
3.623840
 20
2.055240
  0
VERTEX
  8
0
  6
CONTINUOUS
 10
3.602720
 20
2.061840
  0
SEQEND
  8
0
  0
SOLID
  8
0
 62
    15
 10
3.623840
 20
2.055240
 11
4.370960
 21
2.055680
 12
3.642760
 22
2.045120
 13
4.389880
 23
2.045560
  0
POLYLINE
  8
0
  6
CONTINUOUS
 66
     1
 40
0.000000
 41
0.000000
  0
VERTEX
  8
0
  6
CONTINUOUS
 10
3.623840
 20
2.055240
  0
VERTEX
  8
0
  6
CONTINUOUS
 10
4.370960
 20
2.055680
  0
VERTEX
  8
0
  6
CONTINUOUS
 10
4.389880
 20
2.045560
  0
VERTEX
  8
0
  6
CONTINUOUS
 10
3.642760
 20
2.045120
  0
VERTEX
  8
0
  6
CONTINUOUS
 10
3.623840
 20
2.055240
  0
SEQEND
  8
0
  0
SOLID
  8
0
 62
    15
 10
3.642760
 20
2.045120
 11
4.389880
 21
2.045560
 12
3.659040
 22
2.031040
 13
4.406600
 23
2.031920
  0
POLYLINE
  8
0
  6
CONTINUOUS
 66
     1
 40
0.000000
 41
0.000000
  0
VERTEX
  8
0
  6
CONTINUOUS
 10
3.642760
 20
2.045120
  0
VERTEX
  8
0
  6
CONTINUOUS
 10
4.389880
 20
2.045560
  0
VERTEX
  8
0
  6
CONTINUOUS
 10
4.406600
 20
2.031920
  0
VERTEX
  8
0
  6
CONTINUOUS
 10
3.659040
 20
2.031040
  0
VERTEX
  8
0
  6
CONTINUOUS
 10
3.642760
 20
2.045120
  0
SEQEND
  8
0
  0
SOLID
  8
0
 62
    15
 10
3.659040
 20
2.031040
 11
4.406600
 21
2.031920
 12
3.673120
 22
2.014760
 13
4.420240
 23
2.015200
  0
POLYLINE
  8
0
  6
CONTINUOUS
 66
     1
 40
0.000000
 41
0.000000
  0
VERTEX
  8
0
  6
CONTINUOUS
 10
3.659040
 20
2.031040
  0
VERTEX
  8
0
  6
CONTINUOUS
 10
4.406600
 20
2.031920
  0
VERTEX
  8
0
  6
CONTINUOUS
 10
4.420240
 20
2.015200
  0
VERTEX
  8
0
  6
CONTINUOUS
 10
3.673120
 20
2.014760
  0
VERTEX
  8
0
  6
CONTINUOUS
 10
3.659040
 20
2.031040
  0
SEQEND
  8
0
  0
SOLID
  8
0
 62
    15
 10
3.673120
 20
2.014760
 11
4.420240
 21
2.015200
 12
3.683240
 22
1.995840
 13
4.430360
 23
1.996280
  0
POLYLINE
  8
0
  6
CONTINUOUS
 66
     1
 40
0.000000
 41
0.000000
  0
VERTEX
  8
0
  6
CONTINUOUS
 10
3.673120
 20
2.014760
  0
VERTEX
  8
0
  6
CONTINUOUS
 10
4.420240
 20
2.015200
  0
VERTEX
  8
0
  6
CONTINUOUS
 10
4.430360
 20
1.996280
  0
VERTEX
  8
0
  6
CONTINUOUS
 10
3.683240
 20
1.995840
  0
VERTEX
  8
0
  6
CONTINUOUS
 10
3.673120
 20
2.014760
  0
SEQEND
  8
0
  0
SOLID
  8
0
 62
    15
 10
3.683240
 20
1.995840
 11
4.430360
 21
1.996280
 12
3.689840
 22
1.974720
 13
4.436960
 23
1.975160
  0
POLYLINE
  8
0
  6
CONTINUOUS
 66
     1
 40
0.000000
 41
0.000000
  0
VERTEX
  8
0
  6
CONTINUOUS
 10
3.683240
 20
1.995840
  0
VERTEX
  8
0
  6
CONTINUOUS
 10
4.430360
 20
1.996280
  0
VERTEX
  8
0
  6
CONTINUOUS
 10
4.436960
 20
1.975160
  0
VERTEX
  8
0
  6
CONTINUOUS
 10
3.689840
 20
1.974720
  0
VERTEX
  8
0
  6
CONTINUOUS
 10
3.683240
 20
1.995840
  0
SEQEND
  8
0
  0
SOLID
  8
0
 62
    15
 10
3.689840
 20
1.974720
 11
4.436960
 21
1.975160
 12
3.692040
 22
1.952280
 13
4.439160
 23
1.952720
  0
POLYLINE
  8
0
  6
CONTINUOUS
 66
     1
 40
0.000000
 41
0.000000
  0
VERTEX
  8
0
  6
CONTINUOUS
 10
3.689840
 20
1.974720
  0
VERTEX
  8
0
  6
CONTINUOUS
 10
4.436960
 20
1.975160
  0
VERTEX
  8
0
  6
CONTINUOUS
 10
4.439160
 20
1.952720
  0
VERTEX
  8
0
  6
CONTINUOUS
 10
3.692040
 20
1.952280
  0
VERTEX
  8
0
  6
CONTINUOUS
 10
3.689840
 20
1.974720
  0
SEQEND
  8
0
  0
SOLID
  8
0
 62
    15
 10
3.692040
 20
1.952280
 11
4.439160
 21
1.952720
 12
3.689840
 22
1.929400
 13
4.436960
 23
1.929840
  0
POLYLINE
  8
0
  6
CONTINUOUS
 66
     1
 40
0.000000
 41
0.000000
  0
VERTEX
  8
0
  6
CONTINUOUS
 10
3.692040
 20
1.952280
  0
VERTEX
  8
0
  6
CONTINUOUS
 10
4.439160
 20
1.952720
  0
VERTEX
  8
0
  6
CONTINUOUS
 10
4.436960
 20
1.929840
  0
VERTEX
  8
0
  6
CONTINUOUS
 10
3.689840
 20
1.929400
  0
VERTEX
  8
0
  6
CONTINUOUS
 10
3.692040
 20
1.952280
  0
SEQEND
  8
0
  0
SOLID
  8
0
 62
    15
 10
3.689840
 20
1.929400
 11
4.436960
 21
1.929840
 12
3.683240
 22
1.908280
 13
4.430360
 23
1.909160
  0
POLYLINE
  8
0
  6
CONTINUOUS
 66
     1
 40
0.000000
 41
0.000000
  0
VERTEX
  8
0
  6
CONTINUOUS
 10
3.689840
 20
1.929400
  0
VERTEX
  8
0
  6
CONTINUOUS
 10
4.436960
 20
1.929840
  0
VERTEX
  8
0
  6
CONTINUOUS
 10
4.430360
 20
1.909160
  0
VERTEX
  8
0
  6
CONTINUOUS
 10
3.683240
 20
1.908280
  0
VERTEX
  8
0
  6
CONTINUOUS
 10
3.689840
 20
1.929400
  0
SEQEND
  8
0
  0
SOLID
  8
0
 62
    15
 10
3.683240
 20
1.908280
 11
4.430360
 21
1.909160
 12
3.673120
 22
1.889360
 13
4.420240
 23
1.889800
  0
POLYLINE
  8
0
  6
CONTINUOUS
 66
     1
 40
0.000000
 41
0.000000
  0
VERTEX
  8
0
  6
CONTINUOUS
 10
3.683240
 20
1.908280
  0
VERTEX
  8
0
  6
CONTINUOUS
 10
4.430360
 20
1.909160
  0
VERTEX
  8
0
  6
CONTINUOUS
 10
4.420240
 20
1.889800
  0
VERTEX
  8
0
  6
CONTINUOUS
 10
3.673120
 20
1.889360
  0
VERTEX
  8
0
  6
CONTINUOUS
 10
3.683240
 20
1.908280
  0
SEQEND
  8
0
  0
SOLID
  8
0
 62
    15
 10
3.673120
 20
1.889360
 11
4.420240
 21
1.889800
 12
3.659040
 22
1.873080
 13
4.406600
 23
1.873520
  0
POLYLINE
  8
0
  6
CONTINUOUS
 66
     1
 40
0.000000
 41
0.000000
  0
VERTEX
  8
0
  6
CONTINUOUS
 10
3.673120
 20
1.889360
  0
VERTEX
  8
0
  6
CONTINUOUS
 10
4.420240
 20
1.889800
  0
VERTEX
  8
0
  6
CONTINUOUS
 10
4.406600
 20
1.873520
  0
VERTEX
  8
0
  6
CONTINUOUS
 10
3.659040
 20
1.873080
  0
VERTEX
  8
0
  6
CONTINUOUS
 10
3.673120
 20
1.889360
  0
SEQEND
  8
0
  0
SOLID
  8
0
 62
    15
 10
3.659040
 20
1.873080
 11
4.406600
 21
1.873520
 12
3.642760
 22
1.859440
 13
4.389880
 23
1.859880
  0
POLYLINE
  8
0
  6
CONTINUOUS
 66
     1
 40
0.000000
 41
0.000000
  0
VERTEX
  8
0
  6
CONTINUOUS
 10
3.659040
 20
1.873080
  0
VERTEX
  8
0
  6
CONTINUOUS
 10
4.406600
 20
1.873520
  0
VERTEX
  8
0
  6
CONTINUOUS
 10
4.389880
 20
1.859880
  0
VERTEX
  8
0
  6
CONTINUOUS
 10
3.642760
 20
1.859440
  0
VERTEX
  8
0
  6
CONTINUOUS
 10
3.659040
 20
1.873080
  0
SEQEND
  8
0
  0
SOLID
  8
0
 62
    15
 10
3.642760
 20
1.859440
 11
4.389880
 21
1.859880
 12
3.623840
 22
1.848880
 13
4.370960
 23
1.849320
  0
POLYLINE
  8
0
  6
CONTINUOUS
 66
     1
 40
0.000000
 41
0.000000
  0
VERTEX
  8
0
  6
CONTINUOUS
 10
3.642760
 20
1.859440
  0
VERTEX
  8
0
  6
CONTINUOUS
 10
4.389880
 20
1.859880
  0
VERTEX
  8
0
  6
CONTINUOUS
 10
4.370960
 20
1.849320
  0
VERTEX
  8
0
  6
CONTINUOUS
 10
3.623840
 20
1.848880
  0
VERTEX
  8
0
  6
CONTINUOUS
 10
3.642760
 20
1.859440
  0
SEQEND
  8
0
  0
SOLID
  8
0
 62
    15
 10
3.623840
 20
1.848880
 11
4.370960
 21
1.849320
 12
3.602720
 22
1.842280
 13
4.349840
 23
1.842720
  0
POLYLINE
  8
0
  6
CONTINUOUS
 66
     1
 40
0.000000
 41
0.000000
  0
VERTEX
  8
0
  6
CONTINUOUS
 10
3.623840
 20
1.848880
  0
VERTEX
  8
0
  6
CONTINUOUS
 10
4.370960
 20
1.849320
  0
VERTEX
  8
0
  6
CONTINUOUS
 10
4.349840
 20
1.842720
  0
VERTEX
  8
0
  6
CONTINUOUS
 10
3.602720
 20
1.842280
  0
VERTEX
  8
0
  6
CONTINUOUS
 10
3.623840
 20
1.848880
  0
SEQEND
  8
0
  0
SOLID
  8
0
 62
    15
 10
3.602720
 20
1.842280
 11
4.349840
 21
1.842720
 12
3.580280
 22
1.840080
 13
4.327400
 23
1.840520
  0
POLYLINE
  8
0
  6
CONTINUOUS
 66
     1
 40
0.000000
 41
0.000000
  0
VERTEX
  8
0
  6
CONTINUOUS
 10
3.602720
 20
1.842280
  0
VERTEX
  8
0
  6
CONTINUOUS
 10
4.349840
 20
1.842720
  0
VERTEX
  8
0
  6
CONTINUOUS
 10
4.327400
 20
1.840520
  0
VERTEX
  8
0
  6
CONTINUOUS
 10
3.580280
 20
1.840080
  0
VERTEX
  8
0
  6
CONTINUOUS
 10
3.602720
 20
1.842280
  0
SEQEND
  8
0
  0
SOLID
  8
0
 62
    15
 10
3.580280
 20
1.840080
 11
4.327400
 21
1.840520
 12
3.579400
 22
1.839200
 13
4.326520
 23
1.839640
  0
POLYLINE
  8
0
  6
CONTINUOUS
 66
     1
 40
0.000000
 41
0.000000
  0
VERTEX
  8
0
  6
CONTINUOUS
 10
3.580280
 20
1.840080
  0
VERTEX
  8
0
  6
CONTINUOUS
 10
4.327400
 20
1.840520
  0
VERTEX
  8
0
  6
CONTINUOUS
 10
4.326520
 20
1.839640
  0
VERTEX
  8
0
  6
CONTINUOUS
 10
3.579400
 20
1.839200
  0
VERTEX
  8
0
  6
CONTINUOUS
 10
3.580280
 20
1.840080
  0
SEQEND
  8
0
  0
SOLID
  8
0
 62
    15
 10
3.579400
 20
1.839200
 11
4.326520
 21
1.839640
 12
3.579400
 22
1.803560
 13
4.326520
 23
1.804440
  0
POLYLINE
  8
0
  6
CONTINUOUS
 66
     1
 40
0.000000
 41
0.000000
  0
VERTEX
  8
0
  6
CONTINUOUS
 10
3.579400
 20
1.839200
  0
VERTEX
  8
0
  6
CONTINUOUS
 10
4.326520
 20
1.839640
  0
VERTEX
  8
0
  6
CONTINUOUS
 10
4.326520
 20
1.804440
  0
VERTEX
  8
0
  6
CONTINUOUS
 10
3.579400
 20
1.803560
  0
VERTEX
  8
0
  6
CONTINUOUS
 10
3.579400
 20
1.839200
  0
SEQEND
  8
0
  0
SOLID
  8
0
 62
    15
 10
3.579400
 20
1.803560
 11
4.326520
 21
1.804440
 12
3.582480
 22
1.801360
 13
4.329600
 23
1.801800
  0
POLYLINE
  8
0
  6
CONTINUOUS
 66
     1
 40
0.000000
 41
0.000000
  0
VERTEX
  8
0
  6
CONTINUOUS
 10
3.579400
 20
1.803560
  0
VERTEX
  8
0
  6
CONTINUOUS
 10
4.326520
 20
1.804440
  0
VERTEX
  8
0
  6
CONTINUOUS
 10
4.329600
 20
1.801800
  0
VERTEX
  8
0
  6
CONTINUOUS
 10
3.582480
 20
1.801360
  0
VERTEX
  8
0
  6
CONTINUOUS
 10
3.579400
 20
1.803560
  0
SEQEND
  8
0
  0
SOLID
  8
0
 62
    15
 10
3.582480
 20
1.801360
 11
4.329600
 21
1.801800
 12
3.594800
 22
1.796080
 13
4.341920
 23
1.796520
  0
POLYLINE
  8
0
  6
CONTINUOUS
 66
     1
 40
0.000000
 41
0.000000
  0
VERTEX
  8
0
  6
CONTINUOUS
 10
3.582480
 20
1.801360
  0
VERTEX
  8
0
  6
CONTINUOUS
 10
4.329600
 20
1.801800
  0
VERTEX
  8
0
  6
CONTINUOUS
 10
4.341920
 20
1.796520
  0
VERTEX
  8
0
  6
CONTINUOUS
 10
3.594800
 20
1.796080
  0
VERTEX
  8
0
  6
CONTINUOUS
 10
3.582480
 20
1.801360
  0
SEQEND
  8
0
  0
SOLID
  8
0
 62
    15
 10
3.594800
 20
1.796080
 11
4.341920
 21
1.796520
 12
3.634840
 22
1.780680
 13
4.382400
 23
1.781120
  0
POLYLINE
  8
0
  6
CONTINUOUS
 66
     1
 40
0.000000
 41
0.000000
  0
VERTEX
  8
0
  6
CONTINUOUS
 10
3.594800
 20
1.796080
  0
VERTEX
  8
0
  6
CONTINUOUS
 10
4.341920
 20
1.796520
  0
VERTEX
  8
0
  6
CONTINUOUS
 10
4.382400
 20
1.781120
  0
VERTEX
  8
0
  6
CONTINUOUS
 10
3.634840
 20
1.780680
  0
VERTEX
  8
0
  6
CONTINUOUS
 10
3.594800
 20
1.796080
  0
SEQEND
  8
0
  0
SOLID
  8
0
 62
    15
 10
3.634840
 20
1.780680
 11
4.382400
 21
1.781120
 12
3.676200
 22
1.765280
 13
4.423760
 23
1.766160
  0
POLYLINE
  8
0
  6
CONTINUOUS
 66
     1
 40
0.000000
 41
0.000000
  0
VERTEX
  8
0
  6
CONTINUOUS
 10
3.634840
 20
1.780680
  0
VERTEX
  8
0
  6
CONTINUOUS
 10
4.382400
 20
1.781120
  0
VERTEX
  8
0
  6
CONTINUOUS
 10
4.423760
 20
1.766160
  0
VERTEX
  8
0
  6
CONTINUOUS
 10
3.676200
 20
1.765280
  0
VERTEX
  8
0
  6
CONTINUOUS
 10
3.634840
 20
1.780680
  0
SEQEND
  8
0
  0
SOLID
  8
0
 62
    15
 10
3.676200
 20
1.765280
 11
4.423760
 21
1.766160
 12
3.695560
 22
1.758680
 13
4.442680
 23
1.759120
  0
POLYLINE
  8
0
  6
CONTINUOUS
 66
     1
 40
0.000000
 41
0.000000
  0
VERTEX
  8
0
  6
CONTINUOUS
 10
3.676200
 20
1.765280
  0
VERTEX
  8
0
  6
CONTINUOUS
 10
4.423760
 20
1.766160
  0
VERTEX
  8
0
  6
CONTINUOUS
 10
4.442680
 20
1.759120
  0
VERTEX
  8
0
  6
CONTINUOUS
 10
3.695560
 20
1.758680
  0
VERTEX
  8
0
  6
CONTINUOUS
 10
3.676200
 20
1.765280
  0
SEQEND
  8
0
  0
SOLID
  8
0
 62
    15
 10
3.695560
 20
1.758680
 11
4.442680
 21
1.759120
 12
3.695560
 22
1.266760
 13
4.442680
 23
1.267200
  0
POLYLINE
  8
0
  6
CONTINUOUS
 66
     1
 40
0.000000
 41
0.000000
  0
VERTEX
  8
0
  6
CONTINUOUS
 10
3.695560
 20
1.758680
  0
VERTEX
  8
0
  6
CONTINUOUS
 10
4.442680
 20
1.759120
  0
VERTEX
  8
0
  6
CONTINUOUS
 10
4.442680
 20
1.267200
  0
VERTEX
  8
0
  6
CONTINUOUS
 10
3.695560
 20
1.266760
  0
VERTEX
  8
0
  6
CONTINUOUS
 10
3.695560
 20
1.758680
  0
SEQEND
  8
0
  0
SOLID
  8
0
 62
    15
 10
3.580280
 20
2.345200
 11
4.327840
 21
2.345640
 12
3.580280
 22
2.335960
 13
4.327840
 23
2.336400
  0
POLYLINE
  8
0
  6
CONTINUOUS
 66
     1
 40
0.000000
 41
0.000000
  0
VERTEX
  8
0
  6
CONTINUOUS
 10
3.580280
 20
2.345200
  0
VERTEX
  8
0
  6
CONTINUOUS
 10
4.327840
 20
2.345640
  0
VERTEX
  8
0
  6
CONTINUOUS
 10
4.327840
 20
2.336400
  0
VERTEX
  8
0
  6
CONTINUOUS
 10
3.580280
 20
2.335960
  0
VERTEX
  8
0
  6
CONTINUOUS
 10
3.580280
 20
2.345200
  0
SEQEND
  8
0
  0
SOLID
  8
0
 62
    15
 10
3.652000
 20
1.248280
 11
4.399120
 21
1.248720
 12
3.648480
 22
1.207800
 13
4.396040
 23
1.208240
  0
POLYLINE
  8
0
  6
CONTINUOUS
 66
     1
 40
0.000000
 41
0.000000
  0
VERTEX
  8
0
  6
CONTINUOUS
 10
3.652000
 20
1.248280
  0
VERTEX
  8
0
  6
CONTINUOUS
 10
4.399120
 20
1.248720
  0
VERTEX
  8
0
  6
CONTINUOUS
 10
4.396040
 20
1.208240
  0
VERTEX
  8
0
  6
CONTINUOUS
 10
3.648480
 20
1.207800
  0
VERTEX
  8
0
  6
CONTINUOUS
 10
3.652000
 20
1.248280
  0
SEQEND
  8
0
  0
SOLID
  8
0
 62
    15
 10
3.648480
 20
1.207800
 11
4.396040
 21
1.208240
 12
3.638360
 22
1.173480
 13
4.385480
 23
1.173920
  0
POLYLINE
  8
0
  6
CONTINUOUS
 66
     1
 40
0.000000
 41
0.000000
  0
VERTEX
  8
0
  6
CONTINUOUS
 10
3.648480
 20
1.207800
  0
VERTEX
  8
0
  6
CONTINUOUS
 10
4.396040
 20
1.208240
  0
VERTEX
  8
0
  6
CONTINUOUS
 10
4.385480
 20
1.173920
  0
VERTEX
  8
0
  6
CONTINUOUS
 10
3.638360
 20
1.173480
  0
VERTEX
  8
0
  6
CONTINUOUS
 10
3.648480
 20
1.207800
  0
SEQEND
  8
0
  0
SOLID
  8
0
 62
    15
 10
3.638360
 20
1.173480
 11
4.385480
 21
1.173920
 12
3.621200
 22
1.145320
 13
4.368760
 23
1.145760
  0
POLYLINE
  8
0
  6
CONTINUOUS
 66
     1
 40
0.000000
 41
0.000000
  0
VERTEX
  8
0
  6
CONTINUOUS
 10
3.638360
 20
1.173480
  0
VERTEX
  8
0
  6
CONTINUOUS
 10
4.385480
 20
1.173920
  0
VERTEX
  8
0
  6
CONTINUOUS
 10
4.368760
 20
1.145760
  0
VERTEX
  8
0
  6
CONTINUOUS
 10
3.621200
 20
1.145320
  0
VERTEX
  8
0
  6
CONTINUOUS
 10
3.638360
 20
1.173480
  0
SEQEND
  8
0
  0
SOLID
  8
0
 62
    15
 10
3.621200
 20
1.145320
 11
4.368760
 21
1.145760
 12
3.599200
 22
1.122880
 13
4.346320
 23
1.123320
  0
POLYLINE
  8
0
  6
CONTINUOUS
 66
     1
 40
0.000000
 41
0.000000
  0
VERTEX
  8
0
  6
CONTINUOUS
 10
3.621200
 20
1.145320
  0
VERTEX
  8
0
  6
CONTINUOUS
 10
4.368760
 20
1.145760
  0
VERTEX
  8
0
  6
CONTINUOUS
 10
4.346320
 20
1.123320
  0
VERTEX
  8
0
  6
CONTINUOUS
 10
3.599200
 20
1.122880
  0
VERTEX
  8
0
  6
CONTINUOUS
 10
3.621200
 20
1.145320
  0
SEQEND
  8
0
  0
SOLID
  8
0
 62
    15
 10
3.599200
 20
1.122880
 11
4.346320
 21
1.123320
 12
3.572360
 22
1.105720
 13
4.319480
 23
1.106160
  0
POLYLINE
  8
0
  6
CONTINUOUS
 66
     1
 40
0.000000
 41
0.000000
  0
VERTEX
  8
0
  6
CONTINUOUS
 10
3.599200
 20
1.122880
  0
VERTEX
  8
0
  6
CONTINUOUS
 10
4.346320
 20
1.123320
  0
VERTEX
  8
0
  6
CONTINUOUS
 10
4.319480
 20
1.106160
  0
VERTEX
  8
0
  6
CONTINUOUS
 10
3.572360
 20
1.105720
  0
VERTEX
  8
0
  6
CONTINUOUS
 10
3.599200
 20
1.122880
  0
SEQEND
  8
0
  0
SOLID
  8
0
 62
    15
 10
3.572360
 20
1.105720
 11
4.319480
 21
1.106160
 12
3.541560
 22
1.093400
 13
4.289120
 23
1.093840
  0
POLYLINE
  8
0
  6
CONTINUOUS
 66
     1
 40
0.000000
 41
0.000000
  0
VERTEX
  8
0
  6
CONTINUOUS
 10
3.572360
 20
1.105720
  0
VERTEX
  8
0
  6
CONTINUOUS
 10
4.319480
 20
1.106160
  0
VERTEX
  8
0
  6
CONTINUOUS
 10
4.289120
 20
1.093840
  0
VERTEX
  8
0
  6
CONTINUOUS
 10
3.541560
 20
1.093400
  0
VERTEX
  8
0
  6
CONTINUOUS
 10
3.572360
 20
1.105720
  0
SEQEND
  8
0
  0
SOLID
  8
0
 62
    15
 10
3.472920
 20
1.082400
 11
4.220480
 21
1.082840
 12
3.472040
 22
1.081520
 13
4.219160
 23
1.081960
  0
POLYLINE
  8
0
  6
CONTINUOUS
 66
     1
 40
0.000000
 41
0.000000
  0
VERTEX
  8
0
  6
CONTINUOUS
 10
3.472920
 20
1.082400
  0
VERTEX
  8
0
  6
CONTINUOUS
 10
4.220480
 20
1.082840
  0
VERTEX
  8
0
  6
CONTINUOUS
 10
4.219160
 20
1.081960
  0
VERTEX
  8
0
  6
CONTINUOUS
 10
3.472040
 20
1.081520
  0
VERTEX
  8
0
  6
CONTINUOUS
 10
3.472920
 20
1.082400
  0
SEQEND
  8
0
  0
SOLID
  8
0
 62
    15
 10
3.508560
 20
1.085920
 11
4.255680
 21
1.086360
 12
3.472920
 22
1.082400
 13
4.220480
 23
1.082840
  0
POLYLINE
  8
0
  6
CONTINUOUS
 66
     1
 40
0.000000
 41
0.000000
  0
VERTEX
  8
0
  6
CONTINUOUS
 10
3.508560
 20
1.085920
  0
VERTEX
  8
0
  6
CONTINUOUS
 10
4.255680
 20
1.086360
  0
VERTEX
  8
0
  6
CONTINUOUS
 10
4.220480
 20
1.082840
  0
VERTEX
  8
0
  6
CONTINUOUS
 10
3.472920
 20
1.082400
  0
VERTEX
  8
0
  6
CONTINUOUS
 10
3.508560
 20
1.085920
  0
SEQEND
  8
0
  0
SOLID
  8
0
 62
    15
 10
3.541560
 20
1.093400
 11
4.289120
 21
1.093840
 12
3.508560
 22
1.085920
 13
4.255680
 23
1.086360
  0
POLYLINE
  8
0
  6
CONTINUOUS
 66
     1
 40
0.000000
 41
0.000000
  0
VERTEX
  8
0
  6
CONTINUOUS
 10
3.541560
 20
1.093400
  0
VERTEX
  8
0
  6
CONTINUOUS
 10
4.289120
 20
1.093840
  0
VERTEX
  8
0
  6
CONTINUOUS
 10
4.255680
 20
1.086360
  0
VERTEX
  8
0
  6
CONTINUOUS
 10
3.508560
 20
1.085920
  0
VERTEX
  8
0
  6
CONTINUOUS
 10
3.541560
 20
1.093400
  0
SEQEND
  8
0
  0
SOLID
  8
0
 62
    15
 10
3.472040
 20
1.081520
 11
4.219160
 21
1.081960
 12
3.472040
 22
0.983840
 13
4.219160
 23
0.984280
  0
POLYLINE
  8
0
  6
CONTINUOUS
 66
     1
 40
0.000000
 41
0.000000
  0
VERTEX
  8
0
  6
CONTINUOUS
 10
3.472040
 20
1.081520
  0
VERTEX
  8
0
  6
CONTINUOUS
 10
4.219160
 20
1.081960
  0
VERTEX
  8
0
  6
CONTINUOUS
 10
4.219160
 20
0.984280
  0
VERTEX
  8
0
  6
CONTINUOUS
 10
3.472040
 20
0.983840
  0
VERTEX
  8
0
  6
CONTINUOUS
 10
3.472040
 20
1.081520
  0
SEQEND
  8
0
  0
SOLID
  8
0
 62
    15
 10
2.881560
 20
3.432880
 11
3.628680
 21
3.433320
 12
3.479520
 22
3.432880
 13
4.227080
 23
3.433320
  0
POLYLINE
  8
0
  6
CONTINUOUS
 66
     1
 40
0.000000
 41
0.000000
  0
VERTEX
  8
0
  6
CONTINUOUS
 10
2.881560
 20
3.432880
  0
VERTEX
  8
0
  6
CONTINUOUS
 10
3.628680
 20
3.433320
  0
VERTEX
  8
0
  6
CONTINUOUS
 10
4.227080
 20
3.433320
  0
VERTEX
  8
0
  6
CONTINUOUS
 10
3.479520
 20
3.432880
  0
VERTEX
  8
0
  6
CONTINUOUS
 10
2.881560
 20
3.432880
  0
SEQEND
  8
0
  0
SOLID
  8
0
 62
    15
 10
3.479520
 20
3.432880
 11
4.227080
 21
3.433320
 12
3.479520
 22
3.307040
 13
4.227080
 23
3.307480
  0
POLYLINE
  8
0
  6
CONTINUOUS
 66
     1
 40
0.000000
 41
0.000000
  0
VERTEX
  8
0
  6
CONTINUOUS
 10
3.479520
 20
3.432880
  0
VERTEX
  8
0
  6
CONTINUOUS
 10
4.227080
 20
3.433320
  0
VERTEX
  8
0
  6
CONTINUOUS
 10
4.227080
 20
3.307480
  0
VERTEX
  8
0
  6
CONTINUOUS
 10
3.479520
 20
3.307040
  0
VERTEX
  8
0
  6
CONTINUOUS
 10
3.479520
 20
3.432880
  0
SEQEND
  8
0
  0
SOLID
  8
0
 62
    15
 10
3.479520
 20
3.307040
 11
4.227080
 21
3.307480
 12
3.502400
 22
3.306600
 13
4.249520
 23
3.307040
  0
POLYLINE
  8
0
  6
CONTINUOUS
 66
     1
 40
0.000000
 41
0.000000
  0
VERTEX
  8
0
  6
CONTINUOUS
 10
3.479520
 20
3.307040
  0
VERTEX
  8
0
  6
CONTINUOUS
 10
4.227080
 20
3.307480
  0
VERTEX
  8
0
  6
CONTINUOUS
 10
4.249520
 20
3.307040
  0
VERTEX
  8
0
  6
CONTINUOUS
 10
3.502400
 20
3.306600
  0
VERTEX
  8
0
  6
CONTINUOUS
 10
3.479520
 20
3.307040
  0
SEQEND
  8
0
  0
SOLID
  8
0
 62
    15
 10
3.502400
 20
3.306600
 11
4.249520
 21
3.307040
 12
3.528800
 22
3.303520
 13
4.275920
 23
3.303960
  0
POLYLINE
  8
0
  6
CONTINUOUS
 66
     1
 40
0.000000
 41
0.000000
  0
VERTEX
  8
0
  6
CONTINUOUS
 10
3.502400
 20
3.306600
  0
VERTEX
  8
0
  6
CONTINUOUS
 10
4.249520
 20
3.307040
  0
VERTEX
  8
0
  6
CONTINUOUS
 10
4.275920
 20
3.303960
  0
VERTEX
  8
0
  6
CONTINUOUS
 10
3.528800
 20
3.303520
  0
VERTEX
  8
0
  6
CONTINUOUS
 10
3.502400
 20
3.306600
  0
SEQEND
  8
0
  0
SOLID
  8
0
 62
    15
 10
3.528800
 20
3.303520
 11
4.275920
 21
3.303960
 12
3.556520
 22
3.296920
 13
4.303640
 23
3.297360
  0
POLYLINE
  8
0
  6
CONTINUOUS
 66
     1
 40
0.000000
 41
0.000000
  0
VERTEX
  8
0
  6
CONTINUOUS
 10
3.528800
 20
3.303520
  0
VERTEX
  8
0
  6
CONTINUOUS
 10
4.275920
 20
3.303960
  0
VERTEX
  8
0
  6
CONTINUOUS
 10
4.303640
 20
3.297360
  0
VERTEX
  8
0
  6
CONTINUOUS
 10
3.556520
 20
3.296920
  0
VERTEX
  8
0
  6
CONTINUOUS
 10
3.528800
 20
3.303520
  0
SEQEND
  8
0
  0
SOLID
  8
0
 62
    15
 10
3.556520
 20
3.296920
 11
4.303640
 21
3.297360
 12
3.583800
 22
3.284160
 13
4.330920
 23
3.284600
  0
POLYLINE
  8
0
  6
CONTINUOUS
 66
     1
 40
0.000000
 41
0.000000
  0
VERTEX
  8
0
  6
CONTINUOUS
 10
3.556520
 20
3.296920
  0
VERTEX
  8
0
  6
CONTINUOUS
 10
4.303640
 20
3.297360
  0
VERTEX
  8
0
  6
CONTINUOUS
 10
4.330920
 20
3.284600
  0
VERTEX
  8
0
  6
CONTINUOUS
 10
3.583800
 20
3.284160
  0
VERTEX
  8
0
  6
CONTINUOUS
 10
3.556520
 20
3.296920
  0
SEQEND
  8
0
  0
SOLID
  8
0
 62
    15
 10
3.583800
 20
3.284160
 11
4.330920
 21
3.284600
 12
3.608440
 22
3.263480
 13
4.355560
 23
3.263920
  0
POLYLINE
  8
0
  6
CONTINUOUS
 66
     1
 40
0.000000
 41
0.000000
  0
VERTEX
  8
0
  6
CONTINUOUS
 10
3.583800
 20
3.284160
  0
VERTEX
  8
0
  6
CONTINUOUS
 10
4.330920
 20
3.284600
  0
VERTEX
  8
0
  6
CONTINUOUS
 10
4.355560
 20
3.263920
  0
VERTEX
  8
0
  6
CONTINUOUS
 10
3.608440
 20
3.263480
  0
VERTEX
  8
0
  6
CONTINUOUS
 10
3.583800
 20
3.284160
  0
SEQEND
  8
0
  0
SOLID
  8
0
 62
    15
 10
3.608440
 20
3.263480
 11
4.355560
 21
3.263920
 12
3.628240
 22
3.234000
 13
4.375360
 23
3.234440
  0
POLYLINE
  8
0
  6
CONTINUOUS
 66
     1
 40
0.000000
 41
0.000000
  0
VERTEX
  8
0
  6
CONTINUOUS
 10
3.608440
 20
3.263480
  0
VERTEX
  8
0
  6
CONTINUOUS
 10
4.355560
 20
3.263920
  0
VERTEX
  8
0
  6
CONTINUOUS
 10
4.375360
 20
3.234440
  0
VERTEX
  8
0
  6
CONTINUOUS
 10
3.628240
 20
3.234000
  0
VERTEX
  8
0
  6
CONTINUOUS
 10
3.608440
 20
3.263480
  0
SEQEND
  8
0
  0
SOLID
  8
0
 62
    15
 10
3.628240
 20
3.234000
 11
4.375360
 21
3.234440
 12
3.641440
 22
3.193080
 13
4.388560
 23
3.193520
  0
POLYLINE
  8
0
  6
CONTINUOUS
 66
     1
 40
0.000000
 41
0.000000
  0
VERTEX
  8
0
  6
CONTINUOUS
 10
3.628240
 20
3.234000
  0
VERTEX
  8
0
  6
CONTINUOUS
 10
4.375360
 20
3.234440
  0
VERTEX
  8
0
  6
CONTINUOUS
 10
4.388560
 20
3.193520
  0
VERTEX
  8
0
  6
CONTINUOUS
 10
3.641440
 20
3.193080
  0
VERTEX
  8
0
  6
CONTINUOUS
 10
3.628240
 20
3.234000
  0
SEQEND
  8
0
  0
SOLID
  8
0
 62
    15
 10
3.641440
 20
3.193080
 11
4.388560
 21
3.193520
 12
3.644960
 22
3.167560
 13
4.392080
 23
3.168000
  0
POLYLINE
  8
0
  6
CONTINUOUS
 66
     1
 40
0.000000
 41
0.000000
  0
VERTEX
  8
0
  6
CONTINUOUS
 10
3.641440
 20
3.193080
  0
VERTEX
  8
0
  6
CONTINUOUS
 10
4.388560
 20
3.193520
  0
VERTEX
  8
0
  6
CONTINUOUS
 10
4.392080
 20
3.168000
  0
VERTEX
  8
0
  6
CONTINUOUS
 10
3.644960
 20
3.167560
  0
VERTEX
  8
0
  6
CONTINUOUS
 10
3.641440
 20
3.193080
  0
SEQEND
  8
0
  0
SOLID
  8
0
 62
    15
 10
3.644960
 20
3.167560
 11
4.392080
 21
3.168000
 12
3.645840
 22
3.138960
 13
4.392960
 23
3.139400
  0
POLYLINE
  8
0
  6
CONTINUOUS
 66
     1
 40
0.000000
 41
0.000000
  0
VERTEX
  8
0
  6
CONTINUOUS
 10
3.644960
 20
3.167560
  0
VERTEX
  8
0
  6
CONTINUOUS
 10
4.392080
 20
3.168000
  0
VERTEX
  8
0
  6
CONTINUOUS
 10
4.392960
 20
3.139400
  0
VERTEX
  8
0
  6
CONTINUOUS
 10
3.645840
 20
3.138960
  0
VERTEX
  8
0
  6
CONTINUOUS
 10
3.644960
 20
3.167560
  0
SEQEND
  8
0
  0
SOLID
  8
0
 62
    15
 10
3.645840
 20
3.138960
 11
4.392960
 21
3.139400
 12
3.696000
 22
3.138960
 13
4.443120
 23
3.139400
  0
POLYLINE
  8
0
  6
CONTINUOUS
 66
     1
 40
0.000000
 41
0.000000
  0
VERTEX
  8
0
  6
CONTINUOUS
 10
3.645840
 20
3.138960
  0
VERTEX
  8
0
  6
CONTINUOUS
 10
4.392960
 20
3.139400
  0
VERTEX
  8
0
  6
CONTINUOUS
 10
4.443120
 20
3.139400
  0
VERTEX
  8
0
  6
CONTINUOUS
 10
3.696000
 20
3.138960
  0
VERTEX
  8
0
  6
CONTINUOUS
 10
3.645840
 20
3.138960
  0
SEQEND
  8
0
  0
SOLID
  8
0
 62
    15
 10
3.696000
 20
3.138960
 11
4.443120
 21
3.139400
 12
3.696000
 22
2.666840
 13
4.443120
 23
2.667280
  0
POLYLINE
  8
0
  6
CONTINUOUS
 66
     1
 40
0.000000
 41
0.000000
  0
VERTEX
  8
0
  6
CONTINUOUS
 10
3.696000
 20
3.138960
  0
VERTEX
  8
0
  6
CONTINUOUS
 10
4.443120
 20
3.139400
  0
VERTEX
  8
0
  6
CONTINUOUS
 10
4.443120
 20
2.667280
  0
VERTEX
  8
0
  6
CONTINUOUS
 10
3.696000
 20
2.666840
  0
VERTEX
  8
0
  6
CONTINUOUS
 10
3.696000
 20
3.138960
  0
SEQEND
  8
0
  0
SOLID
  8
0
 62
    15
 10
3.696000
 20
2.666840
 11
4.443120
 21
2.667280
 12
3.580280
 22
2.609200
 13
4.327840
 23
2.609640
  0
POLYLINE
  8
0
  6
CONTINUOUS
 66
     1
 40
0.000000
 41
0.000000
  0
VERTEX
  8
0
  6
CONTINUOUS
 10
3.696000
 20
2.666840
  0
VERTEX
  8
0
  6
CONTINUOUS
 10
4.443120
 20
2.667280
  0
VERTEX
  8
0
  6
CONTINUOUS
 10
4.327840
 20
2.609640
  0
VERTEX
  8
0
  6
CONTINUOUS
 10
3.580280
 20
2.609200
  0
VERTEX
  8
0
  6
CONTINUOUS
 10
3.696000
 20
2.666840
  0
SEQEND
  8
0
  0
SOLID
  8
0
 62
    15
 10
3.580280
 20
2.609200
 11
4.327840
 21
2.609640
 12
3.580280
 22
2.569160
 13
4.327840
 23
2.569600
  0
POLYLINE
  8
0
  6
CONTINUOUS
 66
     1
 40
0.000000
 41
0.000000
  0
VERTEX
  8
0
  6
CONTINUOUS
 10
3.580280
 20
2.609200
  0
VERTEX
  8
0
  6
CONTINUOUS
 10
4.327840
 20
2.609640
  0
VERTEX
  8
0
  6
CONTINUOUS
 10
4.327840
 20
2.569600
  0
VERTEX
  8
0
  6
CONTINUOUS
 10
3.580280
 20
2.569160
  0
VERTEX
  8
0
  6
CONTINUOUS
 10
3.580280
 20
2.609200
  0
SEQEND
  8
0
  0
SOLID
  8
0
 62
    15
 10
3.580280
 20
2.569160
 11
4.327840
 21
2.569600
 12
3.603160
 22
2.566520
 13
4.350280
 23
2.567400
  0
POLYLINE
  8
0
  6
CONTINUOUS
 66
     1
 40
0.000000
 41
0.000000
  0
VERTEX
  8
0
  6
CONTINUOUS
 10
3.580280
 20
2.569160
  0
VERTEX
  8
0
  6
CONTINUOUS
 10
4.327840
 20
2.569600
  0
VERTEX
  8
0
  6
CONTINUOUS
 10
4.350280
 20
2.567400
  0
VERTEX
  8
0
  6
CONTINUOUS
 10
3.603160
 20
2.566520
  0
VERTEX
  8
0
  6
CONTINUOUS
 10
3.580280
 20
2.569160
  0
SEQEND
  8
0
  0
SOLID
  8
0
 62
    15
 10
3.603160
 20
2.566520
 11
4.350280
 21
2.567400
 12
3.623840
 22
2.560360
 13
4.371400
 23
2.560800
  0
POLYLINE
  8
0
  6
CONTINUOUS
 66
     1
 40
0.000000
 41
0.000000
  0
VERTEX
  8
0
  6
CONTINUOUS
 10
3.603160
 20
2.566520
  0
VERTEX
  8
0
  6
CONTINUOUS
 10
4.350280
 20
2.567400
  0
VERTEX
  8
0
  6
CONTINUOUS
 10
4.371400
 20
2.560800
  0
VERTEX
  8
0
  6
CONTINUOUS
 10
3.623840
 20
2.560360
  0
VERTEX
  8
0
  6
CONTINUOUS
 10
3.603160
 20
2.566520
  0
SEQEND
  8
0
  0
SOLID
  8
0
 62
    15
 10
3.623840
 20
2.560360
 11
4.371400
 21
2.560800
 12
3.643200
 22
2.549800
 13
4.390320
 23
2.550240
  0
POLYLINE
  8
0
  6
CONTINUOUS
 66
     1
 40
0.000000
 41
0.000000
  0
VERTEX
  8
0
  6
CONTINUOUS
 10
3.623840
 20
2.560360
  0
VERTEX
  8
0
  6
CONTINUOUS
 10
4.371400
 20
2.560800
  0
VERTEX
  8
0
  6
CONTINUOUS
 10
4.390320
 20
2.550240
  0
VERTEX
  8
0
  6
CONTINUOUS
 10
3.643200
 20
2.549800
  0
VERTEX
  8
0
  6
CONTINUOUS
 10
3.623840
 20
2.560360
  0
SEQEND
  8
0
  0
SOLID
  8
0
 62
    15
 10
3.643200
 20
2.549800
 11
4.390320
 21
2.550240
 12
3.659480
 22
2.536160
 13
4.407040
 23
2.536600
  0
POLYLINE
  8
0
  6
CONTINUOUS
 66
     1
 40
0.000000
 41
0.000000
  0
VERTEX
  8
0
  6
CONTINUOUS
 10
3.643200
 20
2.549800
  0
VERTEX
  8
0
  6
CONTINUOUS
 10
4.390320
 20
2.550240
  0
VERTEX
  8
0
  6
CONTINUOUS
 10
4.407040
 20
2.536600
  0
VERTEX
  8
0
  6
CONTINUOUS
 10
3.659480
 20
2.536160
  0
VERTEX
  8
0
  6
CONTINUOUS
 10
3.643200
 20
2.549800
  0
SEQEND
  8
0
  0
SOLID
  8
0
 62
    15
 10
3.659480
 20
2.536160
 11
4.407040
 21
2.536600
 12
3.673120
 22
2.519440
 13
4.420680
 23
2.519880
  0
POLYLINE
  8
0
  6
CONTINUOUS
 66
     1
 40
0.000000
 41
0.000000
  0
VERTEX
  8
0
  6
CONTINUOUS
 10
3.659480
 20
2.536160
  0
VERTEX
  8
0
  6
CONTINUOUS
 10
4.407040
 20
2.536600
  0
VERTEX
  8
0
  6
CONTINUOUS
 10
4.420680
 20
2.519880
  0
VERTEX
  8
0
  6
CONTINUOUS
 10
3.673120
 20
2.519440
  0
VERTEX
  8
0
  6
CONTINUOUS
 10
3.659480
 20
2.536160
  0
SEQEND
  8
0
  0
SOLID
  8
0
 62
    15
 10
3.673120
 20
2.519440
 11
4.420680
 21
2.519880
 12
3.683680
 22
2.500520
 13
4.430800
 23
2.500960
  0
POLYLINE
  8
0
  6
CONTINUOUS
 66
     1
 40
0.000000
 41
0.000000
  0
VERTEX
  8
0
  6
CONTINUOUS
 10
3.673120
 20
2.519440
  0
VERTEX
  8
0
  6
CONTINUOUS
 10
4.420680
 20
2.519880
  0
VERTEX
  8
0
  6
CONTINUOUS
 10
4.430800
 20
2.500960
  0
VERTEX
  8
0
  6
CONTINUOUS
 10
3.683680
 20
2.500520
  0
VERTEX
  8
0
  6
CONTINUOUS
 10
3.673120
 20
2.519440
  0
SEQEND
  8
0
  0
SOLID
  8
0
 62
    15
 10
3.683680
 20
2.500520
 11
4.430800
 21
2.500960
 12
3.690280
 22
2.479400
 13
4.437400
 23
2.479840
  0
POLYLINE
  8
0
  6
CONTINUOUS
 66
     1
 40
0.000000
 41
0.000000
  0
VERTEX
  8
0
  6
CONTINUOUS
 10
3.683680
 20
2.500520
  0
VERTEX
  8
0
  6
CONTINUOUS
 10
4.430800
 20
2.500960
  0
VERTEX
  8
0
  6
CONTINUOUS
 10
4.437400
 20
2.479840
  0
VERTEX
  8
0
  6
CONTINUOUS
 10
3.690280
 20
2.479400
  0
VERTEX
  8
0
  6
CONTINUOUS
 10
3.683680
 20
2.500520
  0
SEQEND
  8
0
  0
SOLID
  8
0
 62
    15
 10
3.690280
 20
2.479400
 11
4.437400
 21
2.479840
 12
3.692480
 22
2.456960
 13
4.439600
 23
2.457400
  0
POLYLINE
  8
0
  6
CONTINUOUS
 66
     1
 40
0.000000
 41
0.000000
  0
VERTEX
  8
0
  6
CONTINUOUS
 10
3.690280
 20
2.479400
  0
VERTEX
  8
0
  6
CONTINUOUS
 10
4.437400
 20
2.479840
  0
VERTEX
  8
0
  6
CONTINUOUS
 10
4.439600
 20
2.457400
  0
VERTEX
  8
0
  6
CONTINUOUS
 10
3.692480
 20
2.456960
  0
VERTEX
  8
0
  6
CONTINUOUS
 10
3.690280
 20
2.479400
  0
SEQEND
  8
0
  0
SOLID
  8
0
 62
    15
 10
3.692480
 20
2.456960
 11
4.439600
 21
2.457400
 12
3.690280
 22
2.434520
 13
4.437400
 23
2.434960
  0
POLYLINE
  8
0
  6
CONTINUOUS
 66
     1
 40
0.000000
 41
0.000000
  0
VERTEX
  8
0
  6
CONTINUOUS
 10
3.692480
 20
2.456960
  0
VERTEX
  8
0
  6
CONTINUOUS
 10
4.439600
 20
2.457400
  0
VERTEX
  8
0
  6
CONTINUOUS
 10
4.437400
 20
2.434960
  0
VERTEX
  8
0
  6
CONTINUOUS
 10
3.690280
 20
2.434520
  0
VERTEX
  8
0
  6
CONTINUOUS
 10
3.692480
 20
2.456960
  0
SEQEND
  8
0
  0
SOLID
  8
0
 62
    15
 10
3.690280
 20
2.434520
 11
4.437400
 21
2.434960
 12
3.683680
 22
2.413400
 13
4.430800
 23
2.413840
  0
POLYLINE
  8
0
  6
CONTINUOUS
 66
     1
 40
0.000000
 41
0.000000
  0
VERTEX
  8
0
  6
CONTINUOUS
 10
3.690280
 20
2.434520
  0
VERTEX
  8
0
  6
CONTINUOUS
 10
4.437400
 20
2.434960
  0
VERTEX
  8
0
  6
CONTINUOUS
 10
4.430800
 20
2.413840
  0
VERTEX
  8
0
  6
CONTINUOUS
 10
3.683680
 20
2.413400
  0
VERTEX
  8
0
  6
CONTINUOUS
 10
3.690280
 20
2.434520
  0
SEQEND
  8
0
  0
SOLID
  8
0
 62
    15
 10
3.683680
 20
2.413400
 11
4.430800
 21
2.413840
 12
3.673120
 22
2.394480
 13
4.420680
 23
2.394920
  0
POLYLINE
  8
0
  6
CONTINUOUS
 66
     1
 40
0.000000
 41
0.000000
  0
VERTEX
  8
0
  6
CONTINUOUS
 10
3.683680
 20
2.413400
  0
VERTEX
  8
0
  6
CONTINUOUS
 10
4.430800
 20
2.413840
  0
VERTEX
  8
0
  6
CONTINUOUS
 10
4.420680
 20
2.394920
  0
VERTEX
  8
0
  6
CONTINUOUS
 10
3.673120
 20
2.394480
  0
VERTEX
  8
0
  6
CONTINUOUS
 10
3.683680
 20
2.413400
  0
SEQEND
  8
0
  0
SOLID
  8
0
 62
    15
 10
3.673120
 20
2.394480
 11
4.420680
 21
2.394920
 12
3.659480
 22
2.377760
 13
4.407040
 23
2.378200
  0
POLYLINE
  8
0
  6
CONTINUOUS
 66
     1
 40
0.000000
 41
0.000000
  0
VERTEX
  8
0
  6
CONTINUOUS
 10
3.673120
 20
2.394480
  0
VERTEX
  8
0
  6
CONTINUOUS
 10
4.420680
 20
2.394920
  0
VERTEX
  8
0
  6
CONTINUOUS
 10
4.407040
 20
2.378200
  0
VERTEX
  8
0
  6
CONTINUOUS
 10
3.659480
 20
2.377760
  0
VERTEX
  8
0
  6
CONTINUOUS
 10
3.673120
 20
2.394480
  0
SEQEND
  8
0
  0
SOLID
  8
0
 62
    15
 10
3.659480
 20
2.377760
 11
4.407040
 21
2.378200
 12
3.643200
 22
2.364120
 13
4.390320
 23
2.364560
  0
POLYLINE
  8
0
  6
CONTINUOUS
 66
     1
 40
0.000000
 41
0.000000
  0
VERTEX
  8
0
  6
CONTINUOUS
 10
3.659480
 20
2.377760
  0
VERTEX
  8
0
  6
CONTINUOUS
 10
4.407040
 20
2.378200
  0
VERTEX
  8
0
  6
CONTINUOUS
 10
4.390320
 20
2.364560
  0
VERTEX
  8
0
  6
CONTINUOUS
 10
3.643200
 20
2.364120
  0
VERTEX
  8
0
  6
CONTINUOUS
 10
3.659480
 20
2.377760
  0
SEQEND
  8
0
  0
SOLID
  8
0
 62
    15
 10
3.643200
 20
2.364120
 11
4.390320
 21
2.364560
 12
3.623840
 22
2.354000
 13
4.371400
 23
2.354440
  0
POLYLINE
  8
0
  6
CONTINUOUS
 66
     1
 40
0.000000
 41
0.000000
  0
VERTEX
  8
0
  6
CONTINUOUS
 10
3.643200
 20
2.364120
  0
VERTEX
  8
0
  6
CONTINUOUS
 10
4.390320
 20
2.364560
  0
VERTEX
  8
0
  6
CONTINUOUS
 10
4.371400
 20
2.354440
  0
VERTEX
  8
0
  6
CONTINUOUS
 10
3.623840
 20
2.354000
  0
VERTEX
  8
0
  6
CONTINUOUS
 10
3.643200
 20
2.364120
  0
SEQEND
  8
0
  0
SOLID
  8
0
 62
    15
 10
3.623840
 20
2.354000
 11
4.371400
 21
2.354440
 12
3.603160
 22
2.347400
 13
4.350280
 23
2.347840
  0
POLYLINE
  8
0
  6
CONTINUOUS
 66
     1
 40
0.000000
 41
0.000000
  0
VERTEX
  8
0
  6
CONTINUOUS
 10
3.623840
 20
2.354000
  0
VERTEX
  8
0
  6
CONTINUOUS
 10
4.371400
 20
2.354440
  0
VERTEX
  8
0
  6
CONTINUOUS
 10
4.350280
 20
2.347840
  0
VERTEX
  8
0
  6
CONTINUOUS
 10
3.603160
 20
2.347400
  0
VERTEX
  8
0
  6
CONTINUOUS
 10
3.623840
 20
2.354000
  0
SEQEND
  8
0
  0
SOLID
  8
0
 62
    15
 10
3.603160
 20
2.347400
 11
4.350280
 21
2.347840
 12
3.580280
 22
2.345200
 13
4.327840
 23
2.345640
  0
POLYLINE
  8
0
  6
CONTINUOUS
 66
     1
 40
0.000000
 41
0.000000
  0
VERTEX
  8
0
  6
CONTINUOUS
 10
3.603160
 20
2.347400
  0
VERTEX
  8
0
  6
CONTINUOUS
 10
4.350280
 20
2.347840
  0
VERTEX
  8
0
  6
CONTINUOUS
 10
4.327840
 20
2.345640
  0
VERTEX
  8
0
  6
CONTINUOUS
 10
3.580280
 20
2.345200
  0
VERTEX
  8
0
  6
CONTINUOUS
 10
3.603160
 20
2.347400
  0
SEQEND
  8
0
  0
SOLID
  8
0
 62
    15
 10
3.580720
 20
2.341680
 11
4.327840
 21
2.342120
 12
3.580720
 22
2.319240
 13
4.327840
 23
2.319680
  0
POLYLINE
  8
0
  6
CONTINUOUS
 66
     1
 40
0.000000
 41
0.000000
  0
VERTEX
  8
0
  6
CONTINUOUS
 10
3.580720
 20
2.341680
  0
VERTEX
  8
0
  6
CONTINUOUS
 10
4.327840
 20
2.342120
  0
VERTEX
  8
0
  6
CONTINUOUS
 10
4.327840
 20
2.319680
  0
VERTEX
  8
0
  6
CONTINUOUS
 10
3.580720
 20
2.319240
  0
VERTEX
  8
0
  6
CONTINUOUS
 10
3.580720
 20
2.341680
  0
SEQEND
  8
0
  0
POLYLINE
  8
0
  6
CONTINUOUS
 66
     1
 40
0.000000
 41
0.000000
  0
VERTEX
  8
0
  6
CONTINUOUS
 10
3.580720
 20
2.341680
  0
VERTEX
  8
0
  6
CONTINUOUS
 10
3.580720
 20
2.319240
  0
VERTEX
  8
0
  6
CONTINUOUS
 10
3.603160
 20
2.317040
  0
VERTEX
  8
0
  6
CONTINUOUS
 10
3.624280
 20
2.310440
  0
VERTEX
  8
0
  6
CONTINUOUS
 10
3.643200
 20
2.299880
  0
VERTEX
  8
0
  6
CONTINUOUS
 10
3.659920
 20
2.286240
  0
VERTEX
  8
0
  6
CONTINUOUS
 10
3.673560
 20
2.269960
  0
VERTEX
  8
0
  6
CONTINUOUS
 10
3.683680
 20
2.250600
  0
VERTEX
  8
0
  6
CONTINUOUS
 10
3.690280
 20
2.229920
  0
VERTEX
  8
0
  6
CONTINUOUS
 10
3.692480
 20
2.207040
  0
VERTEX
  8
0
  6
CONTINUOUS
 10
3.690280
 20
2.184600
  0
VERTEX
  8
0
  6
CONTINUOUS
 10
3.683680
 20
2.163480
  0
VERTEX
  8
0
  6
CONTINUOUS
 10
3.673560
 20
2.144560
  0
VERTEX
  8
0
  6
CONTINUOUS
 10
3.659920
 20
2.127840
  0
VERTEX
  8
0
  6
CONTINUOUS
 10
3.643200
 20
2.114200
  0
VERTEX
  8
0
  6
CONTINUOUS
 10
3.624280
 20
2.104080
  0
VERTEX
  8
0
  6
CONTINUOUS
 10
3.603160
 20
2.097480
  0
VERTEX
  8
0
  6
CONTINUOUS
 10
3.580720
 20
2.095280
  0
VERTEX
  8
0
  6
CONTINUOUS
 10
3.580280
 20
2.064040
  0
VERTEX
  8
0
  6
CONTINUOUS
 10
3.602720
 20
2.061840
  0
VERTEX
  8
0
  6
CONTINUOUS
 10
3.623840
 20
2.055240
  0
VERTEX
  8
0
  6
CONTINUOUS
 10
3.642760
 20
2.045120
  0
VERTEX
  8
0
  6
CONTINUOUS
 10
3.659040
 20
2.031040
  0
VERTEX
  8
0
  6
CONTINUOUS
 10
3.673120
 20
2.014760
  0
VERTEX
  8
0
  6
CONTINUOUS
 10
3.683240
 20
1.995840
  0
VERTEX
  8
0
  6
CONTINUOUS
 10
3.689840
 20
1.974720
  0
VERTEX
  8
0
  6
CONTINUOUS
 10
3.692040
 20
1.952280
  0
VERTEX
  8
0
  6
CONTINUOUS
 10
3.689840
 20
1.929400
  0
VERTEX
  8
0
  6
CONTINUOUS
 10
3.683240
 20
1.908280
  0
VERTEX
  8
0
  6
CONTINUOUS
 10
3.673120
 20
1.889360
  0
VERTEX
  8
0
  6
CONTINUOUS
 10
3.659040
 20
1.873080
  0
VERTEX
  8
0
  6
CONTINUOUS
 10
3.642760
 20
1.859440
  0
VERTEX
  8
0
  6
CONTINUOUS
 10
3.623840
 20
1.848880
  0
VERTEX
  8
0
  6
CONTINUOUS
 10
3.602720
 20
1.842280
  0
VERTEX
  8
0
  6
CONTINUOUS
 10
3.580280
 20
1.840080
  0
VERTEX
  8
0
  6
CONTINUOUS
 10
3.579400
 20
1.839200
  0
VERTEX
  8
0
  6
CONTINUOUS
 10
3.579400
 20
1.803560
  0
VERTEX
  8
0
  6
CONTINUOUS
 10
3.594800
 20
1.796080
  0
VERTEX
  8
0
  6
CONTINUOUS
 10
3.695560
 20
1.758680
  0
VERTEX
  8
0
  6
CONTINUOUS
 10
3.695560
 20
1.266760
  0
VERTEX
  8
0
  6
CONTINUOUS
 10
3.652000
 20
1.248280
  0
VERTEX
  8
0
  6
CONTINUOUS
 10
3.648480
 20
1.207800
  0
VERTEX
  8
0
  6
CONTINUOUS
 10
3.638360
 20
1.173480
  0
VERTEX
  8
0
  6
CONTINUOUS
 10
3.621200
 20
1.145320
  0
VERTEX
  8
0
  6
CONTINUOUS
 10
3.599200
 20
1.122880
  0
VERTEX
  8
0
  6
CONTINUOUS
 10
3.572360
 20
1.105720
  0
VERTEX
  8
0
  6
CONTINUOUS
 10
3.541560
 20
1.093400
  0
VERTEX
  8
0
  6
CONTINUOUS
 10
3.508560
 20
1.085920
  0
VERTEX
  8
0
  6
CONTINUOUS
 10
3.472920
 20
1.082400
  0
VERTEX
  8
0
  6
CONTINUOUS
 10
3.472040
 20
1.081520
  0
VERTEX
  8
0
  6
CONTINUOUS
 10
3.472040
 20
0.983840
  0
VERTEX
  8
0
  6
CONTINUOUS
 10
3.378760
 20
0.983840
  0
VERTEX
  8
0
  6
CONTINUOUS
 10
3.378760
 20
1.284360
  0
VERTEX
  8
0
  6
CONTINUOUS
 10
2.881560
 20
1.284360
  0
VERTEX
  8
0
  6
CONTINUOUS
 10
2.881560
 20
3.432880
  0
VERTEX
  8
0
  6
CONTINUOUS
 10
3.479520
 20
3.432880
  0
VERTEX
  8
0
  6
CONTINUOUS
 10
3.479520
 20
3.307040
  0
VERTEX
  8
0
  6
CONTINUOUS
 10
3.502400
 20
3.306600
  0
VERTEX
  8
0
  6
CONTINUOUS
 10
3.528800
 20
3.303520
  0
VERTEX
  8
0
  6
CONTINUOUS
 10
3.556520
 20
3.296920
  0
VERTEX
  8
0
  6
CONTINUOUS
 10
3.583800
 20
3.284160
  0
VERTEX
  8
0
  6
CONTINUOUS
 10
3.608440
 20
3.263480
  0
VERTEX
  8
0
  6
CONTINUOUS
 10
3.628240
 20
3.234000
  0
VERTEX
  8
0
  6
CONTINUOUS
 10
3.641440
 20
3.193080
  0
VERTEX
  8
0
  6
CONTINUOUS
 10
3.644960
 20
3.167560
  0
VERTEX
  8
0
  6
CONTINUOUS
 10
3.645840
 20
3.138960
  0
VERTEX
  8
0
  6
CONTINUOUS
 10
3.696000
 20
3.138960
  0
VERTEX
  8
0
  6
CONTINUOUS
 10
3.696000
 20
2.666840
  0
VERTEX
  8
0
  6
CONTINUOUS
 10
3.580280
 20
2.609200
  0
VERTEX
  8
0
  6
CONTINUOUS
 10
3.580280
 20
2.569160
  0
VERTEX
  8
0
  6
CONTINUOUS
 10
3.603160
 20
2.566520
  0
VERTEX
  8
0
  6
CONTINUOUS
 10
3.623840
 20
2.560360
  0
VERTEX
  8
0
  6
CONTINUOUS
 10
3.643200
 20
2.549800
  0
VERTEX
  8
0
  6
CONTINUOUS
 10
3.659480
 20
2.536160
  0
VERTEX
  8
0
  6
CONTINUOUS
 10
3.673120
 20
2.519440
  0
VERTEX
  8
0
  6
CONTINUOUS
 10
3.683680
 20
2.500520
  0
VERTEX
  8
0
  6
CONTINUOUS
 10
3.690280
 20
2.479400
  0
VERTEX
  8
0
  6
CONTINUOUS
 10
3.692480
 20
2.456960
  0
VERTEX
  8
0
  6
CONTINUOUS
 10
3.690280
 20
2.434520
  0
VERTEX
  8
0
  6
CONTINUOUS
 10
3.683680
 20
2.413400
  0
VERTEX
  8
0
  6
CONTINUOUS
 10
3.673120
 20
2.394480
  0
VERTEX
  8
0
  6
CONTINUOUS
 10
3.659480
 20
2.377760
  0
VERTEX
  8
0
  6
CONTINUOUS
 10
3.643200
 20
2.364120
  0
VERTEX
  8
0
  6
CONTINUOUS
 10
3.623840
 20
2.354000
  0
VERTEX
  8
0
  6
CONTINUOUS
 10
3.603160
 20
2.347400
  0
VERTEX
  8
0
  6
CONTINUOUS
 10
3.580280
 20
2.345200
  0
VERTEX
  8
0
  6
CONTINUOUS
 10
3.580280
 20
2.335960
  0
VERTEX
  8
0
  6
CONTINUOUS
 10
3.580720
 20
2.341680
  0
SEQEND
  8
0
  0
TEXT
  8
0
 10
3.388880
 20
0.770880
 40
0.138076
  1
BA  600
 41
1.000000
  7
SN0
 71
     0
 72
     5
 11
3.978518
 21
0.770880
  0
TEXT
  8
0
 10
3.094520
 20
0.579040
 40
0.138076
  1
13/16" x 2-7/16"
 41
1.000000
  7
SN0
 71
     0
 72
     5
 11
4.270796
 21
0.579040
  0
ENDSEC
  0
EOF
