  0
SECTION
  2
HEADER
  9
$ACADVER
  1
AC1006
  9
$EXTMIN
 10
2.140160
 20
0.823240
  9
$EXTMAX
 10
7.018000
 20
4.151840
  9
$LTSCALE
 40
0.044000
  9
$PDMODE
 70
    35
  9
$PDSIZE
 40
0.035200
  0
ENDSEC
  0
SECTION
  2
TABLES
  0
TABLE
  2
LTYPE
 70
     9
  0
LTYPE
  2
CONTINUOUS
 70
    64
  3
Solid line
 72
    65
 73
     0
 40
0.000000
  0
LTYPE
  2
DASHED
 70
    64
  3
__ __ __ __ __ __ __ __ __ __ __ __ __ __ __
 72
    65
 73
     2
 40
0.000330
 49
0.000220
 49
-0.000110
  0
LTYPE
  2
HIDDEN
 70
    64
  3
 _ _ _ _ _ _ _ _ _ _ _ _ _ _ _ _ _ _ _ _ _ _
 72
    65
 73
     2
 40
0.000165
 49
0.000110
 49
-0.000055
  0
LTYPE
  2
CENTER
 70
    64
  3
____ _ ____ _ ____ _ ____ _ ____ _ ____ _ ____
 72
    65
 73
     4
 40
0.000880
 49
0.000550
 49
-0.000110
 49
0.000110
 49
-0.000110
  0
LTYPE
  2
PHANTOM
 70
    64
  3
_____ _ _ _____ _ _ _____ _ _ _____ _ _ ____
 72
    65
 73
     6
 40
0.001100
 49
0.000550
 49
-0.000110
 49
0.000110
 49
-0.000110
 49
0.000110
 49
-0.000110
  0
LTYPE
  2
DOT
 70
    64
  3
...............................................
 72
    65
 73
     2
 40
0.000110
 49
0.000000
 49
-0.000110
  0
LTYPE
  2
DASHDOT
 70
    64
  3
__ . __ . __ . __ . __ . __ . __ . __ . __ . __
 72
    65
 73
     4
 40
0.000440
 49
0.000220
 49
-0.000110
 49
0.000000
 49
-0.000110
  0
LTYPE
  2
BORDER
 70
    64
  3
__ __ . __ __ . __ __ . __ __ . __ __ . __ __
 72
    65
 73
     6
 40
0.000770
 49
0.000220
 49
-0.000110
 49
0.000220
 49
-0.000110
 49
0.000000
 49
-0.000110
  0
LTYPE
  2
DIVIDE
 70
    64
  3
__ . . __ . . __ . . __ . . __ . . __ . . __
 72
    65
 73
     6
 40
0.000550
 49
0.000220
 49
-0.000110
 49
0.000000
 49
-0.000110
 49
0.000000
 49
-0.000110
  0
LTYPE
  2
DOTDOT
 70
    64
  3
 . .  . .  . .  . .  . .  . . 
 72
    65
 73
     5
 40
0.000242
 49
-0.000110
 49
0.000000
 49
-0.000110
 49
0.000000
 49
-0.000110
  0
ENDTAB
  0
TABLE
  2
STYLE
 70
     2
  0
STYLE
 70
     0
  2
SN0
 40
0.000000
 41
0.000440
 50
0.000000
 71
     0
 42
0.000000
  3
ROMAND
  0
STYLE
 70
    68
  2
SV0
 40
0.000000
 41
0.000440
 50
0.000000
 71
     0
 42
0.000000
  3
ROMAND
  0
ENDTAB
  0
TABLE
  2
LAYER
 70
     3
  0
LAYER
  2
FOREGROUND
 70
    64
 62
     7
  6
CONTINUOUS
  0
LAYER
  2
BACKGROUND
 70
    65
 62
    -7
  6
CONTINUOUS
  0
LAYER
  2
0
 70
    64
 62
     7
  6
CONTINUOUS
  0
ENDTAB
  0
ENDSEC
  0
SECTION
  2
ENTITIES
  0
POLYLINE
  8
FOREGROUND
  6
CONTINUOUS
 66
     1
 40
0.000000
 41
0.000000
  0
VERTEX
  8
FOREGROUND
  6
CONTINUOUS
 10
0.000000
 20
4.975080
  0
VERTEX
  8
FOREGROUND
  6
CONTINUOUS
 10
8.499920
 20
4.975080
  0
VERTEX
  8
FOREGROUND
  6
CONTINUOUS
 10
8.499920
 20
-6.024920
  0
VERTEX
  8
FOREGROUND
  6
CONTINUOUS
 10
0.000000
 20
-6.024920
  0
VERTEX
  8
FOREGROUND
  6
CONTINUOUS
 10
0.000000
 20
4.975080
  0
SEQEND
  8
0
  0
POLYLINE
  8
FOREGROUND
  6
CONTINUOUS
 66
     1
 40
0.000000
 41
0.000000
  0
VERTEX
  8
FOREGROUND
  6
CONTINUOUS
 10
0.000000
 20
4.975080
  0
VERTEX
  8
FOREGROUND
  6
CONTINUOUS
 10
8.499920
 20
4.975080
  0
VERTEX
  8
FOREGROUND
  6
CONTINUOUS
 10
8.499920
 20
-6.024920
  0
VERTEX
  8
FOREGROUND
  6
CONTINUOUS
 10
0.000000
 20
-6.024920
  0
VERTEX
  8
FOREGROUND
  6
CONTINUOUS
 10
0.000000
 20
4.975080
  0
SEQEND
  8
0
  0
POLYLINE
  8
0
  6
CONTINUOUS
 66
     1
 40
0.014080
 41
0.014080
  0
VERTEX
  8
0
  6
CONTINUOUS
 10
5.919320
 20
4.144360
  0
VERTEX
  8
0
  6
CONTINUOUS
 10
5.975200
 20
4.144360
  0
VERTEX
  8
0
  6
CONTINUOUS
 10
2.181960
 20
4.144360
  0
VERTEX
  8
0
  6
CONTINUOUS
 10
2.181960
 20
3.906320
  0
VERTEX
  8
0
  6
CONTINUOUS
 10
2.559480
 20
3.906320
  0
VERTEX
  8
0
  6
CONTINUOUS
 10
2.559480
 20
3.678840
  0
VERTEX
  8
0
  6
CONTINUOUS
 10
2.182840
 20
3.678840
  0
VERTEX
  8
0
  6
CONTINUOUS
 10
2.182840
 20
3.384040
  0
VERTEX
  8
0
  6
CONTINUOUS
 10
6.655880
 20
3.384040
  0
VERTEX
  8
0
  6
CONTINUOUS
 10
6.655880
 20
3.667400
  0
VERTEX
  8
0
  6
CONTINUOUS
 10
7.010960
 20
3.667400
  0
VERTEX
  8
0
  6
CONTINUOUS
 10
7.010960
 20
3.933600
  0
VERTEX
  8
0
  6
CONTINUOUS
 10
6.655440
 20
3.933600
  0
VERTEX
  8
0
  6
CONTINUOUS
 10
6.655440
 20
4.028200
  0
VERTEX
  8
0
  6
CONTINUOUS
 10
6.590760
 20
4.028200
  0
VERTEX
  8
0
  6
CONTINUOUS
 10
6.588560
 20
4.050640
  0
VERTEX
  8
0
  6
CONTINUOUS
 10
6.581960
 20
4.071760
  0
VERTEX
  8
0
  6
CONTINUOUS
 10
6.571400
 20
4.091120
  0
VERTEX
  8
0
  6
CONTINUOUS
 10
6.557760
 20
4.107840
  0
VERTEX
  8
0
  6
CONTINUOUS
 10
6.541040
 20
4.121480
  0
VERTEX
  8
0
  6
CONTINUOUS
 10
6.521680
 20
4.132040
  0
VERTEX
  8
0
  6
CONTINUOUS
 10
6.500560
 20
4.138640
  0
VERTEX
  8
0
  6
CONTINUOUS
 10
6.477680
 20
4.140840
  0
VERTEX
  8
0
  6
CONTINUOUS
 10
6.455240
 20
4.138640
  0
VERTEX
  8
0
  6
CONTINUOUS
 10
6.434120
 20
4.132040
  0
VERTEX
  8
0
  6
CONTINUOUS
 10
6.414760
 20
4.121480
  0
VERTEX
  8
0
  6
CONTINUOUS
 10
6.398040
 20
4.107840
  0
VERTEX
  8
0
  6
CONTINUOUS
 10
6.384400
 20
4.091120
  0
VERTEX
  8
0
  6
CONTINUOUS
 10
6.373840
 20
4.071760
  0
VERTEX
  8
0
  6
CONTINUOUS
 10
6.367240
 20
4.050640
  0
VERTEX
  8
0
  6
CONTINUOUS
 10
6.365040
 20
4.028200
  0
VERTEX
  8
0
  6
CONTINUOUS
 10
6.365040
 20
4.008400
  0
VERTEX
  8
0
  6
CONTINUOUS
 10
6.303000
 20
4.008400
  0
VERTEX
  8
0
  6
CONTINUOUS
 10
6.302560
 20
4.038320
  0
VERTEX
  8
0
  6
CONTINUOUS
 10
6.297720
 20
4.060320
  0
VERTEX
  8
0
  6
CONTINUOUS
 10
6.289360
 20
4.081000
  0
VERTEX
  8
0
  6
CONTINUOUS
 10
6.277040
 20
4.099040
  0
VERTEX
  8
0
  6
CONTINUOUS
 10
6.262080
 20
4.114000
  0
VERTEX
  8
0
  6
CONTINUOUS
 10
6.244040
 20
4.126320
  0
VERTEX
  8
0
  6
CONTINUOUS
 10
6.223360
 20
4.134680
  0
VERTEX
  8
0
  6
CONTINUOUS
 10
6.201360
 20
4.139520
  0
VERTEX
  8
0
  6
CONTINUOUS
 10
6.178480
 20
4.139520
  0
VERTEX
  8
0
  6
CONTINUOUS
 10
6.156480
 20
4.134680
  0
VERTEX
  8
0
  6
CONTINUOUS
 10
6.136240
 20
4.126320
  0
VERTEX
  8
0
  6
CONTINUOUS
 10
6.118200
 20
4.114000
  0
VERTEX
  8
0
  6
CONTINUOUS
 10
6.103240
 20
4.099040
  0
VERTEX
  8
0
  6
CONTINUOUS
 10
6.090920
 20
4.081000
  0
VERTEX
  8
0
  6
CONTINUOUS
 10
6.082560
 20
4.060320
  0
VERTEX
  8
0
  6
CONTINUOUS
 10
6.077720
 20
4.038320
  0
VERTEX
  8
0
  6
CONTINUOUS
 10
6.077280
 20
4.010160
  0
VERTEX
  8
0
  6
CONTINUOUS
 10
6.011720
 20
4.010160
  0
VERTEX
  8
0
  6
CONTINUOUS
 10
5.982680
 20
4.144360
  0
VERTEX
  8
0
  6
CONTINUOUS
 10
5.919320
 20
4.144360
  0
SEQEND
  8
0
  0
SOLID
  8
0
 62
    15
 10
6.323680
 20
1.926320
 11
6.328960
 21
2.672120
 12
6.261640
 22
1.926320
 13
6.266920
 23
2.672120
  0
POLYLINE
  8
0
  6
CONTINUOUS
 66
     1
 40
0.000000
 41
0.000000
  0
VERTEX
  8
0
  6
CONTINUOUS
 10
6.323680
 20
1.926320
  0
VERTEX
  8
0
  6
CONTINUOUS
 10
6.328960
 20
2.672120
  0
VERTEX
  8
0
  6
CONTINUOUS
 10
6.266920
 20
2.672120
  0
VERTEX
  8
0
  6
CONTINUOUS
 10
6.261640
 20
1.926320
  0
VERTEX
  8
0
  6
CONTINUOUS
 10
6.323680
 20
1.926320
  0
SEQEND
  8
0
  0
SOLID
  8
0
 62
    15
 10
2.518120
 20
1.596320
 11
2.523400
 21
2.342120
 12
2.141480
 22
1.596320
 13
2.146760
 23
2.342120
  0
POLYLINE
  8
0
  6
CONTINUOUS
 66
     1
 40
0.000000
 41
0.000000
  0
VERTEX
  8
0
  6
CONTINUOUS
 10
2.518120
 20
1.596320
  0
VERTEX
  8
0
  6
CONTINUOUS
 10
2.523400
 20
2.342120
  0
VERTEX
  8
0
  6
CONTINUOUS
 10
2.146760
 20
2.342120
  0
VERTEX
  8
0
  6
CONTINUOUS
 10
2.141480
 20
1.596320
  0
VERTEX
  8
0
  6
CONTINUOUS
 10
2.518120
 20
1.596320
  0
SEQEND
  8
0
  0
SOLID
  8
0
 62
    15
 10
6.614960
 20
1.301520
 11
6.619800
 21
2.047320
 12
6.614960
 22
1.584880
 13
6.619800
 23
2.330680
  0
POLYLINE
  8
0
  6
CONTINUOUS
 66
     1
 40
0.000000
 41
0.000000
  0
VERTEX
  8
0
  6
CONTINUOUS
 10
6.614960
 20
1.301520
  0
VERTEX
  8
0
  6
CONTINUOUS
 10
6.619800
 20
2.047320
  0
VERTEX
  8
0
  6
CONTINUOUS
 10
6.619800
 20
2.330680
  0
VERTEX
  8
0
  6
CONTINUOUS
 10
6.614960
 20
1.584880
  0
VERTEX
  8
0
  6
CONTINUOUS
 10
6.614960
 20
1.301520
  0
SEQEND
  8
0
  0
SOLID
  8
0
 62
    15
 10
6.969600
 20
1.584880
 11
6.974880
 21
2.330680
 12
6.969600
 22
1.851080
 13
6.974880
 23
2.596880
  0
POLYLINE
  8
0
  6
CONTINUOUS
 66
     1
 40
0.000000
 41
0.000000
  0
VERTEX
  8
0
  6
CONTINUOUS
 10
6.969600
 20
1.584880
  0
VERTEX
  8
0
  6
CONTINUOUS
 10
6.974880
 20
2.330680
  0
VERTEX
  8
0
  6
CONTINUOUS
 10
6.974880
 20
2.596880
  0
VERTEX
  8
0
  6
CONTINUOUS
 10
6.969600
 20
1.851080
  0
VERTEX
  8
0
  6
CONTINUOUS
 10
6.969600
 20
1.584880
  0
SEQEND
  8
0
  0
SOLID
  8
0
 62
    15
 10
6.969600
 20
1.851080
 11
6.974880
 21
2.596880
 12
6.614080
 22
1.851080
 13
6.618920
 23
2.596880
  0
POLYLINE
  8
0
  6
CONTINUOUS
 66
     1
 40
0.000000
 41
0.000000
  0
VERTEX
  8
0
  6
CONTINUOUS
 10
6.969600
 20
1.851080
  0
VERTEX
  8
0
  6
CONTINUOUS
 10
6.974880
 20
2.596880
  0
VERTEX
  8
0
  6
CONTINUOUS
 10
6.618920
 20
2.596880
  0
VERTEX
  8
0
  6
CONTINUOUS
 10
6.614080
 20
1.851080
  0
VERTEX
  8
0
  6
CONTINUOUS
 10
6.969600
 20
1.851080
  0
SEQEND
  8
0
  0
SOLID
  8
0
 62
    15
 10
6.614080
 20
1.851080
 11
6.618920
 21
2.596880
 12
6.614080
 22
1.945680
 13
6.618920
 23
2.691480
  0
POLYLINE
  8
0
  6
CONTINUOUS
 66
     1
 40
0.000000
 41
0.000000
  0
VERTEX
  8
0
  6
CONTINUOUS
 10
6.614080
 20
1.851080
  0
VERTEX
  8
0
  6
CONTINUOUS
 10
6.618920
 20
2.596880
  0
VERTEX
  8
0
  6
CONTINUOUS
 10
6.618920
 20
2.691480
  0
VERTEX
  8
0
  6
CONTINUOUS
 10
6.614080
 20
1.945680
  0
VERTEX
  8
0
  6
CONTINUOUS
 10
6.614080
 20
1.851080
  0
SEQEND
  8
0
  0
SOLID
  8
0
 62
    15
 10
6.614080
 20
1.945680
 11
6.618920
 21
2.691480
 12
6.549400
 22
1.945680
 13
6.554240
 23
2.691480
  0
POLYLINE
  8
0
  6
CONTINUOUS
 66
     1
 40
0.000000
 41
0.000000
  0
VERTEX
  8
0
  6
CONTINUOUS
 10
6.614080
 20
1.945680
  0
VERTEX
  8
0
  6
CONTINUOUS
 10
6.618920
 20
2.691480
  0
VERTEX
  8
0
  6
CONTINUOUS
 10
6.554240
 20
2.691480
  0
VERTEX
  8
0
  6
CONTINUOUS
 10
6.549400
 20
1.945680
  0
VERTEX
  8
0
  6
CONTINUOUS
 10
6.614080
 20
1.945680
  0
SEQEND
  8
0
  0
SOLID
  8
0
 62
    15
 10
6.549400
 20
1.945680
 11
6.554240
 21
2.691480
 12
6.547200
 22
1.968120
 13
6.552040
 23
2.714360
  0
POLYLINE
  8
0
  6
CONTINUOUS
 66
     1
 40
0.000000
 41
0.000000
  0
VERTEX
  8
0
  6
CONTINUOUS
 10
6.549400
 20
1.945680
  0
VERTEX
  8
0
  6
CONTINUOUS
 10
6.554240
 20
2.691480
  0
VERTEX
  8
0
  6
CONTINUOUS
 10
6.552040
 20
2.714360
  0
VERTEX
  8
0
  6
CONTINUOUS
 10
6.547200
 20
1.968120
  0
VERTEX
  8
0
  6
CONTINUOUS
 10
6.549400
 20
1.945680
  0
SEQEND
  8
0
  0
SOLID
  8
0
 62
    15
 10
6.547200
 20
1.968120
 11
6.552040
 21
2.714360
 12
6.540600
 22
1.989240
 13
6.545440
 23
2.735480
  0
POLYLINE
  8
0
  6
CONTINUOUS
 66
     1
 40
0.000000
 41
0.000000
  0
VERTEX
  8
0
  6
CONTINUOUS
 10
6.547200
 20
1.968120
  0
VERTEX
  8
0
  6
CONTINUOUS
 10
6.552040
 20
2.714360
  0
VERTEX
  8
0
  6
CONTINUOUS
 10
6.545440
 20
2.735480
  0
VERTEX
  8
0
  6
CONTINUOUS
 10
6.540600
 20
1.989240
  0
VERTEX
  8
0
  6
CONTINUOUS
 10
6.547200
 20
1.968120
  0
SEQEND
  8
0
  0
SOLID
  8
0
 62
    15
 10
6.540600
 20
1.989240
 11
6.545440
 21
2.735480
 12
6.530040
 22
2.008600
 13
6.535320
 23
2.754400
  0
POLYLINE
  8
0
  6
CONTINUOUS
 66
     1
 40
0.000000
 41
0.000000
  0
VERTEX
  8
0
  6
CONTINUOUS
 10
6.540600
 20
1.989240
  0
VERTEX
  8
0
  6
CONTINUOUS
 10
6.545440
 20
2.735480
  0
VERTEX
  8
0
  6
CONTINUOUS
 10
6.535320
 20
2.754400
  0
VERTEX
  8
0
  6
CONTINUOUS
 10
6.530040
 20
2.008600
  0
VERTEX
  8
0
  6
CONTINUOUS
 10
6.540600
 20
1.989240
  0
SEQEND
  8
0
  0
SOLID
  8
0
 62
    15
 10
6.530040
 20
2.008600
 11
6.535320
 21
2.754400
 12
6.516400
 22
2.025320
 13
6.521240
 23
2.771120
  0
POLYLINE
  8
0
  6
CONTINUOUS
 66
     1
 40
0.000000
 41
0.000000
  0
VERTEX
  8
0
  6
CONTINUOUS
 10
6.530040
 20
2.008600
  0
VERTEX
  8
0
  6
CONTINUOUS
 10
6.535320
 20
2.754400
  0
VERTEX
  8
0
  6
CONTINUOUS
 10
6.521240
 20
2.771120
  0
VERTEX
  8
0
  6
CONTINUOUS
 10
6.516400
 20
2.025320
  0
VERTEX
  8
0
  6
CONTINUOUS
 10
6.530040
 20
2.008600
  0
SEQEND
  8
0
  0
SOLID
  8
0
 62
    15
 10
6.516400
 20
2.025320
 11
6.521240
 21
2.771120
 12
6.499680
 22
2.038960
 13
6.504960
 23
2.785200
  0
POLYLINE
  8
0
  6
CONTINUOUS
 66
     1
 40
0.000000
 41
0.000000
  0
VERTEX
  8
0
  6
CONTINUOUS
 10
6.516400
 20
2.025320
  0
VERTEX
  8
0
  6
CONTINUOUS
 10
6.521240
 20
2.771120
  0
VERTEX
  8
0
  6
CONTINUOUS
 10
6.504960
 20
2.785200
  0
VERTEX
  8
0
  6
CONTINUOUS
 10
6.499680
 20
2.038960
  0
VERTEX
  8
0
  6
CONTINUOUS
 10
6.516400
 20
2.025320
  0
SEQEND
  8
0
  0
SOLID
  8
0
 62
    15
 10
6.499680
 20
2.038960
 11
6.504960
 21
2.785200
 12
6.480320
 22
2.049520
 13
6.485600
 23
2.795320
  0
POLYLINE
  8
0
  6
CONTINUOUS
 66
     1
 40
0.000000
 41
0.000000
  0
VERTEX
  8
0
  6
CONTINUOUS
 10
6.499680
 20
2.038960
  0
VERTEX
  8
0
  6
CONTINUOUS
 10
6.504960
 20
2.785200
  0
VERTEX
  8
0
  6
CONTINUOUS
 10
6.485600
 20
2.795320
  0
VERTEX
  8
0
  6
CONTINUOUS
 10
6.480320
 20
2.049520
  0
VERTEX
  8
0
  6
CONTINUOUS
 10
6.499680
 20
2.038960
  0
SEQEND
  8
0
  0
SOLID
  8
0
 62
    15
 10
6.480320
 20
2.049520
 11
6.485600
 21
2.795320
 12
6.459200
 22
2.056120
 13
6.464480
 23
2.801920
  0
POLYLINE
  8
0
  6
CONTINUOUS
 66
     1
 40
0.000000
 41
0.000000
  0
VERTEX
  8
0
  6
CONTINUOUS
 10
6.480320
 20
2.049520
  0
VERTEX
  8
0
  6
CONTINUOUS
 10
6.485600
 20
2.795320
  0
VERTEX
  8
0
  6
CONTINUOUS
 10
6.464480
 20
2.801920
  0
VERTEX
  8
0
  6
CONTINUOUS
 10
6.459200
 20
2.056120
  0
VERTEX
  8
0
  6
CONTINUOUS
 10
6.480320
 20
2.049520
  0
SEQEND
  8
0
  0
SOLID
  8
0
 62
    15
 10
6.459200
 20
2.056120
 11
6.464480
 21
2.801920
 12
6.436760
 22
2.058320
 13
6.441600
 23
2.804120
  0
POLYLINE
  8
0
  6
CONTINUOUS
 66
     1
 40
0.000000
 41
0.000000
  0
VERTEX
  8
0
  6
CONTINUOUS
 10
6.459200
 20
2.056120
  0
VERTEX
  8
0
  6
CONTINUOUS
 10
6.464480
 20
2.801920
  0
VERTEX
  8
0
  6
CONTINUOUS
 10
6.441600
 20
2.804120
  0
VERTEX
  8
0
  6
CONTINUOUS
 10
6.436760
 20
2.058320
  0
VERTEX
  8
0
  6
CONTINUOUS
 10
6.459200
 20
2.056120
  0
SEQEND
  8
0
  0
SOLID
  8
0
 62
    15
 10
6.436760
 20
2.058320
 11
6.441600
 21
2.804120
 12
6.413880
 22
2.056120
 13
6.418720
 23
2.801920
  0
POLYLINE
  8
0
  6
CONTINUOUS
 66
     1
 40
0.000000
 41
0.000000
  0
VERTEX
  8
0
  6
CONTINUOUS
 10
6.436760
 20
2.058320
  0
VERTEX
  8
0
  6
CONTINUOUS
 10
6.441600
 20
2.804120
  0
VERTEX
  8
0
  6
CONTINUOUS
 10
6.418720
 20
2.801920
  0
VERTEX
  8
0
  6
CONTINUOUS
 10
6.413880
 20
2.056120
  0
VERTEX
  8
0
  6
CONTINUOUS
 10
6.436760
 20
2.058320
  0
SEQEND
  8
0
  0
SOLID
  8
0
 62
    15
 10
6.413880
 20
2.056120
 11
6.418720
 21
2.801920
 12
6.392760
 22
2.049520
 13
6.397600
 23
2.795320
  0
POLYLINE
  8
0
  6
CONTINUOUS
 66
     1
 40
0.000000
 41
0.000000
  0
VERTEX
  8
0
  6
CONTINUOUS
 10
6.413880
 20
2.056120
  0
VERTEX
  8
0
  6
CONTINUOUS
 10
6.418720
 20
2.801920
  0
VERTEX
  8
0
  6
CONTINUOUS
 10
6.397600
 20
2.795320
  0
VERTEX
  8
0
  6
CONTINUOUS
 10
6.392760
 20
2.049520
  0
VERTEX
  8
0
  6
CONTINUOUS
 10
6.413880
 20
2.056120
  0
SEQEND
  8
0
  0
SOLID
  8
0
 62
    15
 10
6.392760
 20
2.049520
 11
6.397600
 21
2.795320
 12
6.373400
 22
2.038960
 13
6.378680
 23
2.785200
  0
POLYLINE
  8
0
  6
CONTINUOUS
 66
     1
 40
0.000000
 41
0.000000
  0
VERTEX
  8
0
  6
CONTINUOUS
 10
6.392760
 20
2.049520
  0
VERTEX
  8
0
  6
CONTINUOUS
 10
6.397600
 20
2.795320
  0
VERTEX
  8
0
  6
CONTINUOUS
 10
6.378680
 20
2.785200
  0
VERTEX
  8
0
  6
CONTINUOUS
 10
6.373400
 20
2.038960
  0
VERTEX
  8
0
  6
CONTINUOUS
 10
6.392760
 20
2.049520
  0
SEQEND
  8
0
  0
SOLID
  8
0
 62
    15
 10
6.373400
 20
2.038960
 11
6.378680
 21
2.785200
 12
6.356680
 22
2.025320
 13
6.361960
 23
2.771120
  0
POLYLINE
  8
0
  6
CONTINUOUS
 66
     1
 40
0.000000
 41
0.000000
  0
VERTEX
  8
0
  6
CONTINUOUS
 10
6.373400
 20
2.038960
  0
VERTEX
  8
0
  6
CONTINUOUS
 10
6.378680
 20
2.785200
  0
VERTEX
  8
0
  6
CONTINUOUS
 10
6.361960
 20
2.771120
  0
VERTEX
  8
0
  6
CONTINUOUS
 10
6.356680
 20
2.025320
  0
VERTEX
  8
0
  6
CONTINUOUS
 10
6.373400
 20
2.038960
  0
SEQEND
  8
0
  0
SOLID
  8
0
 62
    15
 10
6.356680
 20
2.025320
 11
6.361960
 21
2.771120
 12
6.343040
 22
2.008600
 13
6.348320
 23
2.754400
  0
POLYLINE
  8
0
  6
CONTINUOUS
 66
     1
 40
0.000000
 41
0.000000
  0
VERTEX
  8
0
  6
CONTINUOUS
 10
6.356680
 20
2.025320
  0
VERTEX
  8
0
  6
CONTINUOUS
 10
6.361960
 20
2.771120
  0
VERTEX
  8
0
  6
CONTINUOUS
 10
6.348320
 20
2.754400
  0
VERTEX
  8
0
  6
CONTINUOUS
 10
6.343040
 20
2.008600
  0
VERTEX
  8
0
  6
CONTINUOUS
 10
6.356680
 20
2.025320
  0
SEQEND
  8
0
  0
SOLID
  8
0
 62
    15
 10
6.343040
 20
2.008600
 11
6.348320
 21
2.754400
 12
6.332480
 22
1.989240
 13
6.337760
 23
2.735480
  0
POLYLINE
  8
0
  6
CONTINUOUS
 66
     1
 40
0.000000
 41
0.000000
  0
VERTEX
  8
0
  6
CONTINUOUS
 10
6.343040
 20
2.008600
  0
VERTEX
  8
0
  6
CONTINUOUS
 10
6.348320
 20
2.754400
  0
VERTEX
  8
0
  6
CONTINUOUS
 10
6.337760
 20
2.735480
  0
VERTEX
  8
0
  6
CONTINUOUS
 10
6.332480
 20
1.989240
  0
VERTEX
  8
0
  6
CONTINUOUS
 10
6.343040
 20
2.008600
  0
SEQEND
  8
0
  0
SOLID
  8
0
 62
    15
 10
6.332480
 20
1.989240
 11
6.337760
 21
2.735480
 12
6.326320
 22
1.968120
 13
6.331160
 23
2.714360
  0
POLYLINE
  8
0
  6
CONTINUOUS
 66
     1
 40
0.000000
 41
0.000000
  0
VERTEX
  8
0
  6
CONTINUOUS
 10
6.332480
 20
1.989240
  0
VERTEX
  8
0
  6
CONTINUOUS
 10
6.337760
 20
2.735480
  0
VERTEX
  8
0
  6
CONTINUOUS
 10
6.331160
 20
2.714360
  0
VERTEX
  8
0
  6
CONTINUOUS
 10
6.326320
 20
1.968120
  0
VERTEX
  8
0
  6
CONTINUOUS
 10
6.332480
 20
1.989240
  0
SEQEND
  8
0
  0
SOLID
  8
0
 62
    15
 10
5.878400
 20
2.061840
 11
5.883240
 21
2.807640
 12
2.141040
 22
2.061840
 13
2.145880
 23
2.807640
  0
POLYLINE
  8
0
  6
CONTINUOUS
 66
     1
 40
0.000000
 41
0.000000
  0
VERTEX
  8
0
  6
CONTINUOUS
 10
5.878400
 20
2.061840
  0
VERTEX
  8
0
  6
CONTINUOUS
 10
5.883240
 20
2.807640
  0
VERTEX
  8
0
  6
CONTINUOUS
 10
2.145880
 20
2.807640
  0
VERTEX
  8
0
  6
CONTINUOUS
 10
2.141040
 20
2.061840
  0
VERTEX
  8
0
  6
CONTINUOUS
 10
5.878400
 20
2.061840
  0
SEQEND
  8
0
  0
SOLID
  8
0
 62
    15
 10
6.326320
 20
1.968120
 11
6.331160
 21
2.714360
 12
6.323680
 22
1.945680
 13
6.328960
 23
2.691480
  0
POLYLINE
  8
0
  6
CONTINUOUS
 66
     1
 40
0.000000
 41
0.000000
  0
VERTEX
  8
0
  6
CONTINUOUS
 10
6.326320
 20
1.968120
  0
VERTEX
  8
0
  6
CONTINUOUS
 10
6.331160
 20
2.714360
  0
VERTEX
  8
0
  6
CONTINUOUS
 10
6.328960
 20
2.691480
  0
VERTEX
  8
0
  6
CONTINUOUS
 10
6.323680
 20
1.945680
  0
VERTEX
  8
0
  6
CONTINUOUS
 10
6.326320
 20
1.968120
  0
SEQEND
  8
0
  0
SOLID
  8
0
 62
    15
 10
6.261640
 20
1.926320
 11
6.266920
 21
2.672120
 12
6.261640
 22
1.944360
 13
6.266920
 23
2.690600
  0
POLYLINE
  8
0
  6
CONTINUOUS
 66
     1
 40
0.000000
 41
0.000000
  0
VERTEX
  8
0
  6
CONTINUOUS
 10
6.261640
 20
1.926320
  0
VERTEX
  8
0
  6
CONTINUOUS
 10
6.266920
 20
2.672120
  0
VERTEX
  8
0
  6
CONTINUOUS
 10
6.266920
 20
2.690600
  0
VERTEX
  8
0
  6
CONTINUOUS
 10
6.261640
 20
1.944360
  0
VERTEX
  8
0
  6
CONTINUOUS
 10
6.261640
 20
1.926320
  0
SEQEND
  8
0
  0
SOLID
  8
0
 62
    15
 10
6.261640
 20
1.944360
 11
6.266920
 21
2.690600
 12
6.259440
 22
1.967240
 13
6.264280
 23
2.713480
  0
POLYLINE
  8
0
  6
CONTINUOUS
 66
     1
 40
0.000000
 41
0.000000
  0
VERTEX
  8
0
  6
CONTINUOUS
 10
6.261640
 20
1.944360
  0
VERTEX
  8
0
  6
CONTINUOUS
 10
6.266920
 20
2.690600
  0
VERTEX
  8
0
  6
CONTINUOUS
 10
6.264280
 20
2.713480
  0
VERTEX
  8
0
  6
CONTINUOUS
 10
6.259440
 20
1.967240
  0
VERTEX
  8
0
  6
CONTINUOUS
 10
6.261640
 20
1.944360
  0
SEQEND
  8
0
  0
SOLID
  8
0
 62
    15
 10
6.259440
 20
1.967240
 11
6.264280
 21
2.713480
 12
6.252840
 22
1.988360
 13
6.258120
 23
2.734600
  0
POLYLINE
  8
0
  6
CONTINUOUS
 66
     1
 40
0.000000
 41
0.000000
  0
VERTEX
  8
0
  6
CONTINUOUS
 10
6.259440
 20
1.967240
  0
VERTEX
  8
0
  6
CONTINUOUS
 10
6.264280
 20
2.713480
  0
VERTEX
  8
0
  6
CONTINUOUS
 10
6.258120
 20
2.734600
  0
VERTEX
  8
0
  6
CONTINUOUS
 10
6.252840
 20
1.988360
  0
VERTEX
  8
0
  6
CONTINUOUS
 10
6.259440
 20
1.967240
  0
SEQEND
  8
0
  0
SOLID
  8
0
 62
    15
 10
6.252840
 20
1.988360
 11
6.258120
 21
2.734600
 12
6.242280
 22
2.007720
 13
6.247560
 23
2.753520
  0
POLYLINE
  8
0
  6
CONTINUOUS
 66
     1
 40
0.000000
 41
0.000000
  0
VERTEX
  8
0
  6
CONTINUOUS
 10
6.252840
 20
1.988360
  0
VERTEX
  8
0
  6
CONTINUOUS
 10
6.258120
 20
2.734600
  0
VERTEX
  8
0
  6
CONTINUOUS
 10
6.247560
 20
2.753520
  0
VERTEX
  8
0
  6
CONTINUOUS
 10
6.242280
 20
2.007720
  0
VERTEX
  8
0
  6
CONTINUOUS
 10
6.252840
 20
1.988360
  0
SEQEND
  8
0
  0
SOLID
  8
0
 62
    15
 10
6.242280
 20
2.007720
 11
6.247560
 21
2.753520
 12
6.228640
 22
2.024440
 13
6.233920
 23
2.770240
  0
POLYLINE
  8
0
  6
CONTINUOUS
 66
     1
 40
0.000000
 41
0.000000
  0
VERTEX
  8
0
  6
CONTINUOUS
 10
6.242280
 20
2.007720
  0
VERTEX
  8
0
  6
CONTINUOUS
 10
6.247560
 20
2.753520
  0
VERTEX
  8
0
  6
CONTINUOUS
 10
6.233920
 20
2.770240
  0
VERTEX
  8
0
  6
CONTINUOUS
 10
6.228640
 20
2.024440
  0
VERTEX
  8
0
  6
CONTINUOUS
 10
6.242280
 20
2.007720
  0
SEQEND
  8
0
  0
SOLID
  8
0
 62
    15
 10
6.228640
 20
2.024440
 11
6.233920
 21
2.770240
 12
6.211920
 22
2.038080
 13
6.217200
 23
2.783880
  0
POLYLINE
  8
0
  6
CONTINUOUS
 66
     1
 40
0.000000
 41
0.000000
  0
VERTEX
  8
0
  6
CONTINUOUS
 10
6.228640
 20
2.024440
  0
VERTEX
  8
0
  6
CONTINUOUS
 10
6.233920
 20
2.770240
  0
VERTEX
  8
0
  6
CONTINUOUS
 10
6.217200
 20
2.783880
  0
VERTEX
  8
0
  6
CONTINUOUS
 10
6.211920
 20
2.038080
  0
VERTEX
  8
0
  6
CONTINUOUS
 10
6.228640
 20
2.024440
  0
SEQEND
  8
0
  0
SOLID
  8
0
 62
    15
 10
6.211920
 20
2.038080
 11
6.217200
 21
2.783880
 12
6.193000
 22
2.048640
 13
6.197840
 23
2.794440
  0
POLYLINE
  8
0
  6
CONTINUOUS
 66
     1
 40
0.000000
 41
0.000000
  0
VERTEX
  8
0
  6
CONTINUOUS
 10
6.211920
 20
2.038080
  0
VERTEX
  8
0
  6
CONTINUOUS
 10
6.217200
 20
2.783880
  0
VERTEX
  8
0
  6
CONTINUOUS
 10
6.197840
 20
2.794440
  0
VERTEX
  8
0
  6
CONTINUOUS
 10
6.193000
 20
2.048640
  0
VERTEX
  8
0
  6
CONTINUOUS
 10
6.211920
 20
2.038080
  0
SEQEND
  8
0
  0
SOLID
  8
0
 62
    15
 10
6.193000
 20
2.048640
 11
6.197840
 21
2.794440
 12
6.171880
 22
2.055240
 13
6.176720
 23
2.801040
  0
POLYLINE
  8
0
  6
CONTINUOUS
 66
     1
 40
0.000000
 41
0.000000
  0
VERTEX
  8
0
  6
CONTINUOUS
 10
6.193000
 20
2.048640
  0
VERTEX
  8
0
  6
CONTINUOUS
 10
6.197840
 20
2.794440
  0
VERTEX
  8
0
  6
CONTINUOUS
 10
6.176720
 20
2.801040
  0
VERTEX
  8
0
  6
CONTINUOUS
 10
6.171880
 20
2.055240
  0
VERTEX
  8
0
  6
CONTINUOUS
 10
6.193000
 20
2.048640
  0
SEQEND
  8
0
  0
SOLID
  8
0
 62
    15
 10
6.171880
 20
2.055240
 11
6.176720
 21
2.801040
 12
6.149000
 22
2.057440
 13
6.153840
 23
2.803240
  0
POLYLINE
  8
0
  6
CONTINUOUS
 66
     1
 40
0.000000
 41
0.000000
  0
VERTEX
  8
0
  6
CONTINUOUS
 10
6.171880
 20
2.055240
  0
VERTEX
  8
0
  6
CONTINUOUS
 10
6.176720
 20
2.801040
  0
VERTEX
  8
0
  6
CONTINUOUS
 10
6.153840
 20
2.803240
  0
VERTEX
  8
0
  6
CONTINUOUS
 10
6.149000
 20
2.057440
  0
VERTEX
  8
0
  6
CONTINUOUS
 10
6.171880
 20
2.055240
  0
SEQEND
  8
0
  0
SOLID
  8
0
 62
    15
 10
6.149000
 20
2.057440
 11
6.153840
 21
2.803240
 12
6.126120
 22
2.055240
 13
6.131400
 23
2.801040
  0
POLYLINE
  8
0
  6
CONTINUOUS
 66
     1
 40
0.000000
 41
0.000000
  0
VERTEX
  8
0
  6
CONTINUOUS
 10
6.149000
 20
2.057440
  0
VERTEX
  8
0
  6
CONTINUOUS
 10
6.153840
 20
2.803240
  0
VERTEX
  8
0
  6
CONTINUOUS
 10
6.131400
 20
2.801040
  0
VERTEX
  8
0
  6
CONTINUOUS
 10
6.126120
 20
2.055240
  0
VERTEX
  8
0
  6
CONTINUOUS
 10
6.149000
 20
2.057440
  0
SEQEND
  8
0
  0
SOLID
  8
0
 62
    15
 10
6.126120
 20
2.055240
 11
6.131400
 21
2.801040
 12
6.105000
 22
2.048640
 13
6.110280
 23
2.794440
  0
POLYLINE
  8
0
  6
CONTINUOUS
 66
     1
 40
0.000000
 41
0.000000
  0
VERTEX
  8
0
  6
CONTINUOUS
 10
6.126120
 20
2.055240
  0
VERTEX
  8
0
  6
CONTINUOUS
 10
6.131400
 20
2.801040
  0
VERTEX
  8
0
  6
CONTINUOUS
 10
6.110280
 20
2.794440
  0
VERTEX
  8
0
  6
CONTINUOUS
 10
6.105000
 20
2.048640
  0
VERTEX
  8
0
  6
CONTINUOUS
 10
6.126120
 20
2.055240
  0
SEQEND
  8
0
  0
SOLID
  8
0
 62
    15
 10
6.105000
 20
2.048640
 11
6.110280
 21
2.794440
 12
6.086080
 22
2.038080
 13
6.090920
 23
2.783880
  0
POLYLINE
  8
0
  6
CONTINUOUS
 66
     1
 40
0.000000
 41
0.000000
  0
VERTEX
  8
0
  6
CONTINUOUS
 10
6.105000
 20
2.048640
  0
VERTEX
  8
0
  6
CONTINUOUS
 10
6.110280
 20
2.794440
  0
VERTEX
  8
0
  6
CONTINUOUS
 10
6.090920
 20
2.783880
  0
VERTEX
  8
0
  6
CONTINUOUS
 10
6.086080
 20
2.038080
  0
VERTEX
  8
0
  6
CONTINUOUS
 10
6.105000
 20
2.048640
  0
SEQEND
  8
0
  0
SOLID
  8
0
 62
    15
 10
6.086080
 20
2.038080
 11
6.090920
 21
2.783880
 12
6.069360
 22
2.024440
 13
6.074200
 23
2.770240
  0
POLYLINE
  8
0
  6
CONTINUOUS
 66
     1
 40
0.000000
 41
0.000000
  0
VERTEX
  8
0
  6
CONTINUOUS
 10
6.086080
 20
2.038080
  0
VERTEX
  8
0
  6
CONTINUOUS
 10
6.090920
 20
2.783880
  0
VERTEX
  8
0
  6
CONTINUOUS
 10
6.074200
 20
2.770240
  0
VERTEX
  8
0
  6
CONTINUOUS
 10
6.069360
 20
2.024440
  0
VERTEX
  8
0
  6
CONTINUOUS
 10
6.086080
 20
2.038080
  0
SEQEND
  8
0
  0
SOLID
  8
0
 62
    15
 10
6.069360
 20
2.024440
 11
6.074200
 21
2.770240
 12
6.055280
 22
2.007720
 13
6.060560
 23
2.753520
  0
POLYLINE
  8
0
  6
CONTINUOUS
 66
     1
 40
0.000000
 41
0.000000
  0
VERTEX
  8
0
  6
CONTINUOUS
 10
6.069360
 20
2.024440
  0
VERTEX
  8
0
  6
CONTINUOUS
 10
6.074200
 20
2.770240
  0
VERTEX
  8
0
  6
CONTINUOUS
 10
6.060560
 20
2.753520
  0
VERTEX
  8
0
  6
CONTINUOUS
 10
6.055280
 20
2.007720
  0
VERTEX
  8
0
  6
CONTINUOUS
 10
6.069360
 20
2.024440
  0
SEQEND
  8
0
  0
SOLID
  8
0
 62
    15
 10
6.055280
 20
2.007720
 11
6.060560
 21
2.753520
 12
6.045160
 22
1.988360
 13
6.050000
 23
2.734600
  0
POLYLINE
  8
0
  6
CONTINUOUS
 66
     1
 40
0.000000
 41
0.000000
  0
VERTEX
  8
0
  6
CONTINUOUS
 10
6.055280
 20
2.007720
  0
VERTEX
  8
0
  6
CONTINUOUS
 10
6.060560
 20
2.753520
  0
VERTEX
  8
0
  6
CONTINUOUS
 10
6.050000
 20
2.734600
  0
VERTEX
  8
0
  6
CONTINUOUS
 10
6.045160
 20
1.988360
  0
VERTEX
  8
0
  6
CONTINUOUS
 10
6.055280
 20
2.007720
  0
SEQEND
  8
0
  0
SOLID
  8
0
 62
    15
 10
6.045160
 20
1.988360
 11
6.050000
 21
2.734600
 12
6.038560
 22
1.967240
 13
6.043400
 23
2.713480
  0
POLYLINE
  8
0
  6
CONTINUOUS
 66
     1
 40
0.000000
 41
0.000000
  0
VERTEX
  8
0
  6
CONTINUOUS
 10
6.045160
 20
1.988360
  0
VERTEX
  8
0
  6
CONTINUOUS
 10
6.050000
 20
2.734600
  0
VERTEX
  8
0
  6
CONTINUOUS
 10
6.043400
 20
2.713480
  0
VERTEX
  8
0
  6
CONTINUOUS
 10
6.038560
 20
1.967240
  0
VERTEX
  8
0
  6
CONTINUOUS
 10
6.045160
 20
1.988360
  0
SEQEND
  8
0
  0
SOLID
  8
0
 62
    15
 10
6.035920
 20
1.927640
 11
6.041200
 21
2.673440
 12
5.970800
 22
1.927640
 13
5.975640
 23
2.673440
  0
POLYLINE
  8
0
  6
CONTINUOUS
 66
     1
 40
0.000000
 41
0.000000
  0
VERTEX
  8
0
  6
CONTINUOUS
 10
6.035920
 20
1.927640
  0
VERTEX
  8
0
  6
CONTINUOUS
 10
6.041200
 20
2.673440
  0
VERTEX
  8
0
  6
CONTINUOUS
 10
5.975640
 20
2.673440
  0
VERTEX
  8
0
  6
CONTINUOUS
 10
5.970800
 20
1.927640
  0
VERTEX
  8
0
  6
CONTINUOUS
 10
6.035920
 20
1.927640
  0
SEQEND
  8
0
  0
SOLID
  8
0
 62
    15
 10
6.038560
 20
1.967240
 11
6.043400
 21
2.713480
 12
6.035920
 22
1.944360
 13
6.041200
 23
2.690600
  0
POLYLINE
  8
0
  6
CONTINUOUS
 66
     1
 40
0.000000
 41
0.000000
  0
VERTEX
  8
0
  6
CONTINUOUS
 10
6.038560
 20
1.967240
  0
VERTEX
  8
0
  6
CONTINUOUS
 10
6.043400
 20
2.713480
  0
VERTEX
  8
0
  6
CONTINUOUS
 10
6.041200
 20
2.690600
  0
VERTEX
  8
0
  6
CONTINUOUS
 10
6.035920
 20
1.944360
  0
VERTEX
  8
0
  6
CONTINUOUS
 10
6.038560
 20
1.967240
  0
SEQEND
  8
0
  0
SOLID
  8
0
 62
    15
 10
5.970800
 20
1.927640
 11
5.975640
 21
2.673440
 12
5.941760
 22
2.061840
 13
5.946600
 23
2.808080
  0
POLYLINE
  8
0
  6
CONTINUOUS
 66
     1
 40
0.000000
 41
0.000000
  0
VERTEX
  8
0
  6
CONTINUOUS
 10
5.970800
 20
1.927640
  0
VERTEX
  8
0
  6
CONTINUOUS
 10
5.975640
 20
2.673440
  0
VERTEX
  8
0
  6
CONTINUOUS
 10
5.946600
 20
2.808080
  0
VERTEX
  8
0
  6
CONTINUOUS
 10
5.941760
 20
2.061840
  0
VERTEX
  8
0
  6
CONTINUOUS
 10
5.970800
 20
1.927640
  0
SEQEND
  8
0
  0
SOLID
  8
0
 62
    15
 10
5.941760
 20
2.061840
 11
5.946600
 21
2.808080
 12
5.878400
 22
2.061840
 13
5.883240
 23
2.807640
  0
POLYLINE
  8
0
  6
CONTINUOUS
 66
     1
 40
0.000000
 41
0.000000
  0
VERTEX
  8
0
  6
CONTINUOUS
 10
5.941760
 20
2.061840
  0
VERTEX
  8
0
  6
CONTINUOUS
 10
5.946600
 20
2.808080
  0
VERTEX
  8
0
  6
CONTINUOUS
 10
5.883240
 20
2.807640
  0
VERTEX
  8
0
  6
CONTINUOUS
 10
5.878400
 20
2.061840
  0
VERTEX
  8
0
  6
CONTINUOUS
 10
5.941760
 20
2.061840
  0
SEQEND
  8
0
  0
POLYLINE
  8
0
  6
CONTINUOUS
 66
     1
 40
0.000000
 41
0.000000
  0
VERTEX
  8
0
  6
CONTINUOUS
 10
5.878400
 20
2.061840
  0
VERTEX
  8
0
  6
CONTINUOUS
 10
2.141040
 20
2.061840
  0
VERTEX
  8
0
  6
CONTINUOUS
 10
2.141040
 20
1.823800
  0
VERTEX
  8
0
  6
CONTINUOUS
 10
2.518120
 20
1.823800
  0
VERTEX
  8
0
  6
CONTINUOUS
 10
2.518120
 20
1.596320
  0
VERTEX
  8
0
  6
CONTINUOUS
 10
2.141480
 20
1.596320
  0
VERTEX
  8
0
  6
CONTINUOUS
 10
2.141480
 20
1.301520
  0
VERTEX
  8
0
  6
CONTINUOUS
 10
6.614960
 20
1.301520
  0
VERTEX
  8
0
  6
CONTINUOUS
 10
6.614960
 20
1.584880
  0
VERTEX
  8
0
  6
CONTINUOUS
 10
6.969600
 20
1.584880
  0
VERTEX
  8
0
  6
CONTINUOUS
 10
6.969600
 20
1.851080
  0
VERTEX
  8
0
  6
CONTINUOUS
 10
6.614080
 20
1.851080
  0
VERTEX
  8
0
  6
CONTINUOUS
 10
6.614080
 20
1.945680
  0
VERTEX
  8
0
  6
CONTINUOUS
 10
6.549400
 20
1.945680
  0
VERTEX
  8
0
  6
CONTINUOUS
 10
6.547200
 20
1.968120
  0
VERTEX
  8
0
  6
CONTINUOUS
 10
6.540600
 20
1.989240
  0
VERTEX
  8
0
  6
CONTINUOUS
 10
6.530040
 20
2.008600
  0
VERTEX
  8
0
  6
CONTINUOUS
 10
6.516400
 20
2.025320
  0
VERTEX
  8
0
  6
CONTINUOUS
 10
6.499680
 20
2.038960
  0
VERTEX
  8
0
  6
CONTINUOUS
 10
6.480320
 20
2.049520
  0
VERTEX
  8
0
  6
CONTINUOUS
 10
6.459200
 20
2.056120
  0
VERTEX
  8
0
  6
CONTINUOUS
 10
6.436760
 20
2.058320
  0
VERTEX
  8
0
  6
CONTINUOUS
 10
6.413880
 20
2.056120
  0
VERTEX
  8
0
  6
CONTINUOUS
 10
6.392760
 20
2.049520
  0
VERTEX
  8
0
  6
CONTINUOUS
 10
6.373400
 20
2.038960
  0
VERTEX
  8
0
  6
CONTINUOUS
 10
6.356680
 20
2.025320
  0
VERTEX
  8
0
  6
CONTINUOUS
 10
6.343040
 20
2.008600
  0
VERTEX
  8
0
  6
CONTINUOUS
 10
6.332480
 20
1.989240
  0
VERTEX
  8
0
  6
CONTINUOUS
 10
6.326320
 20
1.968120
  0
VERTEX
  8
0
  6
CONTINUOUS
 10
6.323680
 20
1.945680
  0
VERTEX
  8
0
  6
CONTINUOUS
 10
6.323680
 20
1.926320
  0
VERTEX
  8
0
  6
CONTINUOUS
 10
6.261640
 20
1.926320
  0
VERTEX
  8
0
  6
CONTINUOUS
 10
6.261640
 20
1.944360
  0
VERTEX
  8
0
  6
CONTINUOUS
 10
6.259440
 20
1.967240
  0
VERTEX
  8
0
  6
CONTINUOUS
 10
6.252840
 20
1.988360
  0
VERTEX
  8
0
  6
CONTINUOUS
 10
6.242280
 20
2.007720
  0
VERTEX
  8
0
  6
CONTINUOUS
 10
6.228640
 20
2.024440
  0
VERTEX
  8
0
  6
CONTINUOUS
 10
6.211920
 20
2.038080
  0
VERTEX
  8
0
  6
CONTINUOUS
 10
6.193000
 20
2.048640
  0
VERTEX
  8
0
  6
CONTINUOUS
 10
6.171880
 20
2.055240
  0
VERTEX
  8
0
  6
CONTINUOUS
 10
6.149000
 20
2.057440
  0
VERTEX
  8
0
  6
CONTINUOUS
 10
6.126120
 20
2.055240
  0
VERTEX
  8
0
  6
CONTINUOUS
 10
6.105000
 20
2.048640
  0
VERTEX
  8
0
  6
CONTINUOUS
 10
6.086080
 20
2.038080
  0
VERTEX
  8
0
  6
CONTINUOUS
 10
6.069360
 20
2.024440
  0
VERTEX
  8
0
  6
CONTINUOUS
 10
6.055280
 20
2.007720
  0
VERTEX
  8
0
  6
CONTINUOUS
 10
6.045160
 20
1.988360
  0
VERTEX
  8
0
  6
CONTINUOUS
 10
6.038560
 20
1.967240
  0
VERTEX
  8
0
  6
CONTINUOUS
 10
6.035920
 20
1.944360
  0
VERTEX
  8
0
  6
CONTINUOUS
 10
6.035920
 20
1.927640
  0
VERTEX
  8
0
  6
CONTINUOUS
 10
5.970800
 20
1.927640
  0
VERTEX
  8
0
  6
CONTINUOUS
 10
5.941760
 20
2.061840
  0
VERTEX
  8
0
  6
CONTINUOUS
 10
5.878400
 20
2.061840
  0
SEQEND
  8
0
  0
TEXT
  8
0
 10
4.320800
 20
1.059080
 40
0.137946
  1
BA  598
 41
1.000000
  7
SN0
 71
     0
 72
     5
 11
4.910775
 21
1.059080
  0
TEXT
  8
0
 10
4.165040
 20
0.867680
 40
0.137946
  1
3/4" x 4-7/8"
 41
1.000000
  7
SN0
 71
     0
 72
     5
 11
5.065245
 21
0.867680
  0
ENDSEC
  0
EOF
