  0
SECTION
  2
HEADER
  9
$ACADVER
  1
AC1006
  9
$EXTMIN
 10
3.283280
 20
0.573320
  9
$EXTMAX
 10
7.884800
 20
5.602960
  9
$LTSCALE
 40
0.044000
  9
$PDMODE
 70
    35
  9
$PDSIZE
 40
0.035200
  0
ENDSEC
  0
SECTION
  2
TABLES
  0
TABLE
  2
LTYPE
 70
     9
  0
LTYPE
  2
CONTINUOUS
 70
    64
  3
Solid line
 72
    65
 73
     0
 40
0.000000
  0
LTYPE
  2
DASHED
 70
    64
  3
__ __ __ __ __ __ __ __ __ __ __ __ __ __ __
 72
    65
 73
     2
 40
0.000330
 49
0.000220
 49
-0.000110
  0
LTYPE
  2
HIDDEN
 70
    64
  3
 _ _ _ _ _ _ _ _ _ _ _ _ _ _ _ _ _ _ _ _ _ _
 72
    65
 73
     2
 40
0.000165
 49
0.000110
 49
-0.000055
  0
LTYPE
  2
CENTER
 70
    64
  3
____ _ ____ _ ____ _ ____ _ ____ _ ____ _ ____
 72
    65
 73
     4
 40
0.000880
 49
0.000550
 49
-0.000110
 49
0.000110
 49
-0.000110
  0
LTYPE
  2
PHANTOM
 70
    64
  3
_____ _ _ _____ _ _ _____ _ _ _____ _ _ ____
 72
    65
 73
     6
 40
0.001100
 49
0.000550
 49
-0.000110
 49
0.000110
 49
-0.000110
 49
0.000110
 49
-0.000110
  0
LTYPE
  2
DOT
 70
    64
  3
...............................................
 72
    65
 73
     2
 40
0.000110
 49
0.000000
 49
-0.000110
  0
LTYPE
  2
DASHDOT
 70
    64
  3
__ . __ . __ . __ . __ . __ . __ . __ . __ . __
 72
    65
 73
     4
 40
0.000440
 49
0.000220
 49
-0.000110
 49
0.000000
 49
-0.000110
  0
LTYPE
  2
BORDER
 70
    64
  3
__ __ . __ __ . __ __ . __ __ . __ __ . __ __
 72
    65
 73
     6
 40
0.000770
 49
0.000220
 49
-0.000110
 49
0.000220
 49
-0.000110
 49
0.000000
 49
-0.000110
  0
LTYPE
  2
DIVIDE
 70
    64
  3
__ . . __ . . __ . . __ . . __ . . __ . . __
 72
    65
 73
     6
 40
0.000550
 49
0.000220
 49
-0.000110
 49
0.000000
 49
-0.000110
 49
0.000000
 49
-0.000110
  0
LTYPE
  2
DOTDOT
 70
    64
  3
 . .  . .  . .  . .  . .  . . 
 72
    65
 73
     5
 40
0.000242
 49
-0.000110
 49
0.000000
 49
-0.000110
 49
0.000000
 49
-0.000110
  0
ENDTAB
  0
TABLE
  2
STYLE
 70
     2
  0
STYLE
 70
     0
  2
SN0
 40
0.000000
 41
0.000440
 50
0.000000
 71
     0
 42
0.000000
  3
ROMAND
  0
STYLE
 70
    68
  2
SV0
 40
0.000000
 41
0.000440
 50
0.000000
 71
     0
 42
0.000000
  3
ROMAND
  0
ENDTAB
  0
TABLE
  2
LAYER
 70
     3
  0
LAYER
  2
FOREGROUND
 70
    64
 62
     7
  6
CONTINUOUS
  0
LAYER
  2
BACKGROUND
 70
    65
 62
    -7
  6
CONTINUOUS
  0
LAYER
  2
0
 70
    64
 62
     7
  6
CONTINUOUS
  0
ENDTAB
  0
ENDSEC
  0
SECTION
  2
ENTITIES
  0
POLYLINE
  8
FOREGROUND
  6
CONTINUOUS
 66
     1
 40
0.000000
 41
0.000000
  0
VERTEX
  8
FOREGROUND
  6
CONTINUOUS
 10
0.000000
 20
6.176280
  0
VERTEX
  8
FOREGROUND
  6
CONTINUOUS
 10
8.499920
 20
6.176280
  0
VERTEX
  8
FOREGROUND
  6
CONTINUOUS
 10
8.499920
 20
-4.823720
  0
VERTEX
  8
FOREGROUND
  6
CONTINUOUS
 10
0.000000
 20
-4.823720
  0
VERTEX
  8
FOREGROUND
  6
CONTINUOUS
 10
0.000000
 20
6.176280
  0
SEQEND
  8
0
  0
POLYLINE
  8
FOREGROUND
  6
CONTINUOUS
 66
     1
 40
0.000000
 41
0.000000
  0
VERTEX
  8
FOREGROUND
  6
CONTINUOUS
 10
0.000000
 20
6.176280
  0
VERTEX
  8
FOREGROUND
  6
CONTINUOUS
 10
8.499920
 20
6.176280
  0
VERTEX
  8
FOREGROUND
  6
CONTINUOUS
 10
8.499920
 20
-4.823720
  0
VERTEX
  8
FOREGROUND
  6
CONTINUOUS
 10
0.000000
 20
-4.823720
  0
VERTEX
  8
FOREGROUND
  6
CONTINUOUS
 10
0.000000
 20
6.176280
  0
SEQEND
  8
0
  0
POLYLINE
  8
0
  6
CONTINUOUS
 66
     1
 40
0.014080
 41
0.014080
  0
VERTEX
  8
0
  6
CONTINUOUS
 10
5.925920
 20
5.589760
  0
VERTEX
  8
0
  6
CONTINUOUS
 10
5.925920
 20
4.956160
  0
VERTEX
  8
0
  6
CONTINUOUS
 10
6.169680
 20
4.891040
  0
VERTEX
  8
0
  6
CONTINUOUS
 10
6.169680
 20
4.517480
  0
VERTEX
  8
0
  6
CONTINUOUS
 10
5.931200
 20
4.457640
  0
VERTEX
  8
0
  6
CONTINUOUS
 10
5.931200
 20
3.835040
  0
VERTEX
  8
0
  6
CONTINUOUS
 10
7.431160
 20
3.835040
  0
VERTEX
  8
0
  6
CONTINUOUS
 10
7.431160
 20
5.589760
  0
VERTEX
  8
0
  6
CONTINUOUS
 10
5.925920
 20
5.589760
  0
SEQEND
  8
0
  0
POLYLINE
  8
0
  6
CONTINUOUS
 66
     1
 40
0.014080
 41
0.014080
  0
VERTEX
  8
0
  6
CONTINUOUS
 10
5.597680
 20
3.840320
  0
VERTEX
  8
0
  6
CONTINUOUS
 10
5.597680
 20
4.463360
  0
VERTEX
  8
0
  6
CONTINUOUS
 10
5.836160
 20
4.522760
  0
VERTEX
  8
0
  6
CONTINUOUS
 10
5.836160
 20
4.896760
  0
VERTEX
  8
0
  6
CONTINUOUS
 10
5.592400
 20
4.961440
  0
VERTEX
  8
0
  6
CONTINUOUS
 10
5.592400
 20
5.595040
  0
VERTEX
  8
0
  6
CONTINUOUS
 10
4.092880
 20
5.595040
  0
VERTEX
  8
0
  6
CONTINUOUS
 10
4.092880
 20
3.835040
  0
VERTEX
  8
0
  6
CONTINUOUS
 10
5.598560
 20
3.835040
  0
VERTEX
  8
0
  6
CONTINUOUS
 10
5.597680
 20
3.840320
  0
SEQEND
  8
0
  0
SOLID
  8
0
 62
    15
 10
5.756960
 20
1.649560
 11
6.373840
 21
2.015200
 12
5.995000
 22
1.708960
 13
6.612320
 23
2.074600
  0
POLYLINE
  8
0
  6
CONTINUOUS
 66
     1
 40
0.000000
 41
0.000000
  0
VERTEX
  8
0
  6
CONTINUOUS
 10
5.756960
 20
1.649560
  0
VERTEX
  8
0
  6
CONTINUOUS
 10
6.373840
 20
2.015200
  0
VERTEX
  8
0
  6
CONTINUOUS
 10
6.612320
 20
2.074600
  0
VERTEX
  8
0
  6
CONTINUOUS
 10
5.995000
 20
1.708960
  0
VERTEX
  8
0
  6
CONTINUOUS
 10
5.756960
 20
1.649560
  0
SEQEND
  8
0
  0
SOLID
  8
0
 62
    15
 10
5.751240
 20
2.781240
 11
6.368560
 21
3.146880
 12
7.256920
 22
2.781240
 13
7.874240
 23
3.146880
  0
POLYLINE
  8
0
  6
CONTINUOUS
 66
     1
 40
0.000000
 41
0.000000
  0
VERTEX
  8
0
  6
CONTINUOUS
 10
5.751240
 20
2.781240
  0
VERTEX
  8
0
  6
CONTINUOUS
 10
6.368560
 20
3.146880
  0
VERTEX
  8
0
  6
CONTINUOUS
 10
7.874240
 20
3.146880
  0
VERTEX
  8
0
  6
CONTINUOUS
 10
7.256920
 20
2.781240
  0
VERTEX
  8
0
  6
CONTINUOUS
 10
5.751240
 20
2.781240
  0
SEQEND
  8
0
  0
SOLID
  8
0
 62
    15
 10
7.256920
 20
2.781240
 11
7.874240
 21
3.146880
 12
7.256920
 22
1.026520
 13
7.874240
 23
1.392160
  0
POLYLINE
  8
0
  6
CONTINUOUS
 66
     1
 40
0.000000
 41
0.000000
  0
VERTEX
  8
0
  6
CONTINUOUS
 10
7.256920
 20
2.781240
  0
VERTEX
  8
0
  6
CONTINUOUS
 10
7.874240
 20
3.146880
  0
VERTEX
  8
0
  6
CONTINUOUS
 10
7.874240
 20
1.392160
  0
VERTEX
  8
0
  6
CONTINUOUS
 10
7.256920
 20
1.026520
  0
VERTEX
  8
0
  6
CONTINUOUS
 10
7.256920
 20
2.781240
  0
SEQEND
  8
0
  0
POLYLINE
  8
0
  6
CONTINUOUS
 66
     1
 40
0.000000
 41
0.000000
  0
VERTEX
  8
0
  6
CONTINUOUS
 10
7.256920
 20
2.781240
  0
VERTEX
  8
0
  6
CONTINUOUS
 10
7.256920
 20
1.026520
  0
VERTEX
  8
0
  6
CONTINUOUS
 10
5.756960
 20
1.026520
  0
VERTEX
  8
0
  6
CONTINUOUS
 10
5.756960
 20
1.649560
  0
VERTEX
  8
0
  6
CONTINUOUS
 10
5.995000
 20
1.708960
  0
VERTEX
  8
0
  6
CONTINUOUS
 10
5.995000
 20
2.082520
  0
VERTEX
  8
0
  6
CONTINUOUS
 10
5.751240
 20
2.147640
  0
VERTEX
  8
0
  6
CONTINUOUS
 10
5.751240
 20
2.781240
  0
VERTEX
  8
0
  6
CONTINUOUS
 10
7.256920
 20
2.781240
  0
SEQEND
  8
0
  0
SOLID
  8
0
 62
    15
 10
4.783240
 20
2.786960
 11
5.417720
 21
3.145120
 12
4.783240
 22
2.152920
 13
5.417720
 23
2.511520
  0
POLYLINE
  8
0
  6
CONTINUOUS
 66
     1
 40
0.000000
 41
0.000000
  0
VERTEX
  8
0
  6
CONTINUOUS
 10
4.783240
 20
2.786960
  0
VERTEX
  8
0
  6
CONTINUOUS
 10
5.417720
 20
3.145120
  0
VERTEX
  8
0
  6
CONTINUOUS
 10
5.417720
 20
2.511520
  0
VERTEX
  8
0
  6
CONTINUOUS
 10
4.783240
 20
2.152920
  0
VERTEX
  8
0
  6
CONTINUOUS
 10
4.783240
 20
2.786960
  0
SEQEND
  8
0
  0
SOLID
  8
0
 62
    15
 10
4.783240
 20
2.152920
 11
5.417720
 21
2.511520
 12
5.027000
 22
2.088240
 13
5.661480
 23
2.446400
  0
POLYLINE
  8
0
  6
CONTINUOUS
 66
     1
 40
0.000000
 41
0.000000
  0
VERTEX
  8
0
  6
CONTINUOUS
 10
4.783240
 20
2.152920
  0
VERTEX
  8
0
  6
CONTINUOUS
 10
5.417720
 20
2.511520
  0
VERTEX
  8
0
  6
CONTINUOUS
 10
5.661480
 20
2.446400
  0
VERTEX
  8
0
  6
CONTINUOUS
 10
5.027000
 20
2.088240
  0
VERTEX
  8
0
  6
CONTINUOUS
 10
4.783240
 20
2.152920
  0
SEQEND
  8
0
  0
SOLID
  8
0
 62
    15
 10
4.788520
 20
1.654840
 11
5.423000
 21
2.013000
 12
4.788520
 22
1.032240
 13
5.423000
 23
1.390400
  0
POLYLINE
  8
0
  6
CONTINUOUS
 66
     1
 40
0.000000
 41
0.000000
  0
VERTEX
  8
0
  6
CONTINUOUS
 10
4.788520
 20
1.654840
  0
VERTEX
  8
0
  6
CONTINUOUS
 10
5.423000
 20
2.013000
  0
VERTEX
  8
0
  6
CONTINUOUS
 10
5.423000
 20
1.390400
  0
VERTEX
  8
0
  6
CONTINUOUS
 10
4.788520
 20
1.032240
  0
VERTEX
  8
0
  6
CONTINUOUS
 10
4.788520
 20
1.654840
  0
SEQEND
  8
0
  0
SOLID
  8
0
 62
    15
 10
5.027000
 20
2.088240
 11
5.661480
 21
2.446400
 12
5.027000
 22
1.714680
 13
5.661480
 23
2.072840
  0
POLYLINE
  8
0
  6
CONTINUOUS
 66
     1
 40
0.000000
 41
0.000000
  0
VERTEX
  8
0
  6
CONTINUOUS
 10
5.027000
 20
2.088240
  0
VERTEX
  8
0
  6
CONTINUOUS
 10
5.661480
 20
2.446400
  0
VERTEX
  8
0
  6
CONTINUOUS
 10
5.661480
 20
2.072840
  0
VERTEX
  8
0
  6
CONTINUOUS
 10
5.027000
 20
1.714680
  0
VERTEX
  8
0
  6
CONTINUOUS
 10
5.027000
 20
2.088240
  0
SEQEND
  8
0
  0
SOLID
  8
0
 62
    15
 10
4.788520
 20
1.032240
 11
5.423000
 21
1.390400
 12
4.789400
 22
1.026520
 13
5.423880
 23
1.384680
  0
POLYLINE
  8
0
  6
CONTINUOUS
 66
     1
 40
0.000000
 41
0.000000
  0
VERTEX
  8
0
  6
CONTINUOUS
 10
4.788520
 20
1.032240
  0
VERTEX
  8
0
  6
CONTINUOUS
 10
5.423000
 20
1.390400
  0
VERTEX
  8
0
  6
CONTINUOUS
 10
5.423880
 20
1.384680
  0
VERTEX
  8
0
  6
CONTINUOUS
 10
4.789400
 20
1.026520
  0
VERTEX
  8
0
  6
CONTINUOUS
 10
4.788520
 20
1.032240
  0
SEQEND
  8
0
  0
SOLID
  8
0
 62
    15
 10
3.283720
 20
2.786960
 11
3.918200
 21
3.145120
 12
4.783240
 22
2.786960
 13
5.417720
 23
3.145120
  0
POLYLINE
  8
0
  6
CONTINUOUS
 66
     1
 40
0.000000
 41
0.000000
  0
VERTEX
  8
0
  6
CONTINUOUS
 10
3.283720
 20
2.786960
  0
VERTEX
  8
0
  6
CONTINUOUS
 10
3.918200
 20
3.145120
  0
VERTEX
  8
0
  6
CONTINUOUS
 10
5.417720
 20
3.145120
  0
VERTEX
  8
0
  6
CONTINUOUS
 10
4.783240
 20
2.786960
  0
VERTEX
  8
0
  6
CONTINUOUS
 10
3.283720
 20
2.786960
  0
SEQEND
  8
0
  0
POLYLINE
  8
0
  6
CONTINUOUS
 66
     1
 40
0.000000
 41
0.000000
  0
VERTEX
  8
0
  6
CONTINUOUS
 10
4.789400
 20
1.026520
  0
VERTEX
  8
0
  6
CONTINUOUS
 10
3.283720
 20
1.026520
  0
VERTEX
  8
0
  6
CONTINUOUS
 10
3.283720
 20
2.786960
  0
VERTEX
  8
0
  6
CONTINUOUS
 10
4.783240
 20
2.786960
  0
VERTEX
  8
0
  6
CONTINUOUS
 10
4.783240
 20
2.152920
  0
VERTEX
  8
0
  6
CONTINUOUS
 10
5.027000
 20
2.088240
  0
VERTEX
  8
0
  6
CONTINUOUS
 10
5.027000
 20
1.714680
  0
VERTEX
  8
0
  6
CONTINUOUS
 10
4.788520
 20
1.654840
  0
VERTEX
  8
0
  6
CONTINUOUS
 10
4.788520
 20
1.032240
  0
VERTEX
  8
0
  6
CONTINUOUS
 10
4.789400
 20
1.026520
  0
SEQEND
  8
0
  0
LINE
  8
0
  6
CONTINUOUS
 10
7.246800
 20
1.026520
 11
7.884800
 21
1.394800
  0
TEXT
  8
0
 10
5.289240
 20
0.807840
 40
0.138090
  1
BA  596
 41
1.000000
  7
SN0
 71
     0
 72
     5
 11
5.880223
 21
0.807840
  0
TEXT
  8
0
 10
5.162960
 20
0.616440
 40
0.138090
  1
2-1/2" max.
 41
1.000000
  7
SN0
 71
     0
 72
     5
 11
6.005676
 21
0.616440
  0
TEXT
  8
0
 10
3.362920
 20
1.111880
 40
0.138090
  1
A
 41
1.000000
  7
SN0
 71
     0
 72
     5
 11
3.474075
 21
1.111880
  0
TEXT
  8
0
 10
5.823400
 20
1.113640
 40
0.138090
  1
B
 41
1.000000
  7
SN0
 71
     0
 72
     5
 11
5.934555
 21
1.113640
  0
ENDSEC
  0
EOF
