  0
SECTION
  2
HEADER
  9
$ACADVER
  1
AC1006
  9
$EXTMIN
 10
3.817440
 20
0.544280
  9
$EXTMAX
 10
7.439960
 20
3.951200
  9
$LTSCALE
 40
0.044000
  9
$PDMODE
 70
    35
  9
$PDSIZE
 40
0.035200
  0
ENDSEC
  0
SECTION
  2
TABLES
  0
TABLE
  2
LTYPE
 70
     9
  0
LTYPE
  2
CONTINUOUS
 70
    64
  3
Solid line
 72
    65
 73
     0
 40
0.000000
  0
LTYPE
  2
DASHED
 70
    64
  3
__ __ __ __ __ __ __ __ __ __ __ __ __ __ __
 72
    65
 73
     2
 40
0.000330
 49
0.000220
 49
-0.000110
  0
LTYPE
  2
HIDDEN
 70
    64
  3
 _ _ _ _ _ _ _ _ _ _ _ _ _ _ _ _ _ _ _ _ _ _
 72
    65
 73
     2
 40
0.000165
 49
0.000110
 49
-0.000055
  0
LTYPE
  2
CENTER
 70
    64
  3
____ _ ____ _ ____ _ ____ _ ____ _ ____ _ ____
 72
    65
 73
     4
 40
0.000880
 49
0.000550
 49
-0.000110
 49
0.000110
 49
-0.000110
  0
LTYPE
  2
PHANTOM
 70
    64
  3
_____ _ _ _____ _ _ _____ _ _ _____ _ _ ____
 72
    65
 73
     6
 40
0.001100
 49
0.000550
 49
-0.000110
 49
0.000110
 49
-0.000110
 49
0.000110
 49
-0.000110
  0
LTYPE
  2
DOT
 70
    64
  3
...............................................
 72
    65
 73
     2
 40
0.000110
 49
0.000000
 49
-0.000110
  0
LTYPE
  2
DASHDOT
 70
    64
  3
__ . __ . __ . __ . __ . __ . __ . __ . __ . __
 72
    65
 73
     4
 40
0.000440
 49
0.000220
 49
-0.000110
 49
0.000000
 49
-0.000110
  0
LTYPE
  2
BORDER
 70
    64
  3
__ __ . __ __ . __ __ . __ __ . __ __ . __ __
 72
    65
 73
     6
 40
0.000770
 49
0.000220
 49
-0.000110
 49
0.000220
 49
-0.000110
 49
0.000000
 49
-0.000110
  0
LTYPE
  2
DIVIDE
 70
    64
  3
__ . . __ . . __ . . __ . . __ . . __ . . __
 72
    65
 73
     6
 40
0.000550
 49
0.000220
 49
-0.000110
 49
0.000000
 49
-0.000110
 49
0.000000
 49
-0.000110
  0
LTYPE
  2
DOTDOT
 70
    64
  3
 . .  . .  . .  . .  . .  . . 
 72
    65
 73
     5
 40
0.000242
 49
-0.000110
 49
0.000000
 49
-0.000110
 49
0.000000
 49
-0.000110
  0
ENDTAB
  0
TABLE
  2
STYLE
 70
     2
  0
STYLE
 70
     0
  2
SN0
 40
0.000000
 41
0.000440
 50
0.000000
 71
     0
 42
0.000000
  3
ROMAND
  0
STYLE
 70
    68
  2
SV0
 40
0.000000
 41
0.000440
 50
0.000000
 71
     0
 42
0.000000
  3
ROMAND
  0
ENDTAB
  0
TABLE
  2
LAYER
 70
     3
  0
LAYER
  2
FOREGROUND
 70
    64
 62
     7
  6
CONTINUOUS
  0
LAYER
  2
BACKGROUND
 70
    65
 62
    -7
  6
CONTINUOUS
  0
LAYER
  2
0
 70
    64
 62
     7
  6
CONTINUOUS
  0
ENDTAB
  0
ENDSEC
  0
SECTION
  2
ENTITIES
  0
POLYLINE
  8
FOREGROUND
  6
CONTINUOUS
 66
     1
 40
0.000000
 41
0.000000
  0
VERTEX
  8
FOREGROUND
  6
CONTINUOUS
 10
0.000000
 20
4.495480
  0
VERTEX
  8
FOREGROUND
  6
CONTINUOUS
 10
8.499920
 20
4.495480
  0
VERTEX
  8
FOREGROUND
  6
CONTINUOUS
 10
8.499920
 20
-6.504520
  0
VERTEX
  8
FOREGROUND
  6
CONTINUOUS
 10
0.000000
 20
-6.504520
  0
VERTEX
  8
FOREGROUND
  6
CONTINUOUS
 10
0.000000
 20
4.495480
  0
SEQEND
  8
0
  0
POLYLINE
  8
FOREGROUND
  6
CONTINUOUS
 66
     1
 40
0.000000
 41
0.000000
  0
VERTEX
  8
FOREGROUND
  6
CONTINUOUS
 10
0.000000
 20
4.495480
  0
VERTEX
  8
FOREGROUND
  6
CONTINUOUS
 10
8.499920
 20
4.495480
  0
VERTEX
  8
FOREGROUND
  6
CONTINUOUS
 10
8.499920
 20
-6.504520
  0
VERTEX
  8
FOREGROUND
  6
CONTINUOUS
 10
0.000000
 20
-6.504520
  0
VERTEX
  8
FOREGROUND
  6
CONTINUOUS
 10
0.000000
 20
4.495480
  0
SEQEND
  8
0
  0
POLYLINE
  8
0
  6
CONTINUOUS
 66
     1
 40
0.014080
 41
0.014080
  0
VERTEX
  8
0
  6
CONTINUOUS
 10
3.825360
 20
3.028520
  0
VERTEX
  8
0
  6
CONTINUOUS
 10
7.384960
 20
3.028520
  0
VERTEX
  8
0
  6
CONTINUOUS
 10
7.382760
 20
3.089240
  0
VERTEX
  8
0
  6
CONTINUOUS
 10
7.376600
 20
3.146000
  0
VERTEX
  8
0
  6
CONTINUOUS
 10
7.366920
 20
3.197920
  0
VERTEX
  8
0
  6
CONTINUOUS
 10
7.345800
 20
3.267440
  0
VERTEX
  8
0
  6
CONTINUOUS
 10
7.327760
 20
3.307920
  0
VERTEX
  8
0
  6
CONTINUOUS
 10
7.307520
 20
3.343120
  0
VERTEX
  8
0
  6
CONTINUOUS
 10
7.285080
 20
3.373040
  0
VERTEX
  8
0
  6
CONTINUOUS
 10
7.260440
 20
3.397680
  0
VERTEX
  8
0
  6
CONTINUOUS
 10
7.234480
 20
3.416600
  0
VERTEX
  8
0
  6
CONTINUOUS
 10
7.207200
 20
3.429800
  0
VERTEX
  8
0
  6
CONTINUOUS
 10
7.179040
 20
3.437280
  0
VERTEX
  8
0
  6
CONTINUOUS
 10
7.150000
 20
3.438600
  0
VERTEX
  8
0
  6
CONTINUOUS
 10
7.120960
 20
3.433760
  0
VERTEX
  8
0
  6
CONTINUOUS
 10
7.091920
 20
3.422320
  0
VERTEX
  8
0
  6
CONTINUOUS
 10
7.063320
 20
3.403840
  0
VERTEX
  8
0
  6
CONTINUOUS
 10
7.049240
 20
3.392400
  0
VERTEX
  8
0
  6
CONTINUOUS
 10
6.992480
 20
3.392400
  0
VERTEX
  8
0
  6
CONTINUOUS
 10
6.992480
 20
3.519120
  0
VERTEX
  8
0
  6
CONTINUOUS
 10
5.178360
 20
3.519120
  0
VERTEX
  8
0
  6
CONTINUOUS
 10
5.178360
 20
3.570160
  0
VERTEX
  8
0
  6
CONTINUOUS
 10
5.034920
 20
3.570160
  0
VERTEX
  8
0
  6
CONTINUOUS
 10
4.971560
 20
3.640120
  0
VERTEX
  8
0
  6
CONTINUOUS
 10
4.791160
 20
3.640560
  0
VERTEX
  8
0
  6
CONTINUOUS
 10
4.774000
 20
3.643200
  0
VERTEX
  8
0
  6
CONTINUOUS
 10
4.750240
 20
3.651560
  0
VERTEX
  8
0
  6
CONTINUOUS
 10
4.734840
 20
3.660360
  0
VERTEX
  8
0
  6
CONTINUOUS
 10
4.705800
 20
3.683240
  0
VERTEX
  8
0
  6
CONTINUOUS
 10
4.677200
 20
3.713160
  0
VERTEX
  8
0
  6
CONTINUOUS
 10
4.563680
 20
3.853080
  0
VERTEX
  8
0
  6
CONTINUOUS
 10
4.533760
 20
3.886080
  0
VERTEX
  8
0
  6
CONTINUOUS
 10
4.502080
 20
3.912480
  0
VERTEX
  8
0
  6
CONTINUOUS
 10
4.470400
 20
3.930080
  0
VERTEX
  8
0
  6
CONTINUOUS
 10
4.448840
 20
3.938000
  0
VERTEX
  8
0
  6
CONTINUOUS
 10
4.427720
 20
3.942400
  0
VERTEX
  8
0
  6
CONTINUOUS
 10
4.407040
 20
3.943720
  0
VERTEX
  8
0
  6
CONTINUOUS
 10
4.386800
 20
3.942400
  0
VERTEX
  8
0
  6
CONTINUOUS
 10
4.357760
 20
3.935800
  0
VERTEX
  8
0
  6
CONTINUOUS
 10
4.338840
 20
3.928320
  0
VERTEX
  8
0
  6
CONTINUOUS
 10
4.304960
 20
3.907200
  0
VERTEX
  8
0
  6
CONTINUOUS
 10
4.290000
 20
3.894000
  0
VERTEX
  8
0
  6
CONTINUOUS
 10
4.275920
 20
3.879040
  0
VERTEX
  8
0
  6
CONTINUOUS
 10
4.253480
 20
3.846040
  0
VERTEX
  8
0
  6
CONTINUOUS
 10
4.222680
 20
3.846040
  0
VERTEX
  8
0
  6
CONTINUOUS
 10
4.218720
 20
3.936240
  0
VERTEX
  8
0
  6
CONTINUOUS
 10
3.824920
 20
3.936240
  0
VERTEX
  8
0
  6
CONTINUOUS
 10
3.825360
 20
3.028520
  0
SEQEND
  8
0
  0
LINE
  8
0
  6
CONTINUOUS
 10
5.658400
 20
0.724680
 11
5.658400
 21
0.702680
  0
SOLID
  8
0
 62
    15
 10
5.023920
 20
1.598960
 11
5.026120
 21
2.339480
 12
5.086840
 22
1.529000
 13
5.089480
 23
2.269520
  0
POLYLINE
  8
0
  6
CONTINUOUS
 66
     1
 40
0.000000
 41
0.000000
  0
VERTEX
  8
0
  6
CONTINUOUS
 10
5.023920
 20
1.598960
  0
VERTEX
  8
0
  6
CONTINUOUS
 10
5.026120
 20
2.339480
  0
VERTEX
  8
0
  6
CONTINUOUS
 10
5.089480
 20
2.269520
  0
VERTEX
  8
0
  6
CONTINUOUS
 10
5.086840
 20
1.529000
  0
VERTEX
  8
0
  6
CONTINUOUS
 10
5.023920
 20
1.598960
  0
SEQEND
  8
0
  0
SOLID
  8
0
 62
    15
 10
4.270640
 20
1.894640
 11
4.273280
 21
2.635160
 12
4.274600
 22
1.804440
 13
4.277240
 23
2.545400
  0
POLYLINE
  8
0
  6
CONTINUOUS
 66
     1
 40
0.000000
 41
0.000000
  0
VERTEX
  8
0
  6
CONTINUOUS
 10
4.270640
 20
1.894640
  0
VERTEX
  8
0
  6
CONTINUOUS
 10
4.273280
 20
2.635160
  0
VERTEX
  8
0
  6
CONTINUOUS
 10
4.277240
 20
2.545400
  0
VERTEX
  8
0
  6
CONTINUOUS
 10
4.274600
 20
1.804440
  0
VERTEX
  8
0
  6
CONTINUOUS
 10
4.270640
 20
1.894640
  0
SEQEND
  8
0
  0
SOLID
  8
0
 62
    15
 10
4.274600
 20
1.804440
 11
4.277240
 21
2.545400
 12
4.305840
 22
1.804440
 13
4.308040
 23
2.545400
  0
POLYLINE
  8
0
  6
CONTINUOUS
 66
     1
 40
0.000000
 41
0.000000
  0
VERTEX
  8
0
  6
CONTINUOUS
 10
4.274600
 20
1.804440
  0
VERTEX
  8
0
  6
CONTINUOUS
 10
4.277240
 20
2.545400
  0
VERTEX
  8
0
  6
CONTINUOUS
 10
4.308040
 20
2.545400
  0
VERTEX
  8
0
  6
CONTINUOUS
 10
4.305840
 20
1.804440
  0
VERTEX
  8
0
  6
CONTINUOUS
 10
4.274600
 20
1.804440
  0
SEQEND
  8
0
  0
SOLID
  8
0
 62
    15
 10
4.305840
 20
1.804440
 11
4.308040
 21
2.545400
 12
4.328280
 22
1.837880
 13
4.330920
 23
2.578400
  0
POLYLINE
  8
0
  6
CONTINUOUS
 66
     1
 40
0.000000
 41
0.000000
  0
VERTEX
  8
0
  6
CONTINUOUS
 10
4.305840
 20
1.804440
  0
VERTEX
  8
0
  6
CONTINUOUS
 10
4.308040
 20
2.545400
  0
VERTEX
  8
0
  6
CONTINUOUS
 10
4.330920
 20
2.578400
  0
VERTEX
  8
0
  6
CONTINUOUS
 10
4.328280
 20
1.837880
  0
VERTEX
  8
0
  6
CONTINUOUS
 10
4.305840
 20
1.804440
  0
SEQEND
  8
0
  0
SOLID
  8
0
 62
    15
 10
4.328280
 20
1.837880
 11
4.330920
 21
2.578400
 12
4.357320
 22
1.865600
 13
4.359520
 23
2.606120
  0
POLYLINE
  8
0
  6
CONTINUOUS
 66
     1
 40
0.000000
 41
0.000000
  0
VERTEX
  8
0
  6
CONTINUOUS
 10
4.328280
 20
1.837880
  0
VERTEX
  8
0
  6
CONTINUOUS
 10
4.330920
 20
2.578400
  0
VERTEX
  8
0
  6
CONTINUOUS
 10
4.359520
 20
2.606120
  0
VERTEX
  8
0
  6
CONTINUOUS
 10
4.357320
 20
1.865600
  0
VERTEX
  8
0
  6
CONTINUOUS
 10
4.328280
 20
1.837880
  0
SEQEND
  8
0
  0
SOLID
  8
0
 62
    15
 10
4.357320
 20
1.865600
 11
4.359520
 21
2.606120
 12
4.391200
 22
1.886720
 13
4.393840
 23
2.627240
  0
POLYLINE
  8
0
  6
CONTINUOUS
 66
     1
 40
0.000000
 41
0.000000
  0
VERTEX
  8
0
  6
CONTINUOUS
 10
4.357320
 20
1.865600
  0
VERTEX
  8
0
  6
CONTINUOUS
 10
4.359520
 20
2.606120
  0
VERTEX
  8
0
  6
CONTINUOUS
 10
4.393840
 20
2.627240
  0
VERTEX
  8
0
  6
CONTINUOUS
 10
4.391200
 20
1.886720
  0
VERTEX
  8
0
  6
CONTINUOUS
 10
4.357320
 20
1.865600
  0
SEQEND
  8
0
  0
SOLID
  8
0
 62
    15
 10
4.391200
 20
1.886720
 11
4.393840
 21
2.627240
 12
4.429040
 22
1.899480
 13
4.431680
 23
2.640000
  0
POLYLINE
  8
0
  6
CONTINUOUS
 66
     1
 40
0.000000
 41
0.000000
  0
VERTEX
  8
0
  6
CONTINUOUS
 10
4.391200
 20
1.886720
  0
VERTEX
  8
0
  6
CONTINUOUS
 10
4.393840
 20
2.627240
  0
VERTEX
  8
0
  6
CONTINUOUS
 10
4.431680
 20
2.640000
  0
VERTEX
  8
0
  6
CONTINUOUS
 10
4.429040
 20
1.899480
  0
VERTEX
  8
0
  6
CONTINUOUS
 10
4.391200
 20
1.886720
  0
SEQEND
  8
0
  0
SOLID
  8
0
 62
    15
 10
4.429040
 20
1.899480
 11
4.431680
 21
2.640000
 12
4.469520
 22
1.902120
 13
4.472160
 23
2.642640
  0
POLYLINE
  8
0
  6
CONTINUOUS
 66
     1
 40
0.000000
 41
0.000000
  0
VERTEX
  8
0
  6
CONTINUOUS
 10
4.429040
 20
1.899480
  0
VERTEX
  8
0
  6
CONTINUOUS
 10
4.431680
 20
2.640000
  0
VERTEX
  8
0
  6
CONTINUOUS
 10
4.472160
 20
2.642640
  0
VERTEX
  8
0
  6
CONTINUOUS
 10
4.469520
 20
1.902120
  0
VERTEX
  8
0
  6
CONTINUOUS
 10
4.429040
 20
1.899480
  0
SEQEND
  8
0
  0
SOLID
  8
0
 62
    15
 10
4.469520
 20
1.902120
 11
4.472160
 21
2.642640
 12
4.511760
 22
1.893320
 13
4.514400
 23
2.633840
  0
POLYLINE
  8
0
  6
CONTINUOUS
 66
     1
 40
0.000000
 41
0.000000
  0
VERTEX
  8
0
  6
CONTINUOUS
 10
4.469520
 20
1.902120
  0
VERTEX
  8
0
  6
CONTINUOUS
 10
4.472160
 20
2.642640
  0
VERTEX
  8
0
  6
CONTINUOUS
 10
4.514400
 20
2.633840
  0
VERTEX
  8
0
  6
CONTINUOUS
 10
4.511760
 20
1.893320
  0
VERTEX
  8
0
  6
CONTINUOUS
 10
4.469520
 20
1.902120
  0
SEQEND
  8
0
  0
SOLID
  8
0
 62
    15
 10
4.511760
 20
1.893320
 11
4.514400
 21
2.633840
 12
4.554440
 22
1.870880
 13
4.556640
 23
2.611400
  0
POLYLINE
  8
0
  6
CONTINUOUS
 66
     1
 40
0.000000
 41
0.000000
  0
VERTEX
  8
0
  6
CONTINUOUS
 10
4.511760
 20
1.893320
  0
VERTEX
  8
0
  6
CONTINUOUS
 10
4.514400
 20
2.633840
  0
VERTEX
  8
0
  6
CONTINUOUS
 10
4.556640
 20
2.611400
  0
VERTEX
  8
0
  6
CONTINUOUS
 10
4.554440
 20
1.870880
  0
VERTEX
  8
0
  6
CONTINUOUS
 10
4.511760
 20
1.893320
  0
SEQEND
  8
0
  0
SOLID
  8
0
 62
    15
 10
4.554440
 20
1.870880
 11
4.556640
 21
2.611400
 12
4.596240
 22
1.834360
 13
4.598880
 23
2.574880
  0
POLYLINE
  8
0
  6
CONTINUOUS
 66
     1
 40
0.000000
 41
0.000000
  0
VERTEX
  8
0
  6
CONTINUOUS
 10
4.554440
 20
1.870880
  0
VERTEX
  8
0
  6
CONTINUOUS
 10
4.556640
 20
2.611400
  0
VERTEX
  8
0
  6
CONTINUOUS
 10
4.598880
 20
2.574880
  0
VERTEX
  8
0
  6
CONTINUOUS
 10
4.596240
 20
1.834360
  0
VERTEX
  8
0
  6
CONTINUOUS
 10
4.554440
 20
1.870880
  0
SEQEND
  8
0
  0
SOLID
  8
0
 62
    15
 10
4.596240
 20
1.834360
 11
4.598880
 21
2.574880
 12
4.634960
 22
1.789920
 13
4.637160
 23
2.530440
  0
POLYLINE
  8
0
  6
CONTINUOUS
 66
     1
 40
0.000000
 41
0.000000
  0
VERTEX
  8
0
  6
CONTINUOUS
 10
4.596240
 20
1.834360
  0
VERTEX
  8
0
  6
CONTINUOUS
 10
4.598880
 20
2.574880
  0
VERTEX
  8
0
  6
CONTINUOUS
 10
4.637160
 20
2.530440
  0
VERTEX
  8
0
  6
CONTINUOUS
 10
4.634960
 20
1.789920
  0
VERTEX
  8
0
  6
CONTINUOUS
 10
4.596240
 20
1.834360
  0
SEQEND
  8
0
  0
SOLID
  8
0
 62
    15
 10
4.634960
 20
1.789920
 11
4.637160
 21
2.530440
 12
4.668840
 22
1.747240
 13
4.671480
 23
2.487760
  0
POLYLINE
  8
0
  6
CONTINUOUS
 66
     1
 40
0.000000
 41
0.000000
  0
VERTEX
  8
0
  6
CONTINUOUS
 10
4.634960
 20
1.789920
  0
VERTEX
  8
0
  6
CONTINUOUS
 10
4.637160
 20
2.530440
  0
VERTEX
  8
0
  6
CONTINUOUS
 10
4.671480
 20
2.487760
  0
VERTEX
  8
0
  6
CONTINUOUS
 10
4.668840
 20
1.747240
  0
VERTEX
  8
0
  6
CONTINUOUS
 10
4.634960
 20
1.789920
  0
SEQEND
  8
0
  0
SOLID
  8
0
 62
    15
 10
4.668840
 20
1.747240
 11
4.671480
 21
2.487760
 12
4.684680
 22
1.727000
 13
4.687320
 23
2.467520
  0
POLYLINE
  8
0
  6
CONTINUOUS
 66
     1
 40
0.000000
 41
0.000000
  0
VERTEX
  8
0
  6
CONTINUOUS
 10
4.668840
 20
1.747240
  0
VERTEX
  8
0
  6
CONTINUOUS
 10
4.671480
 20
2.487760
  0
VERTEX
  8
0
  6
CONTINUOUS
 10
4.687320
 20
2.467520
  0
VERTEX
  8
0
  6
CONTINUOUS
 10
4.684680
 20
1.727000
  0
VERTEX
  8
0
  6
CONTINUOUS
 10
4.668840
 20
1.747240
  0
SEQEND
  8
0
  0
SOLID
  8
0
 62
    15
 10
4.684680
 20
1.727000
 11
4.687320
 21
2.467520
 12
4.700080
 22
1.707200
 13
4.702720
 23
2.448160
  0
POLYLINE
  8
0
  6
CONTINUOUS
 66
     1
 40
0.000000
 41
0.000000
  0
VERTEX
  8
0
  6
CONTINUOUS
 10
4.684680
 20
1.727000
  0
VERTEX
  8
0
  6
CONTINUOUS
 10
4.687320
 20
2.467520
  0
VERTEX
  8
0
  6
CONTINUOUS
 10
4.702720
 20
2.448160
  0
VERTEX
  8
0
  6
CONTINUOUS
 10
4.700080
 20
1.707200
  0
VERTEX
  8
0
  6
CONTINUOUS
 10
4.684680
 20
1.727000
  0
SEQEND
  8
0
  0
SOLID
  8
0
 62
    15
 10
4.700080
 20
1.707200
 11
4.702720
 21
2.448160
 12
4.729560
 22
1.672000
 13
4.731760
 23
2.412520
  0
POLYLINE
  8
0
  6
CONTINUOUS
 66
     1
 40
0.000000
 41
0.000000
  0
VERTEX
  8
0
  6
CONTINUOUS
 10
4.700080
 20
1.707200
  0
VERTEX
  8
0
  6
CONTINUOUS
 10
4.702720
 20
2.448160
  0
VERTEX
  8
0
  6
CONTINUOUS
 10
4.731760
 20
2.412520
  0
VERTEX
  8
0
  6
CONTINUOUS
 10
4.729560
 20
1.672000
  0
VERTEX
  8
0
  6
CONTINUOUS
 10
4.700080
 20
1.707200
  0
SEQEND
  8
0
  0
SOLID
  8
0
 62
    15
 10
4.729560
 20
1.672000
 11
4.731760
 21
2.412520
 12
4.758160
 22
1.642080
 13
4.760360
 23
2.382600
  0
POLYLINE
  8
0
  6
CONTINUOUS
 66
     1
 40
0.000000
 41
0.000000
  0
VERTEX
  8
0
  6
CONTINUOUS
 10
4.729560
 20
1.672000
  0
VERTEX
  8
0
  6
CONTINUOUS
 10
4.731760
 20
2.412520
  0
VERTEX
  8
0
  6
CONTINUOUS
 10
4.760360
 20
2.382600
  0
VERTEX
  8
0
  6
CONTINUOUS
 10
4.758160
 20
1.642080
  0
VERTEX
  8
0
  6
CONTINUOUS
 10
4.729560
 20
1.672000
  0
SEQEND
  8
0
  0
SOLID
  8
0
 62
    15
 10
4.758160
 20
1.642080
 11
4.760360
 21
2.382600
 12
4.787200
 22
1.618760
 13
4.789840
 23
2.359280
  0
POLYLINE
  8
0
  6
CONTINUOUS
 66
     1
 40
0.000000
 41
0.000000
  0
VERTEX
  8
0
  6
CONTINUOUS
 10
4.758160
 20
1.642080
  0
VERTEX
  8
0
  6
CONTINUOUS
 10
4.760360
 20
2.382600
  0
VERTEX
  8
0
  6
CONTINUOUS
 10
4.789840
 20
2.359280
  0
VERTEX
  8
0
  6
CONTINUOUS
 10
4.787200
 20
1.618760
  0
VERTEX
  8
0
  6
CONTINUOUS
 10
4.758160
 20
1.642080
  0
SEQEND
  8
0
  0
SOLID
  8
0
 62
    15
 10
4.787200
 20
1.618760
 11
4.789840
 21
2.359280
 12
4.818440
 22
1.604240
 13
4.820640
 23
2.344760
  0
POLYLINE
  8
0
  6
CONTINUOUS
 66
     1
 40
0.000000
 41
0.000000
  0
VERTEX
  8
0
  6
CONTINUOUS
 10
4.787200
 20
1.618760
  0
VERTEX
  8
0
  6
CONTINUOUS
 10
4.789840
 20
2.359280
  0
VERTEX
  8
0
  6
CONTINUOUS
 10
4.820640
 20
2.344760
  0
VERTEX
  8
0
  6
CONTINUOUS
 10
4.818440
 20
1.604240
  0
VERTEX
  8
0
  6
CONTINUOUS
 10
4.787200
 20
1.618760
  0
SEQEND
  8
0
  0
SOLID
  8
0
 62
    15
 10
4.818440
 20
1.604240
 11
4.820640
 21
2.344760
 12
4.852320
 22
1.598960
 13
4.854520
 23
2.339480
  0
POLYLINE
  8
0
  6
CONTINUOUS
 66
     1
 40
0.000000
 41
0.000000
  0
VERTEX
  8
0
  6
CONTINUOUS
 10
4.818440
 20
1.604240
  0
VERTEX
  8
0
  6
CONTINUOUS
 10
4.820640
 20
2.344760
  0
VERTEX
  8
0
  6
CONTINUOUS
 10
4.854520
 20
2.339480
  0
VERTEX
  8
0
  6
CONTINUOUS
 10
4.852320
 20
1.598960
  0
VERTEX
  8
0
  6
CONTINUOUS
 10
4.818440
 20
1.604240
  0
SEQEND
  8
0
  0
SOLID
  8
0
 62
    15
 10
4.852320
 20
1.598960
 11
4.854520
 21
2.339480
 12
5.023920
 22
1.598960
 13
5.026120
 23
2.339480
  0
POLYLINE
  8
0
  6
CONTINUOUS
 66
     1
 40
0.000000
 41
0.000000
  0
VERTEX
  8
0
  6
CONTINUOUS
 10
4.852320
 20
1.598960
  0
VERTEX
  8
0
  6
CONTINUOUS
 10
4.854520
 20
2.339480
  0
VERTEX
  8
0
  6
CONTINUOUS
 10
5.026120
 20
2.339480
  0
VERTEX
  8
0
  6
CONTINUOUS
 10
5.023920
 20
1.598960
  0
VERTEX
  8
0
  6
CONTINUOUS
 10
4.852320
 20
1.598960
  0
SEQEND
  8
0
  0
SOLID
  8
0
 62
    15
 10
3.877280
 20
1.894640
 11
3.879920
 21
2.635160
 12
4.270640
 22
1.894640
 13
4.273280
 23
2.635160
  0
POLYLINE
  8
0
  6
CONTINUOUS
 66
     1
 40
0.000000
 41
0.000000
  0
VERTEX
  8
0
  6
CONTINUOUS
 10
3.877280
 20
1.894640
  0
VERTEX
  8
0
  6
CONTINUOUS
 10
3.879920
 20
2.635160
  0
VERTEX
  8
0
  6
CONTINUOUS
 10
4.273280
 20
2.635160
  0
VERTEX
  8
0
  6
CONTINUOUS
 10
4.270640
 20
1.894640
  0
VERTEX
  8
0
  6
CONTINUOUS
 10
3.877280
 20
1.894640
  0
SEQEND
  8
0
  0
SOLID
  8
0
 62
    15
 10
5.086840
 20
1.529000
 11
5.089480
 21
2.269520
 12
5.230720
 22
1.529000
 13
5.232920
 23
2.269520
  0
POLYLINE
  8
0
  6
CONTINUOUS
 66
     1
 40
0.000000
 41
0.000000
  0
VERTEX
  8
0
  6
CONTINUOUS
 10
5.086840
 20
1.529000
  0
VERTEX
  8
0
  6
CONTINUOUS
 10
5.089480
 20
2.269520
  0
VERTEX
  8
0
  6
CONTINUOUS
 10
5.232920
 20
2.269520
  0
VERTEX
  8
0
  6
CONTINUOUS
 10
5.230720
 20
1.529000
  0
VERTEX
  8
0
  6
CONTINUOUS
 10
5.086840
 20
1.529000
  0
SEQEND
  8
0
  0
SOLID
  8
0
 62
    15
 10
5.230720
 20
1.529000
 11
5.232920
 21
2.269520
 12
5.230720
 22
1.477520
 13
5.232920
 23
2.218040
  0
POLYLINE
  8
0
  6
CONTINUOUS
 66
     1
 40
0.000000
 41
0.000000
  0
VERTEX
  8
0
  6
CONTINUOUS
 10
5.230720
 20
1.529000
  0
VERTEX
  8
0
  6
CONTINUOUS
 10
5.232920
 20
2.269520
  0
VERTEX
  8
0
  6
CONTINUOUS
 10
5.232920
 20
2.218040
  0
VERTEX
  8
0
  6
CONTINUOUS
 10
5.230720
 20
1.477520
  0
VERTEX
  8
0
  6
CONTINUOUS
 10
5.230720
 20
1.529000
  0
SEQEND
  8
0
  0
SOLID
  8
0
 62
    15
 10
7.044840
 20
1.350800
 11
7.047040
 21
2.091320
 12
7.101600
 22
1.350800
 13
7.104240
 23
2.091320
  0
POLYLINE
  8
0
  6
CONTINUOUS
 66
     1
 40
0.000000
 41
0.000000
  0
VERTEX
  8
0
  6
CONTINUOUS
 10
7.044840
 20
1.350800
  0
VERTEX
  8
0
  6
CONTINUOUS
 10
7.047040
 20
2.091320
  0
VERTEX
  8
0
  6
CONTINUOUS
 10
7.104240
 20
2.091320
  0
VERTEX
  8
0
  6
CONTINUOUS
 10
7.101600
 20
1.350800
  0
VERTEX
  8
0
  6
CONTINUOUS
 10
7.044840
 20
1.350800
  0
SEQEND
  8
0
  0
SOLID
  8
0
 62
    15
 10
7.044840
 20
1.477520
 11
7.047040
 21
2.218040
 12
7.044840
 22
1.350800
 13
7.047040
 23
2.091320
  0
POLYLINE
  8
0
  6
CONTINUOUS
 66
     1
 40
0.000000
 41
0.000000
  0
VERTEX
  8
0
  6
CONTINUOUS
 10
7.044840
 20
1.477520
  0
VERTEX
  8
0
  6
CONTINUOUS
 10
7.047040
 20
2.218040
  0
VERTEX
  8
0
  6
CONTINUOUS
 10
7.047040
 20
2.091320
  0
VERTEX
  8
0
  6
CONTINUOUS
 10
7.044840
 20
1.350800
  0
VERTEX
  8
0
  6
CONTINUOUS
 10
7.044840
 20
1.477520
  0
SEQEND
  8
0
  0
SOLID
  8
0
 62
    15
 10
5.230720
 20
1.477520
 11
5.232920
 21
2.218040
 12
7.044840
 22
1.477520
 13
7.047040
 23
2.218040
  0
POLYLINE
  8
0
  6
CONTINUOUS
 66
     1
 40
0.000000
 41
0.000000
  0
VERTEX
  8
0
  6
CONTINUOUS
 10
5.230720
 20
1.477520
  0
VERTEX
  8
0
  6
CONTINUOUS
 10
5.232920
 20
2.218040
  0
VERTEX
  8
0
  6
CONTINUOUS
 10
7.047040
 20
2.218040
  0
VERTEX
  8
0
  6
CONTINUOUS
 10
7.044840
 20
1.477520
  0
VERTEX
  8
0
  6
CONTINUOUS
 10
5.230720
 20
1.477520
  0
SEQEND
  8
0
  0
SOLID
  8
0
 62
    15
 10
7.101600
 20
1.350800
 11
7.104240
 21
2.091320
 12
7.129760
 22
1.372360
 13
7.132400
 23
2.112880
  0
POLYLINE
  8
0
  6
CONTINUOUS
 66
     1
 40
0.000000
 41
0.000000
  0
VERTEX
  8
0
  6
CONTINUOUS
 10
7.101600
 20
1.350800
  0
VERTEX
  8
0
  6
CONTINUOUS
 10
7.104240
 20
2.091320
  0
VERTEX
  8
0
  6
CONTINUOUS
 10
7.132400
 20
2.112880
  0
VERTEX
  8
0
  6
CONTINUOUS
 10
7.129760
 20
1.372360
  0
VERTEX
  8
0
  6
CONTINUOUS
 10
7.101600
 20
1.350800
  0
SEQEND
  8
0
  0
SOLID
  8
0
 62
    15
 10
7.129760
 20
1.372360
 11
7.132400
 21
2.112880
 12
7.158800
 22
1.387320
 13
7.161000
 23
2.127840
  0
POLYLINE
  8
0
  6
CONTINUOUS
 66
     1
 40
0.000000
 41
0.000000
  0
VERTEX
  8
0
  6
CONTINUOUS
 10
7.129760
 20
1.372360
  0
VERTEX
  8
0
  6
CONTINUOUS
 10
7.132400
 20
2.112880
  0
VERTEX
  8
0
  6
CONTINUOUS
 10
7.161000
 20
2.127840
  0
VERTEX
  8
0
  6
CONTINUOUS
 10
7.158800
 20
1.387320
  0
VERTEX
  8
0
  6
CONTINUOUS
 10
7.129760
 20
1.372360
  0
SEQEND
  8
0
  0
SOLID
  8
0
 62
    15
 10
7.158800
 20
1.387320
 11
7.161000
 21
2.127840
 12
7.187840
 22
1.395680
 13
7.190040
 23
2.136200
  0
POLYLINE
  8
0
  6
CONTINUOUS
 66
     1
 40
0.000000
 41
0.000000
  0
VERTEX
  8
0
  6
CONTINUOUS
 10
7.158800
 20
1.387320
  0
VERTEX
  8
0
  6
CONTINUOUS
 10
7.161000
 20
2.127840
  0
VERTEX
  8
0
  6
CONTINUOUS
 10
7.190040
 20
2.136200
  0
VERTEX
  8
0
  6
CONTINUOUS
 10
7.187840
 20
1.395680
  0
VERTEX
  8
0
  6
CONTINUOUS
 10
7.158800
 20
1.387320
  0
SEQEND
  8
0
  0
SOLID
  8
0
 62
    15
 10
7.187840
 20
1.395680
 11
7.190040
 21
2.136200
 12
7.216880
 22
1.397440
 13
7.219080
 23
2.137960
  0
POLYLINE
  8
0
  6
CONTINUOUS
 66
     1
 40
0.000000
 41
0.000000
  0
VERTEX
  8
0
  6
CONTINUOUS
 10
7.187840
 20
1.395680
  0
VERTEX
  8
0
  6
CONTINUOUS
 10
7.190040
 20
2.136200
  0
VERTEX
  8
0
  6
CONTINUOUS
 10
7.219080
 20
2.137960
  0
VERTEX
  8
0
  6
CONTINUOUS
 10
7.216880
 20
1.397440
  0
VERTEX
  8
0
  6
CONTINUOUS
 10
7.187840
 20
1.395680
  0
SEQEND
  8
0
  0
SOLID
  8
0
 62
    15
 10
7.216880
 20
1.397440
 11
7.219080
 21
2.137960
 12
7.245480
 22
1.393040
 13
7.247680
 23
2.133560
  0
POLYLINE
  8
0
  6
CONTINUOUS
 66
     1
 40
0.000000
 41
0.000000
  0
VERTEX
  8
0
  6
CONTINUOUS
 10
7.216880
 20
1.397440
  0
VERTEX
  8
0
  6
CONTINUOUS
 10
7.219080
 20
2.137960
  0
VERTEX
  8
0
  6
CONTINUOUS
 10
7.247680
 20
2.133560
  0
VERTEX
  8
0
  6
CONTINUOUS
 10
7.245480
 20
1.393040
  0
VERTEX
  8
0
  6
CONTINUOUS
 10
7.216880
 20
1.397440
  0
SEQEND
  8
0
  0
SOLID
  8
0
 62
    15
 10
7.245480
 20
1.393040
 11
7.247680
 21
2.133560
 12
7.273200
 22
1.382920
 13
7.275400
 23
2.123440
  0
POLYLINE
  8
0
  6
CONTINUOUS
 66
     1
 40
0.000000
 41
0.000000
  0
VERTEX
  8
0
  6
CONTINUOUS
 10
7.245480
 20
1.393040
  0
VERTEX
  8
0
  6
CONTINUOUS
 10
7.247680
 20
2.133560
  0
VERTEX
  8
0
  6
CONTINUOUS
 10
7.275400
 20
2.123440
  0
VERTEX
  8
0
  6
CONTINUOUS
 10
7.273200
 20
1.382920
  0
VERTEX
  8
0
  6
CONTINUOUS
 10
7.245480
 20
1.393040
  0
SEQEND
  8
0
  0
SOLID
  8
0
 62
    15
 10
7.273200
 20
1.382920
 11
7.275400
 21
2.123440
 12
7.299600
 22
1.366640
 13
7.302240
 23
2.107160
  0
POLYLINE
  8
0
  6
CONTINUOUS
 66
     1
 40
0.000000
 41
0.000000
  0
VERTEX
  8
0
  6
CONTINUOUS
 10
7.273200
 20
1.382920
  0
VERTEX
  8
0
  6
CONTINUOUS
 10
7.275400
 20
2.123440
  0
VERTEX
  8
0
  6
CONTINUOUS
 10
7.302240
 20
2.107160
  0
VERTEX
  8
0
  6
CONTINUOUS
 10
7.299600
 20
1.366640
  0
VERTEX
  8
0
  6
CONTINUOUS
 10
7.273200
 20
1.382920
  0
SEQEND
  8
0
  0
SOLID
  8
0
 62
    15
 10
7.299600
 20
1.366640
 11
7.302240
 21
2.107160
 12
7.325120
 22
1.344640
 13
7.327760
 23
2.085160
  0
POLYLINE
  8
0
  6
CONTINUOUS
 66
     1
 40
0.000000
 41
0.000000
  0
VERTEX
  8
0
  6
CONTINUOUS
 10
7.299600
 20
1.366640
  0
VERTEX
  8
0
  6
CONTINUOUS
 10
7.302240
 20
2.107160
  0
VERTEX
  8
0
  6
CONTINUOUS
 10
7.327760
 20
2.085160
  0
VERTEX
  8
0
  6
CONTINUOUS
 10
7.325120
 20
1.344640
  0
VERTEX
  8
0
  6
CONTINUOUS
 10
7.299600
 20
1.366640
  0
SEQEND
  8
0
  0
SOLID
  8
0
 62
    15
 10
7.325120
 20
1.344640
 11
7.327760
 21
2.085160
 12
7.348880
 22
1.317360
 13
7.351080
 23
2.057880
  0
POLYLINE
  8
0
  6
CONTINUOUS
 66
     1
 40
0.000000
 41
0.000000
  0
VERTEX
  8
0
  6
CONTINUOUS
 10
7.325120
 20
1.344640
  0
VERTEX
  8
0
  6
CONTINUOUS
 10
7.327760
 20
2.085160
  0
VERTEX
  8
0
  6
CONTINUOUS
 10
7.351080
 20
2.057880
  0
VERTEX
  8
0
  6
CONTINUOUS
 10
7.348880
 20
1.317360
  0
VERTEX
  8
0
  6
CONTINUOUS
 10
7.325120
 20
1.344640
  0
SEQEND
  8
0
  0
SOLID
  8
0
 62
    15
 10
7.348880
 20
1.317360
 11
7.351080
 21
2.057880
 12
7.370000
 22
1.284800
 13
7.372640
 23
2.025320
  0
POLYLINE
  8
0
  6
CONTINUOUS
 66
     1
 40
0.000000
 41
0.000000
  0
VERTEX
  8
0
  6
CONTINUOUS
 10
7.348880
 20
1.317360
  0
VERTEX
  8
0
  6
CONTINUOUS
 10
7.351080
 20
2.057880
  0
VERTEX
  8
0
  6
CONTINUOUS
 10
7.372640
 20
2.025320
  0
VERTEX
  8
0
  6
CONTINUOUS
 10
7.370000
 20
1.284800
  0
VERTEX
  8
0
  6
CONTINUOUS
 10
7.348880
 20
1.317360
  0
SEQEND
  8
0
  0
SOLID
  8
0
 62
    15
 10
7.370000
 20
1.284800
 11
7.372640
 21
2.025320
 12
7.389360
 22
1.246960
 13
7.391560
 23
1.987480
  0
POLYLINE
  8
0
  6
CONTINUOUS
 66
     1
 40
0.000000
 41
0.000000
  0
VERTEX
  8
0
  6
CONTINUOUS
 10
7.370000
 20
1.284800
  0
VERTEX
  8
0
  6
CONTINUOUS
 10
7.372640
 20
2.025320
  0
VERTEX
  8
0
  6
CONTINUOUS
 10
7.391560
 20
1.987480
  0
VERTEX
  8
0
  6
CONTINUOUS
 10
7.389360
 20
1.246960
  0
VERTEX
  8
0
  6
CONTINUOUS
 10
7.370000
 20
1.284800
  0
SEQEND
  8
0
  0
SOLID
  8
0
 62
    15
 10
7.389360
 20
1.246960
 11
7.391560
 21
1.987480
 12
7.405640
 22
1.204280
 13
7.407840
 23
1.944800
  0
POLYLINE
  8
0
  6
CONTINUOUS
 66
     1
 40
0.000000
 41
0.000000
  0
VERTEX
  8
0
  6
CONTINUOUS
 10
7.389360
 20
1.246960
  0
VERTEX
  8
0
  6
CONTINUOUS
 10
7.391560
 20
1.987480
  0
VERTEX
  8
0
  6
CONTINUOUS
 10
7.407840
 20
1.944800
  0
VERTEX
  8
0
  6
CONTINUOUS
 10
7.405640
 20
1.204280
  0
VERTEX
  8
0
  6
CONTINUOUS
 10
7.389360
 20
1.246960
  0
SEQEND
  8
0
  0
SOLID
  8
0
 62
    15
 10
7.418840
 20
1.156760
 11
7.421480
 21
1.897280
 12
7.428960
 22
1.104400
 13
7.431160
 23
1.844920
  0
POLYLINE
  8
0
  6
CONTINUOUS
 66
     1
 40
0.000000
 41
0.000000
  0
VERTEX
  8
0
  6
CONTINUOUS
 10
7.418840
 20
1.156760
  0
VERTEX
  8
0
  6
CONTINUOUS
 10
7.421480
 20
1.897280
  0
VERTEX
  8
0
  6
CONTINUOUS
 10
7.431160
 20
1.844920
  0
VERTEX
  8
0
  6
CONTINUOUS
 10
7.428960
 20
1.104400
  0
VERTEX
  8
0
  6
CONTINUOUS
 10
7.418840
 20
1.156760
  0
SEQEND
  8
0
  0
SOLID
  8
0
 62
    15
 10
7.405640
 20
1.204280
 11
7.407840
 21
1.944800
 12
7.418840
 22
1.156760
 13
7.421480
 23
1.897280
  0
POLYLINE
  8
0
  6
CONTINUOUS
 66
     1
 40
0.000000
 41
0.000000
  0
VERTEX
  8
0
  6
CONTINUOUS
 10
7.405640
 20
1.204280
  0
VERTEX
  8
0
  6
CONTINUOUS
 10
7.407840
 20
1.944800
  0
VERTEX
  8
0
  6
CONTINUOUS
 10
7.421480
 20
1.897280
  0
VERTEX
  8
0
  6
CONTINUOUS
 10
7.418840
 20
1.156760
  0
VERTEX
  8
0
  6
CONTINUOUS
 10
7.405640
 20
1.204280
  0
SEQEND
  8
0
  0
SOLID
  8
0
 62
    15
 10
7.428960
 20
1.104400
 11
7.431160
 21
1.844920
 12
7.435120
 22
1.047640
 13
7.437320
 23
1.788600
  0
POLYLINE
  8
0
  6
CONTINUOUS
 66
     1
 40
0.000000
 41
0.000000
  0
VERTEX
  8
0
  6
CONTINUOUS
 10
7.428960
 20
1.104400
  0
VERTEX
  8
0
  6
CONTINUOUS
 10
7.431160
 20
1.844920
  0
VERTEX
  8
0
  6
CONTINUOUS
 10
7.437320
 20
1.788600
  0
VERTEX
  8
0
  6
CONTINUOUS
 10
7.435120
 20
1.047640
  0
VERTEX
  8
0
  6
CONTINUOUS
 10
7.428960
 20
1.104400
  0
SEQEND
  8
0
  0
SOLID
  8
0
 62
    15
 10
7.435120
 20
1.047640
 11
7.437320
 21
1.788600
 12
7.437320
 22
0.986920
 13
7.439520
 23
1.727440
  0
POLYLINE
  8
0
  6
CONTINUOUS
 66
     1
 40
0.000000
 41
0.000000
  0
VERTEX
  8
0
  6
CONTINUOUS
 10
7.435120
 20
1.047640
  0
VERTEX
  8
0
  6
CONTINUOUS
 10
7.437320
 20
1.788600
  0
VERTEX
  8
0
  6
CONTINUOUS
 10
7.439520
 20
1.727440
  0
VERTEX
  8
0
  6
CONTINUOUS
 10
7.437320
 20
0.986920
  0
VERTEX
  8
0
  6
CONTINUOUS
 10
7.435120
 20
1.047640
  0
SEQEND
  8
0
  0
POLYLINE
  8
0
  6
CONTINUOUS
 66
     1
 40
0.000000
 41
0.000000
  0
VERTEX
  8
0
  6
CONTINUOUS
 10
3.877280
 20
0.993080
  0
VERTEX
  8
0
  6
CONTINUOUS
 10
3.877280
 20
1.894640
  0
VERTEX
  8
0
  6
CONTINUOUS
 10
4.270640
 20
1.894640
  0
VERTEX
  8
0
  6
CONTINUOUS
 10
4.274600
 20
1.804440
  0
VERTEX
  8
0
  6
CONTINUOUS
 10
4.305840
 20
1.804440
  0
VERTEX
  8
0
  6
CONTINUOUS
 10
4.328280
 20
1.837880
  0
VERTEX
  8
0
  6
CONTINUOUS
 10
4.357320
 20
1.865600
  0
VERTEX
  8
0
  6
CONTINUOUS
 10
4.391200
 20
1.886720
  0
VERTEX
  8
0
  6
CONTINUOUS
 10
4.429040
 20
1.899480
  0
VERTEX
  8
0
  6
CONTINUOUS
 10
4.469520
 20
1.902120
  0
VERTEX
  8
0
  6
CONTINUOUS
 10
4.511760
 20
1.893320
  0
VERTEX
  8
0
  6
CONTINUOUS
 10
4.554440
 20
1.870880
  0
VERTEX
  8
0
  6
CONTINUOUS
 10
4.596240
 20
1.834360
  0
VERTEX
  8
0
  6
CONTINUOUS
 10
4.634960
 20
1.789920
  0
VERTEX
  8
0
  6
CONTINUOUS
 10
4.668840
 20
1.747240
  0
VERTEX
  8
0
  6
CONTINUOUS
 10
4.684680
 20
1.727000
  0
VERTEX
  8
0
  6
CONTINUOUS
 10
4.700080
 20
1.707200
  0
VERTEX
  8
0
  6
CONTINUOUS
 10
4.729560
 20
1.672000
  0
VERTEX
  8
0
  6
CONTINUOUS
 10
4.758160
 20
1.642080
  0
VERTEX
  8
0
  6
CONTINUOUS
 10
4.787200
 20
1.618760
  0
VERTEX
  8
0
  6
CONTINUOUS
 10
4.818440
 20
1.604240
  0
VERTEX
  8
0
  6
CONTINUOUS
 10
4.852320
 20
1.598960
  0
VERTEX
  8
0
  6
CONTINUOUS
 10
5.023920
 20
1.598960
  0
VERTEX
  8
0
  6
CONTINUOUS
 10
5.086840
 20
1.529000
  0
VERTEX
  8
0
  6
CONTINUOUS
 10
5.230720
 20
1.529000
  0
VERTEX
  8
0
  6
CONTINUOUS
 10
5.230720
 20
1.477520
  0
VERTEX
  8
0
  6
CONTINUOUS
 10
7.044840
 20
1.477520
  0
VERTEX
  8
0
  6
CONTINUOUS
 10
7.044840
 20
1.350800
  0
VERTEX
  8
0
  6
CONTINUOUS
 10
7.101600
 20
1.350800
  0
VERTEX
  8
0
  6
CONTINUOUS
 10
7.129760
 20
1.372360
  0
VERTEX
  8
0
  6
CONTINUOUS
 10
7.158800
 20
1.387320
  0
VERTEX
  8
0
  6
CONTINUOUS
 10
7.187840
 20
1.395680
  0
VERTEX
  8
0
  6
CONTINUOUS
 10
7.216880
 20
1.397440
  0
VERTEX
  8
0
  6
CONTINUOUS
 10
7.245480
 20
1.393040
  0
VERTEX
  8
0
  6
CONTINUOUS
 10
7.273200
 20
1.382920
  0
VERTEX
  8
0
  6
CONTINUOUS
 10
7.299600
 20
1.366640
  0
VERTEX
  8
0
  6
CONTINUOUS
 10
7.325120
 20
1.344640
  0
VERTEX
  8
0
  6
CONTINUOUS
 10
7.348880
 20
1.317360
  0
VERTEX
  8
0
  6
CONTINUOUS
 10
7.370000
 20
1.284800
  0
VERTEX
  8
0
  6
CONTINUOUS
 10
7.389360
 20
1.246960
  0
VERTEX
  8
0
  6
CONTINUOUS
 10
7.405640
 20
1.204280
  0
VERTEX
  8
0
  6
CONTINUOUS
 10
7.418840
 20
1.156760
  0
VERTEX
  8
0
  6
CONTINUOUS
 10
7.428960
 20
1.104400
  0
VERTEX
  8
0
  6
CONTINUOUS
 10
7.435120
 20
1.047640
  0
VERTEX
  8
0
  6
CONTINUOUS
 10
7.437320
 20
0.986920
  0
VERTEX
  8
0
  6
CONTINUOUS
 10
3.877720
 20
0.986920
  0
VERTEX
  8
0
  6
CONTINUOUS
 10
3.877280
 20
0.993080
  0
SEQEND
  8
0
  0
TEXT
  8
0
 10
5.362720
 20
0.778800
 40
0.138144
  1
BA  595
 41
1.000000
  7
SN0
 71
     0
 72
     5
 11
5.952647
 21
0.778800
  0
TEXT
  8
0
 10
5.206960
 20
0.587400
 40
0.138144
  1
7/8" x 3-1/2"
 41
1.000000
  7
SN0
 71
     0
 72
     5
 11
6.106975
 21
0.587400
  0
ENDSEC
  0
EOF
