  0
SECTION
  2
HEADER
  9
$ACADVER
  1
AC1006
  9
$EXTMIN
 10
5.925040
 20
0.366960
  9
$EXTMAX
 10
7.625200
 20
1.890240
  9
$LTSCALE
 40
0.044000
  9
$PDMODE
 70
    35
  9
$PDSIZE
 40
0.035200
  0
ENDSEC
  0
SECTION
  2
TABLES
  0
TABLE
  2
LTYPE
 70
     9
  0
LTYPE
  2
CONTINUOUS
 70
    64
  3
Solid line
 72
    65
 73
     0
 40
0.000000
  0
LTYPE
  2
DASHED
 70
    64
  3
__ __ __ __ __ __ __ __ __ __ __ __ __ __ __
 72
    65
 73
     2
 40
0.000330
 49
0.000220
 49
-0.000110
  0
LTYPE
  2
HIDDEN
 70
    64
  3
 _ _ _ _ _ _ _ _ _ _ _ _ _ _ _ _ _ _ _ _ _ _
 72
    65
 73
     2
 40
0.000165
 49
0.000110
 49
-0.000055
  0
LTYPE
  2
CENTER
 70
    64
  3
____ _ ____ _ ____ _ ____ _ ____ _ ____ _ ____
 72
    65
 73
     4
 40
0.000880
 49
0.000550
 49
-0.000110
 49
0.000110
 49
-0.000110
  0
LTYPE
  2
PHANTOM
 70
    64
  3
_____ _ _ _____ _ _ _____ _ _ _____ _ _ ____
 72
    65
 73
     6
 40
0.001100
 49
0.000550
 49
-0.000110
 49
0.000110
 49
-0.000110
 49
0.000110
 49
-0.000110
  0
LTYPE
  2
DOT
 70
    64
  3
...............................................
 72
    65
 73
     2
 40
0.000110
 49
0.000000
 49
-0.000110
  0
LTYPE
  2
DASHDOT
 70
    64
  3
__ . __ . __ . __ . __ . __ . __ . __ . __ . __
 72
    65
 73
     4
 40
0.000440
 49
0.000220
 49
-0.000110
 49
0.000000
 49
-0.000110
  0
LTYPE
  2
BORDER
 70
    64
  3
__ __ . __ __ . __ __ . __ __ . __ __ . __ __
 72
    65
 73
     6
 40
0.000770
 49
0.000220
 49
-0.000110
 49
0.000220
 49
-0.000110
 49
0.000000
 49
-0.000110
  0
LTYPE
  2
DIVIDE
 70
    64
  3
__ . . __ . . __ . . __ . . __ . . __ . . __
 72
    65
 73
     6
 40
0.000550
 49
0.000220
 49
-0.000110
 49
0.000000
 49
-0.000110
 49
0.000000
 49
-0.000110
  0
LTYPE
  2
DOTDOT
 70
    64
  3
 . .  . .  . .  . .  . .  . . 
 72
    65
 73
     5
 40
0.000242
 49
-0.000110
 49
0.000000
 49
-0.000110
 49
0.000000
 49
-0.000110
  0
ENDTAB
  0
TABLE
  2
STYLE
 70
     2
  0
STYLE
 70
     0
  2
SN0
 40
0.000000
 41
0.000440
 50
0.000000
 71
     0
 42
0.000000
  3
ROMAND
  0
STYLE
 70
    68
  2
SV0
 40
0.000000
 41
0.000440
 50
0.000000
 71
     0
 42
0.000000
  3
ROMAND
  0
ENDTAB
  0
TABLE
  2
LAYER
 70
     3
  0
LAYER
  2
FOREGROUND
 70
    64
 62
     7
  6
CONTINUOUS
  0
LAYER
  2
BACKGROUND
 70
    65
 62
    -7
  6
CONTINUOUS
  0
LAYER
  2
0
 70
    64
 62
     7
  6
CONTINUOUS
  0
ENDTAB
  0
ENDSEC
  0
SECTION
  2
ENTITIES
  0
POLYLINE
  8
FOREGROUND
  6
CONTINUOUS
 66
     1
 40
0.000000
 41
0.000000
  0
VERTEX
  8
FOREGROUND
  6
CONTINUOUS
 10
0.000000
 20
2.257200
  0
VERTEX
  8
FOREGROUND
  6
CONTINUOUS
 10
8.499920
 20
2.257200
  0
VERTEX
  8
FOREGROUND
  6
CONTINUOUS
 10
8.499920
 20
-8.742800
  0
VERTEX
  8
FOREGROUND
  6
CONTINUOUS
 10
0.000000
 20
-8.742800
  0
VERTEX
  8
FOREGROUND
  6
CONTINUOUS
 10
0.000000
 20
2.257200
  0
SEQEND
  8
0
  0
POLYLINE
  8
FOREGROUND
  6
CONTINUOUS
 66
     1
 40
0.000000
 41
0.000000
  0
VERTEX
  8
FOREGROUND
  6
CONTINUOUS
 10
0.000000
 20
2.257200
  0
VERTEX
  8
FOREGROUND
  6
CONTINUOUS
 10
8.499920
 20
2.257200
  0
VERTEX
  8
FOREGROUND
  6
CONTINUOUS
 10
8.499920
 20
-8.742800
  0
VERTEX
  8
FOREGROUND
  6
CONTINUOUS
 10
0.000000
 20
-8.742800
  0
VERTEX
  8
FOREGROUND
  6
CONTINUOUS
 10
0.000000
 20
2.257200
  0
SEQEND
  8
0
  0
POLYLINE
  8
0
  6
CONTINUOUS
 66
     1
 40
0.014080
 41
0.014080
  0
VERTEX
  8
0
  6
CONTINUOUS
 10
7.357680
 20
1.838760
  0
VERTEX
  8
0
  6
CONTINUOUS
 10
7.379240
 20
1.837440
  0
VERTEX
  8
0
  6
CONTINUOUS
 10
7.399480
 20
1.833480
  0
VERTEX
  8
0
  6
CONTINUOUS
 10
7.425880
 20
1.822920
  0
VERTEX
  8
0
  6
CONTINUOUS
 10
7.447440
 20
1.808400
  0
VERTEX
  8
0
  6
CONTINUOUS
 10
7.463720
 20
1.790360
  0
VERTEX
  8
0
  6
CONTINUOUS
 10
7.474280
 20
1.769680
  0
VERTEX
  8
0
  6
CONTINUOUS
 10
7.477800
 20
1.747240
  0
VERTEX
  8
0
  6
CONTINUOUS
 10
7.474280
 20
1.724800
  0
VERTEX
  8
0
  6
CONTINUOUS
 10
7.467240
 20
1.709400
  0
VERTEX
  8
0
  6
CONTINUOUS
 10
7.450080
 20
1.687840
  0
VERTEX
  8
0
  6
CONTINUOUS
 10
7.433800
 20
1.674200
  0
VERTEX
  8
0
  6
CONTINUOUS
 10
7.401680
 20
1.656160
  0
VERTEX
  8
0
  6
CONTINUOUS
 10
7.401680
 20
1.627120
  0
VERTEX
  8
0
  6
CONTINUOUS
 10
7.425880
 20
1.619200
  0
VERTEX
  8
0
  6
CONTINUOUS
 10
7.470320
 20
1.600280
  0
VERTEX
  8
0
  6
CONTINUOUS
 10
7.508600
 20
1.577840
  0
VERTEX
  8
0
  6
CONTINUOUS
 10
7.541160
 20
1.552320
  0
VERTEX
  8
0
  6
CONTINUOUS
 10
7.568000
 20
1.524600
  0
VERTEX
  8
0
  6
CONTINUOUS
 10
7.589120
 20
1.495120
  0
VERTEX
  8
0
  6
CONTINUOUS
 10
7.604080
 20
1.464320
  0
VERTEX
  8
0
  6
CONTINUOUS
 10
7.609800
 20
1.448480
  0
VERTEX
  8
0
  6
CONTINUOUS
 10
7.616840
 20
1.416800
  0
VERTEX
  8
0
  6
CONTINUOUS
 10
7.618160
 20
1.401400
  0
VERTEX
  8
0
  6
CONTINUOUS
 10
7.616400
 20
1.370160
  0
VERTEX
  8
0
  6
CONTINUOUS
 10
7.613760
 20
1.355200
  0
VERTEX
  8
0
  6
CONTINUOUS
 10
7.603640
 20
1.326160
  0
VERTEX
  8
0
  6
CONTINUOUS
 10
7.597040
 20
1.312080
  0
VERTEX
  8
0
  6
CONTINUOUS
 10
7.579000
 20
1.286120
  0
VERTEX
  8
0
  6
CONTINUOUS
 10
7.568000
 20
1.273800
  0
VERTEX
  8
0
  6
CONTINUOUS
 10
7.542040
 20
1.252240
  0
VERTEX
  8
0
  6
CONTINUOUS
 10
7.510360
 20
1.234200
  0
VERTEX
  8
0
  6
CONTINUOUS
 10
7.473840
 20
1.220120
  0
VERTEX
  8
0
  6
CONTINUOUS
 10
7.473840
 20
1.158520
  0
VERTEX
  8
0
  6
CONTINUOUS
 10
7.304000
 20
1.158520
  0
VERTEX
  8
0
  6
CONTINUOUS
 10
7.304000
 20
1.882760
  0
VERTEX
  8
0
  6
CONTINUOUS
 10
7.358120
 20
1.882760
  0
VERTEX
  8
0
  6
CONTINUOUS
 10
7.357680
 20
1.838760
  0
SEQEND
  8
0
  0
SOLID
  8
0
 62
    15
 10
6.483400
 20
1.024760
 11
6.475040
 21
1.768360
 12
6.496160
 22
1.008920
 13
6.488240
 23
1.752960
  0
POLYLINE
  8
0
  6
CONTINUOUS
 66
     1
 40
0.000000
 41
0.000000
  0
VERTEX
  8
0
  6
CONTINUOUS
 10
6.483400
 20
1.024760
  0
VERTEX
  8
0
  6
CONTINUOUS
 10
6.475040
 20
1.768360
  0
VERTEX
  8
0
  6
CONTINUOUS
 10
6.488240
 20
1.752960
  0
VERTEX
  8
0
  6
CONTINUOUS
 10
6.496160
 20
1.008920
  0
VERTEX
  8
0
  6
CONTINUOUS
 10
6.483400
 20
1.024760
  0
SEQEND
  8
0
  0
SOLID
  8
0
 62
    15
 10
6.089160
 20
0.787600
 11
6.081240
 21
1.531640
 12
6.089160
 22
0.957000
 13
6.081240
 23
1.701040
  0
POLYLINE
  8
0
  6
CONTINUOUS
 66
     1
 40
0.000000
 41
0.000000
  0
VERTEX
  8
0
  6
CONTINUOUS
 10
6.089160
 20
0.787600
  0
VERTEX
  8
0
  6
CONTINUOUS
 10
6.081240
 20
1.531640
  0
VERTEX
  8
0
  6
CONTINUOUS
 10
6.081240
 20
1.701040
  0
VERTEX
  8
0
  6
CONTINUOUS
 10
6.089160
 20
0.957000
  0
VERTEX
  8
0
  6
CONTINUOUS
 10
6.089160
 20
0.787600
  0
SEQEND
  8
0
  0
SOLID
  8
0
 62
     7
 10
6.089160
 20
0.957000
 11
6.081240
 21
1.701040
 12
6.151200
 22
0.957000
 13
6.143280
 23
1.701040
  0
POLYLINE
  8
0
  6
CONTINUOUS
 66
     1
 40
0.000000
 41
0.000000
  0
VERTEX
  8
0
  6
CONTINUOUS
 10
6.089160
 20
0.957000
  0
VERTEX
  8
0
  6
CONTINUOUS
 10
6.081240
 20
1.701040
  0
VERTEX
  8
0
  6
CONTINUOUS
 10
6.143280
 20
1.701040
  0
VERTEX
  8
0
  6
CONTINUOUS
 10
6.151200
 20
0.957000
  0
VERTEX
  8
0
  6
CONTINUOUS
 10
6.089160
 20
0.957000
  0
SEQEND
  8
0
  0
SOLID
  8
0
 62
    15
 10
6.151200
 20
0.957000
 11
6.143280
 21
1.701040
 12
6.157360
 22
0.975920
 13
6.149440
 23
1.719960
  0
POLYLINE
  8
0
  6
CONTINUOUS
 66
     1
 40
0.000000
 41
0.000000
  0
VERTEX
  8
0
  6
CONTINUOUS
 10
6.151200
 20
0.957000
  0
VERTEX
  8
0
  6
CONTINUOUS
 10
6.143280
 20
1.701040
  0
VERTEX
  8
0
  6
CONTINUOUS
 10
6.149440
 20
1.719960
  0
VERTEX
  8
0
  6
CONTINUOUS
 10
6.157360
 20
0.975920
  0
VERTEX
  8
0
  6
CONTINUOUS
 10
6.151200
 20
0.957000
  0
SEQEND
  8
0
  0
SOLID
  8
0
 62
    15
 10
6.157360
 20
0.975920
 11
6.149440
 21
1.719960
 12
6.165280
 22
0.993960
 13
6.156920
 23
1.738000
  0
POLYLINE
  8
0
  6
CONTINUOUS
 66
     1
 40
0.000000
 41
0.000000
  0
VERTEX
  8
0
  6
CONTINUOUS
 10
6.157360
 20
0.975920
  0
VERTEX
  8
0
  6
CONTINUOUS
 10
6.149440
 20
1.719960
  0
VERTEX
  8
0
  6
CONTINUOUS
 10
6.156920
 20
1.738000
  0
VERTEX
  8
0
  6
CONTINUOUS
 10
6.165280
 20
0.993960
  0
VERTEX
  8
0
  6
CONTINUOUS
 10
6.157360
 20
0.975920
  0
SEQEND
  8
0
  0
SOLID
  8
0
 62
    15
 10
6.165280
 20
0.993960
 11
6.156920
 21
1.738000
 12
6.173640
 22
1.010240
 13
6.165720
 23
1.754280
  0
POLYLINE
  8
0
  6
CONTINUOUS
 66
     1
 40
0.000000
 41
0.000000
  0
VERTEX
  8
0
  6
CONTINUOUS
 10
6.165280
 20
0.993960
  0
VERTEX
  8
0
  6
CONTINUOUS
 10
6.156920
 20
1.738000
  0
VERTEX
  8
0
  6
CONTINUOUS
 10
6.165720
 20
1.754280
  0
VERTEX
  8
0
  6
CONTINUOUS
 10
6.173640
 20
1.010240
  0
VERTEX
  8
0
  6
CONTINUOUS
 10
6.165280
 20
0.993960
  0
SEQEND
  8
0
  0
SOLID
  8
0
 62
    15
 10
6.173640
 20
1.010240
 11
6.165720
 21
1.754280
 12
6.183320
 22
1.025200
 13
6.174960
 23
1.769240
  0
POLYLINE
  8
0
  6
CONTINUOUS
 66
     1
 40
0.000000
 41
0.000000
  0
VERTEX
  8
0
  6
CONTINUOUS
 10
6.173640
 20
1.010240
  0
VERTEX
  8
0
  6
CONTINUOUS
 10
6.165720
 20
1.754280
  0
VERTEX
  8
0
  6
CONTINUOUS
 10
6.174960
 20
1.769240
  0
VERTEX
  8
0
  6
CONTINUOUS
 10
6.183320
 20
1.025200
  0
VERTEX
  8
0
  6
CONTINUOUS
 10
6.173640
 20
1.010240
  0
SEQEND
  8
0
  0
SOLID
  8
0
 62
    15
 10
6.183320
 20
1.025200
 11
6.174960
 21
1.769240
 12
6.193440
 22
1.038840
 13
6.185520
 23
1.782880
  0
POLYLINE
  8
0
  6
CONTINUOUS
 66
     1
 40
0.000000
 41
0.000000
  0
VERTEX
  8
0
  6
CONTINUOUS
 10
6.183320
 20
1.025200
  0
VERTEX
  8
0
  6
CONTINUOUS
 10
6.174960
 20
1.769240
  0
VERTEX
  8
0
  6
CONTINUOUS
 10
6.185520
 20
1.782880
  0
VERTEX
  8
0
  6
CONTINUOUS
 10
6.193440
 20
1.038840
  0
VERTEX
  8
0
  6
CONTINUOUS
 10
6.183320
 20
1.025200
  0
SEQEND
  8
0
  0
SOLID
  8
0
 62
    15
 10
6.193440
 20
1.038840
 11
6.185520
 21
1.782880
 12
6.204880
 22
1.051160
 13
6.196520
 23
1.795200
  0
POLYLINE
  8
0
  6
CONTINUOUS
 66
     1
 40
0.000000
 41
0.000000
  0
VERTEX
  8
0
  6
CONTINUOUS
 10
6.193440
 20
1.038840
  0
VERTEX
  8
0
  6
CONTINUOUS
 10
6.185520
 20
1.782880
  0
VERTEX
  8
0
  6
CONTINUOUS
 10
6.196520
 20
1.795200
  0
VERTEX
  8
0
  6
CONTINUOUS
 10
6.204880
 20
1.051160
  0
VERTEX
  8
0
  6
CONTINUOUS
 10
6.193440
 20
1.038840
  0
SEQEND
  8
0
  0
SOLID
  8
0
 62
    15
 10
6.204880
 20
1.051160
 11
6.196520
 21
1.795200
 12
6.216760
 22
1.062160
 13
6.208840
 23
1.806200
  0
POLYLINE
  8
0
  6
CONTINUOUS
 66
     1
 40
0.000000
 41
0.000000
  0
VERTEX
  8
0
  6
CONTINUOUS
 10
6.204880
 20
1.051160
  0
VERTEX
  8
0
  6
CONTINUOUS
 10
6.196520
 20
1.795200
  0
VERTEX
  8
0
  6
CONTINUOUS
 10
6.208840
 20
1.806200
  0
VERTEX
  8
0
  6
CONTINUOUS
 10
6.216760
 20
1.062160
  0
VERTEX
  8
0
  6
CONTINUOUS
 10
6.204880
 20
1.051160
  0
SEQEND
  8
0
  0
SOLID
  8
0
 62
    15
 10
6.216760
 20
1.062160
 11
6.208840
 21
1.806200
 12
6.229520
 22
1.071840
 13
6.221600
 23
1.815880
  0
POLYLINE
  8
0
  6
CONTINUOUS
 66
     1
 40
0.000000
 41
0.000000
  0
VERTEX
  8
0
  6
CONTINUOUS
 10
6.216760
 20
1.062160
  0
VERTEX
  8
0
  6
CONTINUOUS
 10
6.208840
 20
1.806200
  0
VERTEX
  8
0
  6
CONTINUOUS
 10
6.221600
 20
1.815880
  0
VERTEX
  8
0
  6
CONTINUOUS
 10
6.229520
 20
1.071840
  0
VERTEX
  8
0
  6
CONTINUOUS
 10
6.216760
 20
1.062160
  0
SEQEND
  8
0
  0
SOLID
  8
0
 62
    15
 10
6.229520
 20
1.071840
 11
6.221600
 21
1.815880
 12
6.243160
 22
1.080200
 13
6.234800
 23
1.824240
  0
POLYLINE
  8
0
  6
CONTINUOUS
 66
     1
 40
0.000000
 41
0.000000
  0
VERTEX
  8
0
  6
CONTINUOUS
 10
6.229520
 20
1.071840
  0
VERTEX
  8
0
  6
CONTINUOUS
 10
6.221600
 20
1.815880
  0
VERTEX
  8
0
  6
CONTINUOUS
 10
6.234800
 20
1.824240
  0
VERTEX
  8
0
  6
CONTINUOUS
 10
6.243160
 20
1.080200
  0
VERTEX
  8
0
  6
CONTINUOUS
 10
6.229520
 20
1.071840
  0
SEQEND
  8
0
  0
SOLID
  8
0
 62
    15
 10
6.243160
 20
1.080200
 11
6.234800
 21
1.824240
 12
6.256800
 22
1.087240
 13
6.248880
 23
1.831280
  0
POLYLINE
  8
0
  6
CONTINUOUS
 66
     1
 40
0.000000
 41
0.000000
  0
VERTEX
  8
0
  6
CONTINUOUS
 10
6.243160
 20
1.080200
  0
VERTEX
  8
0
  6
CONTINUOUS
 10
6.234800
 20
1.824240
  0
VERTEX
  8
0
  6
CONTINUOUS
 10
6.248880
 20
1.831280
  0
VERTEX
  8
0
  6
CONTINUOUS
 10
6.256800
 20
1.087240
  0
VERTEX
  8
0
  6
CONTINUOUS
 10
6.243160
 20
1.080200
  0
SEQEND
  8
0
  0
SOLID
  8
0
 62
    15
 10
6.256800
 20
1.087240
 11
6.248880
 21
1.831280
 12
6.271320
 22
1.092520
 13
6.262960
 23
1.836560
  0
POLYLINE
  8
0
  6
CONTINUOUS
 66
     1
 40
0.000000
 41
0.000000
  0
VERTEX
  8
0
  6
CONTINUOUS
 10
6.256800
 20
1.087240
  0
VERTEX
  8
0
  6
CONTINUOUS
 10
6.248880
 20
1.831280
  0
VERTEX
  8
0
  6
CONTINUOUS
 10
6.262960
 20
1.836560
  0
VERTEX
  8
0
  6
CONTINUOUS
 10
6.271320
 20
1.092520
  0
VERTEX
  8
0
  6
CONTINUOUS
 10
6.256800
 20
1.087240
  0
SEQEND
  8
0
  0
SOLID
  8
0
 62
    15
 10
6.271320
 20
1.092520
 11
6.262960
 21
1.836560
 12
6.286280
 22
1.096920
 13
6.277920
 23
1.840960
  0
POLYLINE
  8
0
  6
CONTINUOUS
 66
     1
 40
0.000000
 41
0.000000
  0
VERTEX
  8
0
  6
CONTINUOUS
 10
6.271320
 20
1.092520
  0
VERTEX
  8
0
  6
CONTINUOUS
 10
6.262960
 20
1.836560
  0
VERTEX
  8
0
  6
CONTINUOUS
 10
6.277920
 20
1.840960
  0
VERTEX
  8
0
  6
CONTINUOUS
 10
6.286280
 20
1.096920
  0
VERTEX
  8
0
  6
CONTINUOUS
 10
6.271320
 20
1.092520
  0
SEQEND
  8
0
  0
SOLID
  8
0
 62
    15
 10
6.286280
 20
1.096920
 11
6.277920
 21
1.840960
 12
6.316640
 22
1.101320
 13
6.308280
 23
1.845360
  0
POLYLINE
  8
0
  6
CONTINUOUS
 66
     1
 40
0.000000
 41
0.000000
  0
VERTEX
  8
0
  6
CONTINUOUS
 10
6.286280
 20
1.096920
  0
VERTEX
  8
0
  6
CONTINUOUS
 10
6.277920
 20
1.840960
  0
VERTEX
  8
0
  6
CONTINUOUS
 10
6.308280
 20
1.845360
  0
VERTEX
  8
0
  6
CONTINUOUS
 10
6.316640
 20
1.101320
  0
VERTEX
  8
0
  6
CONTINUOUS
 10
6.286280
 20
1.096920
  0
SEQEND
  8
0
  0
SOLID
  8
0
 62
     7
 10
6.316640
 20
1.101320
 11
6.308280
 21
1.845360
 12
6.347880
 22
1.100000
 13
6.339960
 23
1.844040
  0
POLYLINE
  8
0
  6
CONTINUOUS
 66
     1
 40
0.000000
 41
0.000000
  0
VERTEX
  8
0
  6
CONTINUOUS
 10
6.316640
 20
1.101320
  0
VERTEX
  8
0
  6
CONTINUOUS
 10
6.308280
 20
1.845360
  0
VERTEX
  8
0
  6
CONTINUOUS
 10
6.339960
 20
1.844040
  0
VERTEX
  8
0
  6
CONTINUOUS
 10
6.347880
 20
1.100000
  0
VERTEX
  8
0
  6
CONTINUOUS
 10
6.316640
 20
1.101320
  0
SEQEND
  8
0
  0
SOLID
  8
0
 62
     7
 10
6.347880
 20
1.100000
 11
6.339960
 21
1.844040
 12
6.379560
 22
1.092960
 13
6.371200
 23
1.837000
  0
POLYLINE
  8
0
  6
CONTINUOUS
 66
     1
 40
0.000000
 41
0.000000
  0
VERTEX
  8
0
  6
CONTINUOUS
 10
6.347880
 20
1.100000
  0
VERTEX
  8
0
  6
CONTINUOUS
 10
6.339960
 20
1.844040
  0
VERTEX
  8
0
  6
CONTINUOUS
 10
6.371200
 20
1.837000
  0
VERTEX
  8
0
  6
CONTINUOUS
 10
6.379560
 20
1.092960
  0
VERTEX
  8
0
  6
CONTINUOUS
 10
6.347880
 20
1.100000
  0
SEQEND
  8
0
  0
SOLID
  8
0
 62
     7
 10
6.379560
 20
1.092960
 11
6.371200
 21
1.837000
 12
6.410800
 22
1.080640
 13
6.402440
 23
1.824680
  0
POLYLINE
  8
0
  6
CONTINUOUS
 66
     1
 40
0.000000
 41
0.000000
  0
VERTEX
  8
0
  6
CONTINUOUS
 10
6.379560
 20
1.092960
  0
VERTEX
  8
0
  6
CONTINUOUS
 10
6.371200
 20
1.837000
  0
VERTEX
  8
0
  6
CONTINUOUS
 10
6.402440
 20
1.824680
  0
VERTEX
  8
0
  6
CONTINUOUS
 10
6.410800
 20
1.080640
  0
VERTEX
  8
0
  6
CONTINUOUS
 10
6.379560
 20
1.092960
  0
SEQEND
  8
0
  0
SOLID
  8
0
 62
     7
 10
6.410800
 20
1.080640
 11
6.402440
 21
1.824680
 12
6.425760
 22
1.072280
 13
6.417840
 23
1.816320
  0
POLYLINE
  8
0
  6
CONTINUOUS
 66
     1
 40
0.000000
 41
0.000000
  0
VERTEX
  8
0
  6
CONTINUOUS
 10
6.410800
 20
1.080640
  0
VERTEX
  8
0
  6
CONTINUOUS
 10
6.402440
 20
1.824680
  0
VERTEX
  8
0
  6
CONTINUOUS
 10
6.417840
 20
1.816320
  0
VERTEX
  8
0
  6
CONTINUOUS
 10
6.425760
 20
1.072280
  0
VERTEX
  8
0
  6
CONTINUOUS
 10
6.410800
 20
1.080640
  0
SEQEND
  8
0
  0
SOLID
  8
0
 62
     7
 10
6.425760
 20
1.072280
 11
6.417840
 21
1.816320
 12
6.440720
 22
1.062600
 13
6.432800
 23
1.806640
  0
POLYLINE
  8
0
  6
CONTINUOUS
 66
     1
 40
0.000000
 41
0.000000
  0
VERTEX
  8
0
  6
CONTINUOUS
 10
6.425760
 20
1.072280
  0
VERTEX
  8
0
  6
CONTINUOUS
 10
6.417840
 20
1.816320
  0
VERTEX
  8
0
  6
CONTINUOUS
 10
6.432800
 20
1.806640
  0
VERTEX
  8
0
  6
CONTINUOUS
 10
6.440720
 20
1.062600
  0
VERTEX
  8
0
  6
CONTINUOUS
 10
6.425760
 20
1.072280
  0
SEQEND
  8
0
  0
SOLID
  8
0
 62
     7
 10
6.440720
 20
1.062600
 11
6.432800
 21
1.806640
 12
6.455240
 22
1.051160
 13
6.447320
 23
1.795200
  0
POLYLINE
  8
0
  6
CONTINUOUS
 66
     1
 40
0.000000
 41
0.000000
  0
VERTEX
  8
0
  6
CONTINUOUS
 10
6.440720
 20
1.062600
  0
VERTEX
  8
0
  6
CONTINUOUS
 10
6.432800
 20
1.806640
  0
VERTEX
  8
0
  6
CONTINUOUS
 10
6.447320
 20
1.795200
  0
VERTEX
  8
0
  6
CONTINUOUS
 10
6.455240
 20
1.051160
  0
VERTEX
  8
0
  6
CONTINUOUS
 10
6.440720
 20
1.062600
  0
SEQEND
  8
0
  0
SOLID
  8
0
 62
     7
 10
6.455240
 20
1.051160
 11
6.447320
 21
1.795200
 12
6.469760
 22
1.038840
 13
6.461400
 23
1.782880
  0
POLYLINE
  8
0
  6
CONTINUOUS
 66
     1
 40
0.000000
 41
0.000000
  0
VERTEX
  8
0
  6
CONTINUOUS
 10
6.455240
 20
1.051160
  0
VERTEX
  8
0
  6
CONTINUOUS
 10
6.447320
 20
1.795200
  0
VERTEX
  8
0
  6
CONTINUOUS
 10
6.461400
 20
1.782880
  0
VERTEX
  8
0
  6
CONTINUOUS
 10
6.469760
 20
1.038840
  0
VERTEX
  8
0
  6
CONTINUOUS
 10
6.455240
 20
1.051160
  0
SEQEND
  8
0
  0
SOLID
  8
0
 62
     7
 10
6.469760
 20
1.038840
 11
6.461400
 21
1.782880
 12
6.483400
 22
1.024760
 13
6.475040
 23
1.768360
  0
POLYLINE
  8
0
  6
CONTINUOUS
 66
     1
 40
0.000000
 41
0.000000
  0
VERTEX
  8
0
  6
CONTINUOUS
 10
6.469760
 20
1.038840
  0
VERTEX
  8
0
  6
CONTINUOUS
 10
6.461400
 20
1.782880
  0
VERTEX
  8
0
  6
CONTINUOUS
 10
6.475040
 20
1.768360
  0
VERTEX
  8
0
  6
CONTINUOUS
 10
6.483400
 20
1.024760
  0
VERTEX
  8
0
  6
CONTINUOUS
 10
6.469760
 20
1.038840
  0
SEQEND
  8
0
  0
SOLID
  8
0
 62
     7
 10
6.769840
 20
0.841280
 11
6.761480
 21
1.585320
 12
6.813400
 22
0.841280
 13
6.805480
 23
1.585320
  0
POLYLINE
  8
0
  6
CONTINUOUS
 66
     1
 40
0.000000
 41
0.000000
  0
VERTEX
  8
0
  6
CONTINUOUS
 10
6.769840
 20
0.841280
  0
VERTEX
  8
0
  6
CONTINUOUS
 10
6.761480
 20
1.585320
  0
VERTEX
  8
0
  6
CONTINUOUS
 10
6.805480
 20
1.585320
  0
VERTEX
  8
0
  6
CONTINUOUS
 10
6.813400
 20
0.841280
  0
VERTEX
  8
0
  6
CONTINUOUS
 10
6.769840
 20
0.841280
  0
SEQEND
  8
0
  0
SOLID
  8
0
 62
    15
 10
6.496160
 20
1.008920
 11
6.488240
 21
1.752960
 12
6.508480
 22
0.992200
 13
6.500560
 23
1.735800
  0
POLYLINE
  8
0
  6
CONTINUOUS
 66
     1
 40
0.000000
 41
0.000000
  0
VERTEX
  8
0
  6
CONTINUOUS
 10
6.496160
 20
1.008920
  0
VERTEX
  8
0
  6
CONTINUOUS
 10
6.488240
 20
1.752960
  0
VERTEX
  8
0
  6
CONTINUOUS
 10
6.500560
 20
1.735800
  0
VERTEX
  8
0
  6
CONTINUOUS
 10
6.508480
 20
0.992200
  0
VERTEX
  8
0
  6
CONTINUOUS
 10
6.496160
 20
1.008920
  0
SEQEND
  8
0
  0
SOLID
  8
0
 62
    15
 10
6.508480
 20
0.992200
 11
6.500560
 21
1.735800
 12
6.520360
 22
0.973720
 13
6.512000
 23
1.717760
  0
POLYLINE
  8
0
  6
CONTINUOUS
 66
     1
 40
0.000000
 41
0.000000
  0
VERTEX
  8
0
  6
CONTINUOUS
 10
6.508480
 20
0.992200
  0
VERTEX
  8
0
  6
CONTINUOUS
 10
6.500560
 20
1.735800
  0
VERTEX
  8
0
  6
CONTINUOUS
 10
6.512000
 20
1.717760
  0
VERTEX
  8
0
  6
CONTINUOUS
 10
6.520360
 20
0.973720
  0
VERTEX
  8
0
  6
CONTINUOUS
 10
6.508480
 20
0.992200
  0
SEQEND
  8
0
  0
SOLID
  8
0
 62
    15
 10
6.520360
 20
0.973720
 11
6.512000
 21
1.717760
 12
6.530920
 22
0.953480
 13
6.523000
 23
1.697520
  0
POLYLINE
  8
0
  6
CONTINUOUS
 66
     1
 40
0.000000
 41
0.000000
  0
VERTEX
  8
0
  6
CONTINUOUS
 10
6.520360
 20
0.973720
  0
VERTEX
  8
0
  6
CONTINUOUS
 10
6.512000
 20
1.717760
  0
VERTEX
  8
0
  6
CONTINUOUS
 10
6.523000
 20
1.697520
  0
VERTEX
  8
0
  6
CONTINUOUS
 10
6.530920
 20
0.953480
  0
VERTEX
  8
0
  6
CONTINUOUS
 10
6.520360
 20
0.973720
  0
SEQEND
  8
0
  0
SOLID
  8
0
 62
    15
 10
6.530920
 20
0.953480
 11
6.523000
 21
1.697520
 12
6.541040
 22
0.932360
 13
6.533120
 23
1.676400
  0
POLYLINE
  8
0
  6
CONTINUOUS
 66
     1
 40
0.000000
 41
0.000000
  0
VERTEX
  8
0
  6
CONTINUOUS
 10
6.530920
 20
0.953480
  0
VERTEX
  8
0
  6
CONTINUOUS
 10
6.523000
 20
1.697520
  0
VERTEX
  8
0
  6
CONTINUOUS
 10
6.533120
 20
1.676400
  0
VERTEX
  8
0
  6
CONTINUOUS
 10
6.541040
 20
0.932360
  0
VERTEX
  8
0
  6
CONTINUOUS
 10
6.530920
 20
0.953480
  0
SEQEND
  8
0
  0
SOLID
  8
0
 62
    15
 10
6.541040
 20
0.932360
 11
6.533120
 21
1.676400
 12
6.550280
 22
0.909480
 13
6.541920
 23
1.653520
  0
POLYLINE
  8
0
  6
CONTINUOUS
 66
     1
 40
0.000000
 41
0.000000
  0
VERTEX
  8
0
  6
CONTINUOUS
 10
6.541040
 20
0.932360
  0
VERTEX
  8
0
  6
CONTINUOUS
 10
6.533120
 20
1.676400
  0
VERTEX
  8
0
  6
CONTINUOUS
 10
6.541920
 20
1.653520
  0
VERTEX
  8
0
  6
CONTINUOUS
 10
6.550280
 20
0.909480
  0
VERTEX
  8
0
  6
CONTINUOUS
 10
6.541040
 20
0.932360
  0
SEQEND
  8
0
  0
SOLID
  8
0
 62
    15
 10
6.550280
 20
0.909480
 11
6.541920
 21
1.653520
 12
6.558200
 22
0.884840
 13
6.549840
 23
1.628880
  0
POLYLINE
  8
0
  6
CONTINUOUS
 66
     1
 40
0.000000
 41
0.000000
  0
VERTEX
  8
0
  6
CONTINUOUS
 10
6.550280
 20
0.909480
  0
VERTEX
  8
0
  6
CONTINUOUS
 10
6.541920
 20
1.653520
  0
VERTEX
  8
0
  6
CONTINUOUS
 10
6.549840
 20
1.628880
  0
VERTEX
  8
0
  6
CONTINUOUS
 10
6.558200
 20
0.884840
  0
VERTEX
  8
0
  6
CONTINUOUS
 10
6.550280
 20
0.909480
  0
SEQEND
  8
0
  0
SOLID
  8
0
 62
     7
 10
6.558200
 20
0.884840
 11
6.549840
 21
1.628880
 12
6.586800
 22
0.884840
 13
6.578880
 23
1.628880
  0
POLYLINE
  8
0
  6
CONTINUOUS
 66
     1
 40
0.000000
 41
0.000000
  0
VERTEX
  8
0
  6
CONTINUOUS
 10
6.558200
 20
0.884840
  0
VERTEX
  8
0
  6
CONTINUOUS
 10
6.549840
 20
1.628880
  0
VERTEX
  8
0
  6
CONTINUOUS
 10
6.578880
 20
1.628880
  0
VERTEX
  8
0
  6
CONTINUOUS
 10
6.586800
 20
0.884840
  0
VERTEX
  8
0
  6
CONTINUOUS
 10
6.558200
 20
0.884840
  0
SEQEND
  8
0
  0
SOLID
  8
0
 62
    15
 10
6.586800
 20
0.884840
 11
6.578880
 21
1.628880
 12
6.598680
 22
0.907720
 13
6.590760
 23
1.651760
  0
POLYLINE
  8
0
  6
CONTINUOUS
 66
     1
 40
0.000000
 41
0.000000
  0
VERTEX
  8
0
  6
CONTINUOUS
 10
6.586800
 20
0.884840
  0
VERTEX
  8
0
  6
CONTINUOUS
 10
6.578880
 20
1.628880
  0
VERTEX
  8
0
  6
CONTINUOUS
 10
6.590760
 20
1.651760
  0
VERTEX
  8
0
  6
CONTINUOUS
 10
6.598680
 20
0.907720
  0
VERTEX
  8
0
  6
CONTINUOUS
 10
6.586800
 20
0.884840
  0
SEQEND
  8
0
  0
SOLID
  8
0
 62
    15
 10
6.598680
 20
0.907720
 11
6.590760
 21
1.651760
 12
6.611880
 22
0.925760
 13
6.603520
 23
1.669800
  0
POLYLINE
  8
0
  6
CONTINUOUS
 66
     1
 40
0.000000
 41
0.000000
  0
VERTEX
  8
0
  6
CONTINUOUS
 10
6.598680
 20
0.907720
  0
VERTEX
  8
0
  6
CONTINUOUS
 10
6.590760
 20
1.651760
  0
VERTEX
  8
0
  6
CONTINUOUS
 10
6.603520
 20
1.669800
  0
VERTEX
  8
0
  6
CONTINUOUS
 10
6.611880
 20
0.925760
  0
VERTEX
  8
0
  6
CONTINUOUS
 10
6.598680
 20
0.907720
  0
SEQEND
  8
0
  0
SOLID
  8
0
 62
    15
 10
6.611880
 20
0.925760
 11
6.603520
 21
1.669800
 12
6.625960
 22
0.940280
 13
6.617600
 23
1.684320
  0
POLYLINE
  8
0
  6
CONTINUOUS
 66
     1
 40
0.000000
 41
0.000000
  0
VERTEX
  8
0
  6
CONTINUOUS
 10
6.611880
 20
0.925760
  0
VERTEX
  8
0
  6
CONTINUOUS
 10
6.603520
 20
1.669800
  0
VERTEX
  8
0
  6
CONTINUOUS
 10
6.617600
 20
1.684320
  0
VERTEX
  8
0
  6
CONTINUOUS
 10
6.625960
 20
0.940280
  0
VERTEX
  8
0
  6
CONTINUOUS
 10
6.611880
 20
0.925760
  0
SEQEND
  8
0
  0
SOLID
  8
0
 62
    15
 10
6.625960
 20
0.940280
 11
6.617600
 21
1.684320
 12
6.640480
 22
0.950840
 13
6.632120
 23
1.694440
  0
POLYLINE
  8
0
  6
CONTINUOUS
 66
     1
 40
0.000000
 41
0.000000
  0
VERTEX
  8
0
  6
CONTINUOUS
 10
6.625960
 20
0.940280
  0
VERTEX
  8
0
  6
CONTINUOUS
 10
6.617600
 20
1.684320
  0
VERTEX
  8
0
  6
CONTINUOUS
 10
6.632120
 20
1.694440
  0
VERTEX
  8
0
  6
CONTINUOUS
 10
6.640480
 20
0.950840
  0
VERTEX
  8
0
  6
CONTINUOUS
 10
6.625960
 20
0.940280
  0
SEQEND
  8
0
  0
SOLID
  8
0
 62
    15
 10
6.640480
 20
0.950840
 11
6.632120
 21
1.694440
 12
6.655440
 22
0.957440
 13
6.647520
 23
1.701480
  0
POLYLINE
  8
0
  6
CONTINUOUS
 66
     1
 40
0.000000
 41
0.000000
  0
VERTEX
  8
0
  6
CONTINUOUS
 10
6.640480
 20
0.950840
  0
VERTEX
  8
0
  6
CONTINUOUS
 10
6.632120
 20
1.694440
  0
VERTEX
  8
0
  6
CONTINUOUS
 10
6.647520
 20
1.701480
  0
VERTEX
  8
0
  6
CONTINUOUS
 10
6.655440
 20
0.957440
  0
VERTEX
  8
0
  6
CONTINUOUS
 10
6.640480
 20
0.950840
  0
SEQEND
  8
0
  0
SOLID
  8
0
 62
     7
 10
6.655440
 20
0.957440
 11
6.647520
 21
1.701480
 12
6.670840
 22
0.960520
 13
6.662480
 23
1.704560
  0
POLYLINE
  8
0
  6
CONTINUOUS
 66
     1
 40
0.000000
 41
0.000000
  0
VERTEX
  8
0
  6
CONTINUOUS
 10
6.655440
 20
0.957440
  0
VERTEX
  8
0
  6
CONTINUOUS
 10
6.647520
 20
1.701480
  0
VERTEX
  8
0
  6
CONTINUOUS
 10
6.662480
 20
1.704560
  0
VERTEX
  8
0
  6
CONTINUOUS
 10
6.670840
 20
0.960520
  0
VERTEX
  8
0
  6
CONTINUOUS
 10
6.655440
 20
0.957440
  0
SEQEND
  8
0
  0
SOLID
  8
0
 62
     7
 10
6.670840
 20
0.960520
 11
6.662480
 21
1.704560
 12
6.685800
 22
0.960520
 13
6.677880
 23
1.704560
  0
POLYLINE
  8
0
  6
CONTINUOUS
 66
     1
 40
0.000000
 41
0.000000
  0
VERTEX
  8
0
  6
CONTINUOUS
 10
6.670840
 20
0.960520
  0
VERTEX
  8
0
  6
CONTINUOUS
 10
6.662480
 20
1.704560
  0
VERTEX
  8
0
  6
CONTINUOUS
 10
6.677880
 20
1.704560
  0
VERTEX
  8
0
  6
CONTINUOUS
 10
6.685800
 20
0.960520
  0
VERTEX
  8
0
  6
CONTINUOUS
 10
6.670840
 20
0.960520
  0
SEQEND
  8
0
  0
SOLID
  8
0
 62
     7
 10
6.685800
 20
0.960520
 11
6.677880
 21
1.704560
 12
6.700320
 22
0.957440
 13
6.692400
 23
1.701480
  0
POLYLINE
  8
0
  6
CONTINUOUS
 66
     1
 40
0.000000
 41
0.000000
  0
VERTEX
  8
0
  6
CONTINUOUS
 10
6.685800
 20
0.960520
  0
VERTEX
  8
0
  6
CONTINUOUS
 10
6.677880
 20
1.704560
  0
VERTEX
  8
0
  6
CONTINUOUS
 10
6.692400
 20
1.701480
  0
VERTEX
  8
0
  6
CONTINUOUS
 10
6.700320
 20
0.957440
  0
VERTEX
  8
0
  6
CONTINUOUS
 10
6.685800
 20
0.960520
  0
SEQEND
  8
0
  0
SOLID
  8
0
 62
     7
 10
6.700320
 20
0.957440
 11
6.692400
 21
1.701480
 12
6.714400
 22
0.951280
 13
6.706480
 23
1.695320
  0
POLYLINE
  8
0
  6
CONTINUOUS
 66
     1
 40
0.000000
 41
0.000000
  0
VERTEX
  8
0
  6
CONTINUOUS
 10
6.700320
 20
0.957440
  0
VERTEX
  8
0
  6
CONTINUOUS
 10
6.692400
 20
1.701480
  0
VERTEX
  8
0
  6
CONTINUOUS
 10
6.706480
 20
1.695320
  0
VERTEX
  8
0
  6
CONTINUOUS
 10
6.714400
 20
0.951280
  0
VERTEX
  8
0
  6
CONTINUOUS
 10
6.700320
 20
0.957440
  0
SEQEND
  8
0
  0
SOLID
  8
0
 62
     7
 10
6.714400
 20
0.951280
 11
6.706480
 21
1.695320
 12
6.727600
 22
0.942480
 13
6.719240
 23
1.686080
  0
POLYLINE
  8
0
  6
CONTINUOUS
 66
     1
 40
0.000000
 41
0.000000
  0
VERTEX
  8
0
  6
CONTINUOUS
 10
6.714400
 20
0.951280
  0
VERTEX
  8
0
  6
CONTINUOUS
 10
6.706480
 20
1.695320
  0
VERTEX
  8
0
  6
CONTINUOUS
 10
6.719240
 20
1.686080
  0
VERTEX
  8
0
  6
CONTINUOUS
 10
6.727600
 20
0.942480
  0
VERTEX
  8
0
  6
CONTINUOUS
 10
6.714400
 20
0.951280
  0
SEQEND
  8
0
  0
SOLID
  8
0
 62
     7
 10
6.727600
 20
0.942480
 11
6.719240
 21
1.686080
 12
6.739040
 22
0.930600
 13
6.731120
 23
1.674640
  0
POLYLINE
  8
0
  6
CONTINUOUS
 66
     1
 40
0.000000
 41
0.000000
  0
VERTEX
  8
0
  6
CONTINUOUS
 10
6.727600
 20
0.942480
  0
VERTEX
  8
0
  6
CONTINUOUS
 10
6.719240
 20
1.686080
  0
VERTEX
  8
0
  6
CONTINUOUS
 10
6.731120
 20
1.674640
  0
VERTEX
  8
0
  6
CONTINUOUS
 10
6.739040
 20
0.930600
  0
VERTEX
  8
0
  6
CONTINUOUS
 10
6.727600
 20
0.942480
  0
SEQEND
  8
0
  0
SOLID
  8
0
 62
    15
 10
6.739040
 20
0.930600
 11
6.731120
 21
1.674640
 12
6.749600
 22
0.916960
 13
6.741240
 23
1.661000
  0
POLYLINE
  8
0
  6
CONTINUOUS
 66
     1
 40
0.000000
 41
0.000000
  0
VERTEX
  8
0
  6
CONTINUOUS
 10
6.739040
 20
0.930600
  0
VERTEX
  8
0
  6
CONTINUOUS
 10
6.731120
 20
1.674640
  0
VERTEX
  8
0
  6
CONTINUOUS
 10
6.741240
 20
1.661000
  0
VERTEX
  8
0
  6
CONTINUOUS
 10
6.749600
 20
0.916960
  0
VERTEX
  8
0
  6
CONTINUOUS
 10
6.739040
 20
0.930600
  0
SEQEND
  8
0
  0
SOLID
  8
0
 62
    15
 10
6.749600
 20
0.916960
 11
6.741240
 21
1.661000
 12
6.757960
 22
0.900680
 13
6.749600
 23
1.644720
  0
POLYLINE
  8
0
  6
CONTINUOUS
 66
     1
 40
0.000000
 41
0.000000
  0
VERTEX
  8
0
  6
CONTINUOUS
 10
6.749600
 20
0.916960
  0
VERTEX
  8
0
  6
CONTINUOUS
 10
6.741240
 20
1.661000
  0
VERTEX
  8
0
  6
CONTINUOUS
 10
6.749600
 20
1.644720
  0
VERTEX
  8
0
  6
CONTINUOUS
 10
6.757960
 20
0.900680
  0
VERTEX
  8
0
  6
CONTINUOUS
 10
6.749600
 20
0.916960
  0
SEQEND
  8
0
  0
SOLID
  8
0
 62
    15
 10
6.757960
 20
0.900680
 11
6.749600
 21
1.644720
 12
6.764120
 22
0.882640
 13
6.756200
 23
1.626680
  0
POLYLINE
  8
0
  6
CONTINUOUS
 66
     1
 40
0.000000
 41
0.000000
  0
VERTEX
  8
0
  6
CONTINUOUS
 10
6.757960
 20
0.900680
  0
VERTEX
  8
0
  6
CONTINUOUS
 10
6.749600
 20
1.644720
  0
VERTEX
  8
0
  6
CONTINUOUS
 10
6.756200
 20
1.626680
  0
VERTEX
  8
0
  6
CONTINUOUS
 10
6.764120
 20
0.882640
  0
VERTEX
  8
0
  6
CONTINUOUS
 10
6.757960
 20
0.900680
  0
SEQEND
  8
0
  0
SOLID
  8
0
 62
    15
 10
6.764120
 20
0.882640
 11
6.756200
 21
1.626680
 12
6.768080
 22
0.862400
 13
6.760160
 23
1.606440
  0
POLYLINE
  8
0
  6
CONTINUOUS
 66
     1
 40
0.000000
 41
0.000000
  0
VERTEX
  8
0
  6
CONTINUOUS
 10
6.764120
 20
0.882640
  0
VERTEX
  8
0
  6
CONTINUOUS
 10
6.756200
 20
1.626680
  0
VERTEX
  8
0
  6
CONTINUOUS
 10
6.760160
 20
1.606440
  0
VERTEX
  8
0
  6
CONTINUOUS
 10
6.768080
 20
0.862400
  0
VERTEX
  8
0
  6
CONTINUOUS
 10
6.764120
 20
0.882640
  0
SEQEND
  8
0
  0
SOLID
  8
0
 62
    15
 10
6.768080
 20
0.862400
 11
6.760160
 21
1.606440
 12
6.769840
 22
0.840840
 13
6.761480
 23
1.584880
  0
POLYLINE
  8
0
  6
CONTINUOUS
 66
     1
 40
0.000000
 41
0.000000
  0
VERTEX
  8
0
  6
CONTINUOUS
 10
6.768080
 20
0.862400
  0
VERTEX
  8
0
  6
CONTINUOUS
 10
6.760160
 20
1.606440
  0
VERTEX
  8
0
  6
CONTINUOUS
 10
6.761480
 20
1.584880
  0
VERTEX
  8
0
  6
CONTINUOUS
 10
6.769840
 20
0.840840
  0
VERTEX
  8
0
  6
CONTINUOUS
 10
6.768080
 20
0.862400
  0
SEQEND
  8
0
  0
SOLID
  8
0
 62
    15
 10
6.769840
 20
0.840840
 11
6.761480
 21
1.584880
 12
6.769840
 22
0.841280
 13
6.761480
 23
1.585320
  0
POLYLINE
  8
0
  6
CONTINUOUS
 66
     1
 40
0.000000
 41
0.000000
  0
VERTEX
  8
0
  6
CONTINUOUS
 10
6.769840
 20
0.840840
  0
VERTEX
  8
0
  6
CONTINUOUS
 10
6.761480
 20
1.584880
  0
VERTEX
  8
0
  6
CONTINUOUS
 10
6.761480
 20
1.585320
  0
VERTEX
  8
0
  6
CONTINUOUS
 10
6.769840
 20
0.841280
  0
VERTEX
  8
0
  6
CONTINUOUS
 10
6.769840
 20
0.840840
  0
SEQEND
  8
0
  0
POLYLINE
  8
0
  6
CONTINUOUS
 66
     1
 40
0.000000
 41
0.000000
  0
VERTEX
  8
0
  6
CONTINUOUS
 10
6.769840
 20
0.841280
  0
VERTEX
  8
0
  6
CONTINUOUS
 10
6.813400
 20
0.841280
  0
VERTEX
  8
0
  6
CONTINUOUS
 10
6.813400
 20
0.787600
  0
VERTEX
  8
0
  6
CONTINUOUS
 10
6.089160
 20
0.787600
  0
VERTEX
  8
0
  6
CONTINUOUS
 10
6.089160
 20
0.957000
  0
VERTEX
  8
0
  6
CONTINUOUS
 10
6.151200
 20
0.957000
  0
VERTEX
  8
0
  6
CONTINUOUS
 10
6.157360
 20
0.975920
  0
VERTEX
  8
0
  6
CONTINUOUS
 10
6.173640
 20
1.010240
  0
VERTEX
  8
0
  6
CONTINUOUS
 10
6.193440
 20
1.038840
  0
VERTEX
  8
0
  6
CONTINUOUS
 10
6.216760
 20
1.062160
  0
VERTEX
  8
0
  6
CONTINUOUS
 10
6.243160
 20
1.080200
  0
VERTEX
  8
0
  6
CONTINUOUS
 10
6.256800
 20
1.087240
  0
VERTEX
  8
0
  6
CONTINUOUS
 10
6.286280
 20
1.096920
  0
VERTEX
  8
0
  6
CONTINUOUS
 10
6.316640
 20
1.101320
  0
VERTEX
  8
0
  6
CONTINUOUS
 10
6.347880
 20
1.100000
  0
VERTEX
  8
0
  6
CONTINUOUS
 10
6.379560
 20
1.092960
  0
VERTEX
  8
0
  6
CONTINUOUS
 10
6.410800
 20
1.080640
  0
VERTEX
  8
0
  6
CONTINUOUS
 10
6.440720
 20
1.062600
  0
VERTEX
  8
0
  6
CONTINUOUS
 10
6.469760
 20
1.038840
  0
VERTEX
  8
0
  6
CONTINUOUS
 10
6.496160
 20
1.008920
  0
VERTEX
  8
0
  6
CONTINUOUS
 10
6.520360
 20
0.973720
  0
VERTEX
  8
0
  6
CONTINUOUS
 10
6.541040
 20
0.932360
  0
VERTEX
  8
0
  6
CONTINUOUS
 10
6.550280
 20
0.909480
  0
VERTEX
  8
0
  6
CONTINUOUS
 10
6.558200
 20
0.884840
  0
VERTEX
  8
0
  6
CONTINUOUS
 10
6.586800
 20
0.884840
  0
VERTEX
  8
0
  6
CONTINUOUS
 10
6.598680
 20
0.907720
  0
VERTEX
  8
0
  6
CONTINUOUS
 10
6.611880
 20
0.925760
  0
VERTEX
  8
0
  6
CONTINUOUS
 10
6.625960
 20
0.940280
  0
VERTEX
  8
0
  6
CONTINUOUS
 10
6.640480
 20
0.950840
  0
VERTEX
  8
0
  6
CONTINUOUS
 10
6.655440
 20
0.957440
  0
VERTEX
  8
0
  6
CONTINUOUS
 10
6.670840
 20
0.960520
  0
VERTEX
  8
0
  6
CONTINUOUS
 10
6.685800
 20
0.960520
  0
VERTEX
  8
0
  6
CONTINUOUS
 10
6.700320
 20
0.957440
  0
VERTEX
  8
0
  6
CONTINUOUS
 10
6.714400
 20
0.951280
  0
VERTEX
  8
0
  6
CONTINUOUS
 10
6.727600
 20
0.942480
  0
VERTEX
  8
0
  6
CONTINUOUS
 10
6.749600
 20
0.916960
  0
VERTEX
  8
0
  6
CONTINUOUS
 10
6.757960
 20
0.900680
  0
VERTEX
  8
0
  6
CONTINUOUS
 10
6.764120
 20
0.882640
  0
VERTEX
  8
0
  6
CONTINUOUS
 10
6.768080
 20
0.862400
  0
VERTEX
  8
0
  6
CONTINUOUS
 10
6.769840
 20
0.840840
  0
VERTEX
  8
0
  6
CONTINUOUS
 10
6.769840
 20
0.841280
  0
SEQEND
  8
0
  0
TEXT
  8
0
 10
6.151200
 20
0.601920
 40
0.138164
  1
BA  593
 41
1.000000
  7
SN0
 71
     0
 72
     5
 11
6.740900
 21
0.601920
  0
TEXT
  8
0
 10
6.023160
 20
0.410520
 40
0.138164
  1
5/16" x 3/4"
 41
1.000000
  7
SN0
 71
     0
 72
     5
 11
6.867714
 21
0.410520
  0
ENDSEC
  0
EOF
