  0
SECTION
  2
HEADER
  9
$ACADVER
  1
AC1006
  9
$EXTMIN
 10
5.783360
 20
0.416240
  9
$EXTMAX
 10
7.453160
 20
1.819840
  9
$LTSCALE
 40
0.044000
  9
$PDMODE
 70
    35
  9
$PDSIZE
 40
0.035200
  0
ENDSEC
  0
SECTION
  2
TABLES
  0
TABLE
  2
LTYPE
 70
     9
  0
LTYPE
  2
CONTINUOUS
 70
    64
  3
Solid line
 72
    65
 73
     0
 40
0.000000
  0
LTYPE
  2
DASHED
 70
    64
  3
__ __ __ __ __ __ __ __ __ __ __ __ __ __ __
 72
    65
 73
     2
 40
0.000330
 49
0.000220
 49
-0.000110
  0
LTYPE
  2
HIDDEN
 70
    64
  3
 _ _ _ _ _ _ _ _ _ _ _ _ _ _ _ _ _ _ _ _ _ _
 72
    65
 73
     2
 40
0.000165
 49
0.000110
 49
-0.000055
  0
LTYPE
  2
CENTER
 70
    64
  3
____ _ ____ _ ____ _ ____ _ ____ _ ____ _ ____
 72
    65
 73
     4
 40
0.000880
 49
0.000550
 49
-0.000110
 49
0.000110
 49
-0.000110
  0
LTYPE
  2
PHANTOM
 70
    64
  3
_____ _ _ _____ _ _ _____ _ _ _____ _ _ ____
 72
    65
 73
     6
 40
0.001100
 49
0.000550
 49
-0.000110
 49
0.000110
 49
-0.000110
 49
0.000110
 49
-0.000110
  0
LTYPE
  2
DOT
 70
    64
  3
...............................................
 72
    65
 73
     2
 40
0.000110
 49
0.000000
 49
-0.000110
  0
LTYPE
  2
DASHDOT
 70
    64
  3
__ . __ . __ . __ . __ . __ . __ . __ . __ . __
 72
    65
 73
     4
 40
0.000440
 49
0.000220
 49
-0.000110
 49
0.000000
 49
-0.000110
  0
LTYPE
  2
BORDER
 70
    64
  3
__ __ . __ __ . __ __ . __ __ . __ __ . __ __
 72
    65
 73
     6
 40
0.000770
 49
0.000220
 49
-0.000110
 49
0.000220
 49
-0.000110
 49
0.000000
 49
-0.000110
  0
LTYPE
  2
DIVIDE
 70
    64
  3
__ . . __ . . __ . . __ . . __ . . __ . . __
 72
    65
 73
     6
 40
0.000550
 49
0.000220
 49
-0.000110
 49
0.000000
 49
-0.000110
 49
0.000000
 49
-0.000110
  0
LTYPE
  2
DOTDOT
 70
    64
  3
 . .  . .  . .  . .  . .  . . 
 72
    65
 73
     5
 40
0.000242
 49
-0.000110
 49
0.000000
 49
-0.000110
 49
0.000000
 49
-0.000110
  0
ENDTAB
  0
TABLE
  2
STYLE
 70
     2
  0
STYLE
 70
     0
  2
SN0
 40
0.000000
 41
0.000440
 50
0.000000
 71
     0
 42
0.000000
  3
ROMAND
  0
STYLE
 70
    68
  2
SV0
 40
0.000000
 41
0.000440
 50
0.000000
 71
     0
 42
0.000000
  3
ROMAND
  0
ENDTAB
  0
TABLE
  2
LAYER
 70
     3
  0
LAYER
  2
FOREGROUND
 70
    64
 62
     7
  6
CONTINUOUS
  0
LAYER
  2
BACKGROUND
 70
    65
 62
    -7
  6
CONTINUOUS
  0
LAYER
  2
0
 70
    64
 62
     7
  6
CONTINUOUS
  0
ENDTAB
  0
ENDSEC
  0
SECTION
  2
ENTITIES
  0
POLYLINE
  8
FOREGROUND
  6
CONTINUOUS
 66
     1
 40
0.000000
 41
0.000000
  0
VERTEX
  8
FOREGROUND
  6
CONTINUOUS
 10
0.000000
 20
2.236080
  0
VERTEX
  8
FOREGROUND
  6
CONTINUOUS
 10
8.499920
 20
2.236080
  0
VERTEX
  8
FOREGROUND
  6
CONTINUOUS
 10
8.499920
 20
-8.763920
  0
VERTEX
  8
FOREGROUND
  6
CONTINUOUS
 10
0.000000
 20
-8.763920
  0
VERTEX
  8
FOREGROUND
  6
CONTINUOUS
 10
0.000000
 20
2.236080
  0
SEQEND
  8
0
  0
POLYLINE
  8
FOREGROUND
  6
CONTINUOUS
 66
     1
 40
0.000000
 41
0.000000
  0
VERTEX
  8
FOREGROUND
  6
CONTINUOUS
 10
0.000000
 20
2.236080
  0
VERTEX
  8
FOREGROUND
  6
CONTINUOUS
 10
8.499920
 20
2.236080
  0
VERTEX
  8
FOREGROUND
  6
CONTINUOUS
 10
8.499920
 20
-8.763920
  0
VERTEX
  8
FOREGROUND
  6
CONTINUOUS
 10
0.000000
 20
-8.763920
  0
VERTEX
  8
FOREGROUND
  6
CONTINUOUS
 10
0.000000
 20
2.236080
  0
SEQEND
  8
0
  0
POLYLINE
  8
0
  6
CONTINUOUS
 66
     1
 40
0.014080
 41
0.014080
  0
VERTEX
  8
0
  6
CONTINUOUS
 10
7.300920
 20
1.812360
  0
VERTEX
  8
0
  6
CONTINUOUS
 10
7.301360
 20
1.784200
  0
VERTEX
  8
0
  6
CONTINUOUS
 10
7.302680
 20
1.755600
  0
VERTEX
  8
0
  6
CONTINUOUS
 10
7.304000
 20
1.741520
  0
VERTEX
  8
0
  6
CONTINUOUS
 10
7.306200
 20
1.727880
  0
VERTEX
  8
0
  6
CONTINUOUS
 10
7.308400
 20
1.714680
  0
VERTEX
  8
0
  6
CONTINUOUS
 10
7.311920
 20
1.701920
  0
VERTEX
  8
0
  6
CONTINUOUS
 10
7.315880
 20
1.690040
  0
VERTEX
  8
0
  6
CONTINUOUS
 10
7.320720
 20
1.678600
  0
VERTEX
  8
0
  6
CONTINUOUS
 10
7.326440
 20
1.668040
  0
VERTEX
  8
0
  6
CONTINUOUS
 10
7.333480
 20
1.658800
  0
VERTEX
  8
0
  6
CONTINUOUS
 10
7.341400
 20
1.650440
  0
VERTEX
  8
0
  6
CONTINUOUS
 10
7.350640
 20
1.643400
  0
VERTEX
  8
0
  6
CONTINUOUS
 10
7.361200
 20
1.637680
  0
VERTEX
  8
0
  6
CONTINUOUS
 10
7.373080
 20
1.633720
  0
VERTEX
  8
0
  6
CONTINUOUS
 10
7.373080
 20
1.606000
  0
VERTEX
  8
0
  6
CONTINUOUS
 10
7.381000
 20
1.596320
  0
VERTEX
  8
0
  6
CONTINUOUS
 10
7.388480
 20
1.586200
  0
VERTEX
  8
0
  6
CONTINUOUS
 10
7.395520
 20
1.575200
  0
VERTEX
  8
0
  6
CONTINUOUS
 10
7.402120
 20
1.563320
  0
VERTEX
  8
0
  6
CONTINUOUS
 10
7.408280
 20
1.551000
  0
VERTEX
  8
0
  6
CONTINUOUS
 10
7.414000
 20
1.538240
  0
VERTEX
  8
0
  6
CONTINUOUS
 10
7.424120
 20
1.510960
  0
VERTEX
  8
0
  6
CONTINUOUS
 10
7.432480
 20
1.481920
  0
VERTEX
  8
0
  6
CONTINUOUS
 10
7.439080
 20
1.452440
  0
VERTEX
  8
0
  6
CONTINUOUS
 10
7.443480
 20
1.422080
  0
VERTEX
  8
0
  6
CONTINUOUS
 10
7.445680
 20
1.391720
  0
VERTEX
  8
0
  6
CONTINUOUS
 10
7.446120
 20
1.361800
  0
VERTEX
  8
0
  6
CONTINUOUS
 10
7.445680
 20
1.347280
  0
VERTEX
  8
0
  6
CONTINUOUS
 10
7.444360
 20
1.333200
  0
VERTEX
  8
0
  6
CONTINUOUS
 10
7.442600
 20
1.319120
  0
VERTEX
  8
0
  6
CONTINUOUS
 10
7.440400
 20
1.305480
  0
VERTEX
  8
0
  6
CONTINUOUS
 10
7.437320
 20
1.292720
  0
VERTEX
  8
0
  6
CONTINUOUS
 10
7.433800
 20
1.279960
  0
VERTEX
  8
0
  6
CONTINUOUS
 10
7.429840
 20
1.268080
  0
VERTEX
  8
0
  6
CONTINUOUS
 10
7.425440
 20
1.257080
  0
VERTEX
  8
0
  6
CONTINUOUS
 10
7.420160
 20
1.246520
  0
VERTEX
  8
0
  6
CONTINUOUS
 10
7.414000
 20
1.236840
  0
VERTEX
  8
0
  6
CONTINUOUS
 10
7.407840
 20
1.228040
  0
VERTEX
  8
0
  6
CONTINUOUS
 10
7.400800
 20
1.220120
  0
VERTEX
  8
0
  6
CONTINUOUS
 10
7.392880
 20
1.213080
  0
VERTEX
  8
0
  6
CONTINUOUS
 10
7.384520
 20
1.206920
  0
VERTEX
  8
0
  6
CONTINUOUS
 10
7.384520
 20
1.194600
  0
VERTEX
  8
0
  6
CONTINUOUS
 10
7.246360
 20
1.194600
  0
VERTEX
  8
0
  6
CONTINUOUS
 10
7.246360
 20
1.812360
  0
VERTEX
  8
0
  6
CONTINUOUS
 10
7.300920
 20
1.812360
  0
SEQEND
  8
0
  0
SOLID
  8
0
 62
    15
 10
6.261640
 20
1.015960
 11
6.259000
 21
1.760000
 12
6.288920
 22
1.005840
 13
6.286280
 23
1.749440
  0
POLYLINE
  8
0
  6
CONTINUOUS
 66
     1
 40
0.000000
 41
0.000000
  0
VERTEX
  8
0
  6
CONTINUOUS
 10
6.261640
 20
1.015960
  0
VERTEX
  8
0
  6
CONTINUOUS
 10
6.259000
 20
1.760000
  0
VERTEX
  8
0
  6
CONTINUOUS
 10
6.286280
 20
1.749440
  0
VERTEX
  8
0
  6
CONTINUOUS
 10
6.288920
 20
1.005840
  0
VERTEX
  8
0
  6
CONTINUOUS
 10
6.261640
 20
1.015960
  0
SEQEND
  8
0
  0
SOLID
  8
0
 62
    15
 10
5.945720
 20
0.838200
 11
5.942640
 21
1.582240
 12
5.945720
 22
0.976360
 13
5.942640
 23
1.720400
  0
POLYLINE
  8
0
  6
CONTINUOUS
 66
     1
 40
0.000000
 41
0.000000
  0
VERTEX
  8
0
  6
CONTINUOUS
 10
5.945720
 20
0.838200
  0
VERTEX
  8
0
  6
CONTINUOUS
 10
5.942640
 20
1.582240
  0
VERTEX
  8
0
  6
CONTINUOUS
 10
5.942640
 20
1.720400
  0
VERTEX
  8
0
  6
CONTINUOUS
 10
5.945720
 20
0.976360
  0
VERTEX
  8
0
  6
CONTINUOUS
 10
5.945720
 20
0.838200
  0
SEQEND
  8
0
  0
SOLID
  8
0
 62
    15
 10
5.958040
 20
0.976360
 11
5.955400
 21
1.720400
 12
5.964200
 22
0.984720
 13
5.961120
 23
1.728760
  0
POLYLINE
  8
0
  6
CONTINUOUS
 66
     1
 40
0.000000
 41
0.000000
  0
VERTEX
  8
0
  6
CONTINUOUS
 10
5.958040
 20
0.976360
  0
VERTEX
  8
0
  6
CONTINUOUS
 10
5.955400
 20
1.720400
  0
VERTEX
  8
0
  6
CONTINUOUS
 10
5.961120
 20
1.728760
  0
VERTEX
  8
0
  6
CONTINUOUS
 10
5.964200
 20
0.984720
  0
VERTEX
  8
0
  6
CONTINUOUS
 10
5.958040
 20
0.976360
  0
SEQEND
  8
0
  0
SOLID
  8
0
 62
    15
 10
5.964200
 20
0.984720
 11
5.961120
 21
1.728760
 12
5.971240
 22
0.992640
 13
5.968160
 23
1.736240
  0
POLYLINE
  8
0
  6
CONTINUOUS
 66
     1
 40
0.000000
 41
0.000000
  0
VERTEX
  8
0
  6
CONTINUOUS
 10
5.964200
 20
0.984720
  0
VERTEX
  8
0
  6
CONTINUOUS
 10
5.961120
 20
1.728760
  0
VERTEX
  8
0
  6
CONTINUOUS
 10
5.968160
 20
1.736240
  0
VERTEX
  8
0
  6
CONTINUOUS
 10
5.971240
 20
0.992640
  0
VERTEX
  8
0
  6
CONTINUOUS
 10
5.964200
 20
0.984720
  0
SEQEND
  8
0
  0
SOLID
  8
0
 62
    15
 10
5.971240
 20
0.992640
 11
5.968160
 21
1.736240
 12
5.979160
 22
0.999680
 13
5.976080
 23
1.743720
  0
POLYLINE
  8
0
  6
CONTINUOUS
 66
     1
 40
0.000000
 41
0.000000
  0
VERTEX
  8
0
  6
CONTINUOUS
 10
5.971240
 20
0.992640
  0
VERTEX
  8
0
  6
CONTINUOUS
 10
5.968160
 20
1.736240
  0
VERTEX
  8
0
  6
CONTINUOUS
 10
5.976080
 20
1.743720
  0
VERTEX
  8
0
  6
CONTINUOUS
 10
5.979160
 20
0.999680
  0
VERTEX
  8
0
  6
CONTINUOUS
 10
5.971240
 20
0.992640
  0
SEQEND
  8
0
  0
SOLID
  8
0
 62
    15
 10
5.979160
 20
0.999680
 11
5.976080
 21
1.743720
 12
5.987960
 22
1.006280
 13
5.984880
 23
1.749880
  0
POLYLINE
  8
0
  6
CONTINUOUS
 66
     1
 40
0.000000
 41
0.000000
  0
VERTEX
  8
0
  6
CONTINUOUS
 10
5.979160
 20
0.999680
  0
VERTEX
  8
0
  6
CONTINUOUS
 10
5.976080
 20
1.743720
  0
VERTEX
  8
0
  6
CONTINUOUS
 10
5.984880
 20
1.749880
  0
VERTEX
  8
0
  6
CONTINUOUS
 10
5.987960
 20
1.006280
  0
VERTEX
  8
0
  6
CONTINUOUS
 10
5.979160
 20
0.999680
  0
SEQEND
  8
0
  0
SOLID
  8
0
 62
    15
 10
5.987960
 20
1.006280
 11
5.984880
 21
1.749880
 12
5.997640
 22
1.012000
 13
5.994560
 23
1.756040
  0
POLYLINE
  8
0
  6
CONTINUOUS
 66
     1
 40
0.000000
 41
0.000000
  0
VERTEX
  8
0
  6
CONTINUOUS
 10
5.987960
 20
1.006280
  0
VERTEX
  8
0
  6
CONTINUOUS
 10
5.984880
 20
1.749880
  0
VERTEX
  8
0
  6
CONTINUOUS
 10
5.994560
 20
1.756040
  0
VERTEX
  8
0
  6
CONTINUOUS
 10
5.997640
 20
1.012000
  0
VERTEX
  8
0
  6
CONTINUOUS
 10
5.987960
 20
1.006280
  0
SEQEND
  8
0
  0
SOLID
  8
0
 62
    15
 10
5.997640
 20
1.012000
 11
5.994560
 21
1.756040
 12
6.008200
 22
1.017280
 13
6.005120
 23
1.760880
  0
POLYLINE
  8
0
  6
CONTINUOUS
 66
     1
 40
0.000000
 41
0.000000
  0
VERTEX
  8
0
  6
CONTINUOUS
 10
5.997640
 20
1.012000
  0
VERTEX
  8
0
  6
CONTINUOUS
 10
5.994560
 20
1.756040
  0
VERTEX
  8
0
  6
CONTINUOUS
 10
6.005120
 20
1.760880
  0
VERTEX
  8
0
  6
CONTINUOUS
 10
6.008200
 20
1.017280
  0
VERTEX
  8
0
  6
CONTINUOUS
 10
5.997640
 20
1.012000
  0
SEQEND
  8
0
  0
SOLID
  8
0
 62
    15
 10
6.008200
 20
1.017280
 11
6.005120
 21
1.760880
 12
6.031080
 22
1.026080
 13
6.028440
 23
1.769680
  0
POLYLINE
  8
0
  6
CONTINUOUS
 66
     1
 40
0.000000
 41
0.000000
  0
VERTEX
  8
0
  6
CONTINUOUS
 10
6.008200
 20
1.017280
  0
VERTEX
  8
0
  6
CONTINUOUS
 10
6.005120
 20
1.760880
  0
VERTEX
  8
0
  6
CONTINUOUS
 10
6.028440
 20
1.769680
  0
VERTEX
  8
0
  6
CONTINUOUS
 10
6.031080
 20
1.026080
  0
VERTEX
  8
0
  6
CONTINUOUS
 10
6.008200
 20
1.017280
  0
SEQEND
  8
0
  0
SOLID
  8
0
 62
    15
 10
6.031080
 20
1.026080
 11
6.028440
 21
1.769680
 12
6.056600
 22
1.032240
 13
6.053960
 23
1.775840
  0
POLYLINE
  8
0
  6
CONTINUOUS
 66
     1
 40
0.000000
 41
0.000000
  0
VERTEX
  8
0
  6
CONTINUOUS
 10
6.031080
 20
1.026080
  0
VERTEX
  8
0
  6
CONTINUOUS
 10
6.028440
 20
1.769680
  0
VERTEX
  8
0
  6
CONTINUOUS
 10
6.053960
 20
1.775840
  0
VERTEX
  8
0
  6
CONTINUOUS
 10
6.056600
 20
1.032240
  0
VERTEX
  8
0
  6
CONTINUOUS
 10
6.031080
 20
1.026080
  0
SEQEND
  8
0
  0
SOLID
  8
0
 62
    15
 10
6.056600
 20
1.032240
 11
6.053960
 21
1.775840
 12
6.084320
 22
1.036200
 13
6.081240
 23
1.780240
  0
POLYLINE
  8
0
  6
CONTINUOUS
 66
     1
 40
0.000000
 41
0.000000
  0
VERTEX
  8
0
  6
CONTINUOUS
 10
6.056600
 20
1.032240
  0
VERTEX
  8
0
  6
CONTINUOUS
 10
6.053960
 20
1.775840
  0
VERTEX
  8
0
  6
CONTINUOUS
 10
6.081240
 20
1.780240
  0
VERTEX
  8
0
  6
CONTINUOUS
 10
6.084320
 20
1.036200
  0
VERTEX
  8
0
  6
CONTINUOUS
 10
6.056600
 20
1.032240
  0
SEQEND
  8
0
  0
SOLID
  8
0
 62
    15
 10
6.084320
 20
1.036200
 11
6.081240
 21
1.780240
 12
6.112920
 22
1.037960
 13
6.110280
 23
1.782000
  0
POLYLINE
  8
0
  6
CONTINUOUS
 66
     1
 40
0.000000
 41
0.000000
  0
VERTEX
  8
0
  6
CONTINUOUS
 10
6.084320
 20
1.036200
  0
VERTEX
  8
0
  6
CONTINUOUS
 10
6.081240
 20
1.780240
  0
VERTEX
  8
0
  6
CONTINUOUS
 10
6.110280
 20
1.782000
  0
VERTEX
  8
0
  6
CONTINUOUS
 10
6.112920
 20
1.037960
  0
VERTEX
  8
0
  6
CONTINUOUS
 10
6.084320
 20
1.036200
  0
SEQEND
  8
0
  0
SOLID
  8
0
 62
    15
 10
6.112920
 20
1.037960
 11
6.110280
 21
1.782000
 12
6.142840
 22
1.037520
 13
6.139760
 23
1.781560
  0
POLYLINE
  8
0
  6
CONTINUOUS
 66
     1
 40
0.000000
 41
0.000000
  0
VERTEX
  8
0
  6
CONTINUOUS
 10
6.112920
 20
1.037960
  0
VERTEX
  8
0
  6
CONTINUOUS
 10
6.110280
 20
1.782000
  0
VERTEX
  8
0
  6
CONTINUOUS
 10
6.139760
 20
1.781560
  0
VERTEX
  8
0
  6
CONTINUOUS
 10
6.142840
 20
1.037520
  0
VERTEX
  8
0
  6
CONTINUOUS
 10
6.112920
 20
1.037960
  0
SEQEND
  8
0
  0
SOLID
  8
0
 62
    15
 10
6.142840
 20
1.037520
 11
6.139760
 21
1.781560
 12
6.173200
 22
1.035320
 13
6.170120
 23
1.778920
  0
POLYLINE
  8
0
  6
CONTINUOUS
 66
     1
 40
0.000000
 41
0.000000
  0
VERTEX
  8
0
  6
CONTINUOUS
 10
6.142840
 20
1.037520
  0
VERTEX
  8
0
  6
CONTINUOUS
 10
6.139760
 20
1.781560
  0
VERTEX
  8
0
  6
CONTINUOUS
 10
6.170120
 20
1.778920
  0
VERTEX
  8
0
  6
CONTINUOUS
 10
6.173200
 20
1.035320
  0
VERTEX
  8
0
  6
CONTINUOUS
 10
6.142840
 20
1.037520
  0
SEQEND
  8
0
  0
SOLID
  8
0
 62
    15
 10
6.173200
 20
1.035320
 11
6.170120
 21
1.778920
 12
6.203560
 22
1.030920
 13
6.200480
 23
1.774520
  0
POLYLINE
  8
0
  6
CONTINUOUS
 66
     1
 40
0.000000
 41
0.000000
  0
VERTEX
  8
0
  6
CONTINUOUS
 10
6.173200
 20
1.035320
  0
VERTEX
  8
0
  6
CONTINUOUS
 10
6.170120
 20
1.778920
  0
VERTEX
  8
0
  6
CONTINUOUS
 10
6.200480
 20
1.774520
  0
VERTEX
  8
0
  6
CONTINUOUS
 10
6.203560
 20
1.030920
  0
VERTEX
  8
0
  6
CONTINUOUS
 10
6.173200
 20
1.035320
  0
SEQEND
  8
0
  0
SOLID
  8
0
 62
    15
 10
6.203560
 20
1.030920
 11
6.200480
 21
1.774520
 12
6.233040
 22
1.024320
 13
6.229960
 23
1.767920
  0
POLYLINE
  8
0
  6
CONTINUOUS
 66
     1
 40
0.000000
 41
0.000000
  0
VERTEX
  8
0
  6
CONTINUOUS
 10
6.203560
 20
1.030920
  0
VERTEX
  8
0
  6
CONTINUOUS
 10
6.200480
 20
1.774520
  0
VERTEX
  8
0
  6
CONTINUOUS
 10
6.229960
 20
1.767920
  0
VERTEX
  8
0
  6
CONTINUOUS
 10
6.233040
 20
1.024320
  0
VERTEX
  8
0
  6
CONTINUOUS
 10
6.203560
 20
1.030920
  0
SEQEND
  8
0
  0
SOLID
  8
0
 62
    15
 10
6.233040
 20
1.024320
 11
6.229960
 21
1.767920
 12
6.261640
 22
1.015960
 13
6.259000
 23
1.760000
  0
POLYLINE
  8
0
  6
CONTINUOUS
 66
     1
 40
0.000000
 41
0.000000
  0
VERTEX
  8
0
  6
CONTINUOUS
 10
6.233040
 20
1.024320
  0
VERTEX
  8
0
  6
CONTINUOUS
 10
6.229960
 20
1.767920
  0
VERTEX
  8
0
  6
CONTINUOUS
 10
6.259000
 20
1.760000
  0
VERTEX
  8
0
  6
CONTINUOUS
 10
6.261640
 20
1.015960
  0
VERTEX
  8
0
  6
CONTINUOUS
 10
6.233040
 20
1.024320
  0
SEQEND
  8
0
  0
SOLID
  8
0
 62
     7
 10
5.945720
 20
0.976360
 11
5.942640
 21
1.720400
 12
5.958040
 22
0.976360
 13
5.955400
 23
1.720400
  0
POLYLINE
  8
0
  6
CONTINUOUS
 66
     1
 40
0.000000
 41
0.000000
  0
VERTEX
  8
0
  6
CONTINUOUS
 10
5.945720
 20
0.976360
  0
VERTEX
  8
0
  6
CONTINUOUS
 10
5.942640
 20
1.720400
  0
VERTEX
  8
0
  6
CONTINUOUS
 10
5.955400
 20
1.720400
  0
VERTEX
  8
0
  6
CONTINUOUS
 10
5.958040
 20
0.976360
  0
VERTEX
  8
0
  6
CONTINUOUS
 10
5.945720
 20
0.976360
  0
SEQEND
  8
0
  0
SOLID
  8
0
 62
    15
 10
6.288920
 20
1.005840
 11
6.286280
 21
1.749440
 12
6.314440
 22
0.993960
 13
6.311360
 23
1.737560
  0
POLYLINE
  8
0
  6
CONTINUOUS
 66
     1
 40
0.000000
 41
0.000000
  0
VERTEX
  8
0
  6
CONTINUOUS
 10
6.288920
 20
1.005840
  0
VERTEX
  8
0
  6
CONTINUOUS
 10
6.286280
 20
1.749440
  0
VERTEX
  8
0
  6
CONTINUOUS
 10
6.311360
 20
1.737560
  0
VERTEX
  8
0
  6
CONTINUOUS
 10
6.314440
 20
0.993960
  0
VERTEX
  8
0
  6
CONTINUOUS
 10
6.288920
 20
1.005840
  0
SEQEND
  8
0
  0
SOLID
  8
0
 62
    15
 10
6.314440
 20
0.993960
 11
6.311360
 21
1.737560
 12
6.337320
 22
0.980320
 13
6.334240
 23
1.723920
  0
POLYLINE
  8
0
  6
CONTINUOUS
 66
     1
 40
0.000000
 41
0.000000
  0
VERTEX
  8
0
  6
CONTINUOUS
 10
6.314440
 20
0.993960
  0
VERTEX
  8
0
  6
CONTINUOUS
 10
6.311360
 20
1.737560
  0
VERTEX
  8
0
  6
CONTINUOUS
 10
6.334240
 20
1.723920
  0
VERTEX
  8
0
  6
CONTINUOUS
 10
6.337320
 20
0.980320
  0
VERTEX
  8
0
  6
CONTINUOUS
 10
6.314440
 20
0.993960
  0
SEQEND
  8
0
  0
SOLID
  8
0
 62
    15
 10
6.337320
 20
0.980320
 11
6.334240
 21
1.723920
 12
6.347440
 22
0.972840
 13
6.344800
 23
1.716440
  0
POLYLINE
  8
0
  6
CONTINUOUS
 66
     1
 40
0.000000
 41
0.000000
  0
VERTEX
  8
0
  6
CONTINUOUS
 10
6.337320
 20
0.980320
  0
VERTEX
  8
0
  6
CONTINUOUS
 10
6.334240
 20
1.723920
  0
VERTEX
  8
0
  6
CONTINUOUS
 10
6.344800
 20
1.716440
  0
VERTEX
  8
0
  6
CONTINUOUS
 10
6.347440
 20
0.972840
  0
VERTEX
  8
0
  6
CONTINUOUS
 10
6.337320
 20
0.980320
  0
SEQEND
  8
0
  0
SOLID
  8
0
 62
    15
 10
6.347440
 20
0.972840
 11
6.344800
 21
1.716440
 12
6.357120
 22
0.964920
 13
6.354040
 23
1.708960
  0
POLYLINE
  8
0
  6
CONTINUOUS
 66
     1
 40
0.000000
 41
0.000000
  0
VERTEX
  8
0
  6
CONTINUOUS
 10
6.347440
 20
0.972840
  0
VERTEX
  8
0
  6
CONTINUOUS
 10
6.344800
 20
1.716440
  0
VERTEX
  8
0
  6
CONTINUOUS
 10
6.354040
 20
1.708960
  0
VERTEX
  8
0
  6
CONTINUOUS
 10
6.357120
 20
0.964920
  0
VERTEX
  8
0
  6
CONTINUOUS
 10
6.347440
 20
0.972840
  0
SEQEND
  8
0
  0
SOLID
  8
0
 62
     7
 10
6.357120
 20
0.964920
 11
6.354040
 21
1.708960
 12
6.384840
 22
0.964920
 13
6.381760
 23
1.708960
  0
POLYLINE
  8
0
  6
CONTINUOUS
 66
     1
 40
0.000000
 41
0.000000
  0
VERTEX
  8
0
  6
CONTINUOUS
 10
6.357120
 20
0.964920
  0
VERTEX
  8
0
  6
CONTINUOUS
 10
6.354040
 20
1.708960
  0
VERTEX
  8
0
  6
CONTINUOUS
 10
6.381760
 20
1.708960
  0
VERTEX
  8
0
  6
CONTINUOUS
 10
6.384840
 20
0.964920
  0
VERTEX
  8
0
  6
CONTINUOUS
 10
6.357120
 20
0.964920
  0
SEQEND
  8
0
  0
SOLID
  8
0
 62
    15
 10
6.384840
 20
0.964920
 11
6.381760
 21
1.708960
 12
6.389240
 22
0.953040
 13
6.386160
 23
1.697080
  0
POLYLINE
  8
0
  6
CONTINUOUS
 66
     1
 40
0.000000
 41
0.000000
  0
VERTEX
  8
0
  6
CONTINUOUS
 10
6.384840
 20
0.964920
  0
VERTEX
  8
0
  6
CONTINUOUS
 10
6.381760
 20
1.708960
  0
VERTEX
  8
0
  6
CONTINUOUS
 10
6.386160
 20
1.697080
  0
VERTEX
  8
0
  6
CONTINUOUS
 10
6.389240
 20
0.953040
  0
VERTEX
  8
0
  6
CONTINUOUS
 10
6.384840
 20
0.964920
  0
SEQEND
  8
0
  0
SOLID
  8
0
 62
    15
 10
6.389240
 20
0.953040
 11
6.386160
 21
1.697080
 12
6.394520
 22
0.942480
 13
6.391880
 23
1.686520
  0
POLYLINE
  8
0
  6
CONTINUOUS
 66
     1
 40
0.000000
 41
0.000000
  0
VERTEX
  8
0
  6
CONTINUOUS
 10
6.389240
 20
0.953040
  0
VERTEX
  8
0
  6
CONTINUOUS
 10
6.386160
 20
1.697080
  0
VERTEX
  8
0
  6
CONTINUOUS
 10
6.391880
 20
1.686520
  0
VERTEX
  8
0
  6
CONTINUOUS
 10
6.394520
 20
0.942480
  0
VERTEX
  8
0
  6
CONTINUOUS
 10
6.389240
 20
0.953040
  0
SEQEND
  8
0
  0
SOLID
  8
0
 62
    15
 10
6.394520
 20
0.942480
 11
6.391880
 21
1.686520
 12
6.401560
 22
0.933240
 13
6.398920
 23
1.677280
  0
POLYLINE
  8
0
  6
CONTINUOUS
 66
     1
 40
0.000000
 41
0.000000
  0
VERTEX
  8
0
  6
CONTINUOUS
 10
6.394520
 20
0.942480
  0
VERTEX
  8
0
  6
CONTINUOUS
 10
6.391880
 20
1.686520
  0
VERTEX
  8
0
  6
CONTINUOUS
 10
6.398920
 20
1.677280
  0
VERTEX
  8
0
  6
CONTINUOUS
 10
6.401560
 20
0.933240
  0
VERTEX
  8
0
  6
CONTINUOUS
 10
6.394520
 20
0.942480
  0
SEQEND
  8
0
  0
SOLID
  8
0
 62
    15
 10
6.401560
 20
0.933240
 11
6.398920
 21
1.677280
 12
6.409920
 22
0.925320
 13
6.406840
 23
1.669360
  0
POLYLINE
  8
0
  6
CONTINUOUS
 66
     1
 40
0.000000
 41
0.000000
  0
VERTEX
  8
0
  6
CONTINUOUS
 10
6.401560
 20
0.933240
  0
VERTEX
  8
0
  6
CONTINUOUS
 10
6.398920
 20
1.677280
  0
VERTEX
  8
0
  6
CONTINUOUS
 10
6.406840
 20
1.669360
  0
VERTEX
  8
0
  6
CONTINUOUS
 10
6.409920
 20
0.925320
  0
VERTEX
  8
0
  6
CONTINUOUS
 10
6.401560
 20
0.933240
  0
SEQEND
  8
0
  0
SOLID
  8
0
 62
    15
 10
6.409920
 20
0.925320
 11
6.406840
 21
1.669360
 12
6.419160
 22
0.918720
 13
6.416520
 23
1.662320
  0
POLYLINE
  8
0
  6
CONTINUOUS
 66
     1
 40
0.000000
 41
0.000000
  0
VERTEX
  8
0
  6
CONTINUOUS
 10
6.409920
 20
0.925320
  0
VERTEX
  8
0
  6
CONTINUOUS
 10
6.406840
 20
1.669360
  0
VERTEX
  8
0
  6
CONTINUOUS
 10
6.416520
 20
1.662320
  0
VERTEX
  8
0
  6
CONTINUOUS
 10
6.419160
 20
0.918720
  0
VERTEX
  8
0
  6
CONTINUOUS
 10
6.409920
 20
0.925320
  0
SEQEND
  8
0
  0
SOLID
  8
0
 62
    15
 10
6.419160
 20
0.918720
 11
6.416520
 21
1.662320
 12
6.429720
 22
0.912560
 13
6.426640
 23
1.656600
  0
POLYLINE
  8
0
  6
CONTINUOUS
 66
     1
 40
0.000000
 41
0.000000
  0
VERTEX
  8
0
  6
CONTINUOUS
 10
6.419160
 20
0.918720
  0
VERTEX
  8
0
  6
CONTINUOUS
 10
6.416520
 20
1.662320
  0
VERTEX
  8
0
  6
CONTINUOUS
 10
6.426640
 20
1.656600
  0
VERTEX
  8
0
  6
CONTINUOUS
 10
6.429720
 20
0.912560
  0
VERTEX
  8
0
  6
CONTINUOUS
 10
6.419160
 20
0.918720
  0
SEQEND
  8
0
  0
SOLID
  8
0
 62
    15
 10
6.429720
 20
0.912560
 11
6.426640
 21
1.656600
 12
6.441160
 22
0.907720
 13
6.438080
 23
1.651760
  0
POLYLINE
  8
0
  6
CONTINUOUS
 66
     1
 40
0.000000
 41
0.000000
  0
VERTEX
  8
0
  6
CONTINUOUS
 10
6.429720
 20
0.912560
  0
VERTEX
  8
0
  6
CONTINUOUS
 10
6.426640
 20
1.656600
  0
VERTEX
  8
0
  6
CONTINUOUS
 10
6.438080
 20
1.651760
  0
VERTEX
  8
0
  6
CONTINUOUS
 10
6.441160
 20
0.907720
  0
VERTEX
  8
0
  6
CONTINUOUS
 10
6.429720
 20
0.912560
  0
SEQEND
  8
0
  0
SOLID
  8
0
 62
    15
 10
6.441160
 20
0.907720
 11
6.438080
 21
1.651760
 12
6.453040
 22
0.903760
 13
6.450400
 23
1.647360
  0
POLYLINE
  8
0
  6
CONTINUOUS
 66
     1
 40
0.000000
 41
0.000000
  0
VERTEX
  8
0
  6
CONTINUOUS
 10
6.441160
 20
0.907720
  0
VERTEX
  8
0
  6
CONTINUOUS
 10
6.438080
 20
1.651760
  0
VERTEX
  8
0
  6
CONTINUOUS
 10
6.450400
 20
1.647360
  0
VERTEX
  8
0
  6
CONTINUOUS
 10
6.453040
 20
0.903760
  0
VERTEX
  8
0
  6
CONTINUOUS
 10
6.441160
 20
0.907720
  0
SEQEND
  8
0
  0
SOLID
  8
0
 62
    15
 10
6.453040
 20
0.903760
 11
6.450400
 21
1.647360
 12
6.479000
 22
0.898040
 13
6.476360
 23
1.642080
  0
POLYLINE
  8
0
  6
CONTINUOUS
 66
     1
 40
0.000000
 41
0.000000
  0
VERTEX
  8
0
  6
CONTINUOUS
 10
6.453040
 20
0.903760
  0
VERTEX
  8
0
  6
CONTINUOUS
 10
6.450400
 20
1.647360
  0
VERTEX
  8
0
  6
CONTINUOUS
 10
6.476360
 20
1.642080
  0
VERTEX
  8
0
  6
CONTINUOUS
 10
6.479000
 20
0.898040
  0
VERTEX
  8
0
  6
CONTINUOUS
 10
6.453040
 20
0.903760
  0
SEQEND
  8
0
  0
SOLID
  8
0
 62
    15
 10
6.479000
 20
0.898040
 11
6.476360
 21
1.642080
 12
6.506720
 22
0.894960
 13
6.503640
 23
1.638560
  0
POLYLINE
  8
0
  6
CONTINUOUS
 66
     1
 40
0.000000
 41
0.000000
  0
VERTEX
  8
0
  6
CONTINUOUS
 10
6.479000
 20
0.898040
  0
VERTEX
  8
0
  6
CONTINUOUS
 10
6.476360
 20
1.642080
  0
VERTEX
  8
0
  6
CONTINUOUS
 10
6.503640
 20
1.638560
  0
VERTEX
  8
0
  6
CONTINUOUS
 10
6.506720
 20
0.894960
  0
VERTEX
  8
0
  6
CONTINUOUS
 10
6.479000
 20
0.898040
  0
SEQEND
  8
0
  0
SOLID
  8
0
 62
     7
 10
6.506720
 20
0.894960
 11
6.503640
 21
1.638560
 12
6.535320
 22
0.893200
 13
6.532240
 23
1.637240
  0
POLYLINE
  8
0
  6
CONTINUOUS
 66
     1
 40
0.000000
 41
0.000000
  0
VERTEX
  8
0
  6
CONTINUOUS
 10
6.506720
 20
0.894960
  0
VERTEX
  8
0
  6
CONTINUOUS
 10
6.503640
 20
1.638560
  0
VERTEX
  8
0
  6
CONTINUOUS
 10
6.532240
 20
1.637240
  0
VERTEX
  8
0
  6
CONTINUOUS
 10
6.535320
 20
0.893200
  0
VERTEX
  8
0
  6
CONTINUOUS
 10
6.506720
 20
0.894960
  0
SEQEND
  8
0
  0
SOLID
  8
0
 62
     7
 10
6.535320
 20
0.893200
 11
6.532240
 21
1.637240
 12
6.563480
 22
0.893200
 13
6.560400
 23
1.636800
  0
POLYLINE
  8
0
  6
CONTINUOUS
 66
     1
 40
0.000000
 41
0.000000
  0
VERTEX
  8
0
  6
CONTINUOUS
 10
6.535320
 20
0.893200
  0
VERTEX
  8
0
  6
CONTINUOUS
 10
6.532240
 20
1.637240
  0
VERTEX
  8
0
  6
CONTINUOUS
 10
6.560400
 20
1.636800
  0
VERTEX
  8
0
  6
CONTINUOUS
 10
6.563480
 20
0.893200
  0
VERTEX
  8
0
  6
CONTINUOUS
 10
6.535320
 20
0.893200
  0
SEQEND
  8
0
  0
POLYLINE
  8
0
  6
CONTINUOUS
 66
     1
 40
0.000000
 41
0.000000
  0
VERTEX
  8
0
  6
CONTINUOUS
 10
6.563480
 20
0.893200
  0
VERTEX
  8
0
  6
CONTINUOUS
 10
6.563480
 20
0.838200
  0
VERTEX
  8
0
  6
CONTINUOUS
 10
5.945720
 20
0.838200
  0
VERTEX
  8
0
  6
CONTINUOUS
 10
5.945720
 20
0.976360
  0
VERTEX
  8
0
  6
CONTINUOUS
 10
5.958040
 20
0.976360
  0
VERTEX
  8
0
  6
CONTINUOUS
 10
5.964200
 20
0.984720
  0
VERTEX
  8
0
  6
CONTINUOUS
 10
5.971240
 20
0.992640
  0
VERTEX
  8
0
  6
CONTINUOUS
 10
5.979160
 20
0.999680
  0
VERTEX
  8
0
  6
CONTINUOUS
 10
5.987960
 20
1.006280
  0
VERTEX
  8
0
  6
CONTINUOUS
 10
5.997640
 20
1.012000
  0
VERTEX
  8
0
  6
CONTINUOUS
 10
6.008200
 20
1.017280
  0
VERTEX
  8
0
  6
CONTINUOUS
 10
6.031080
 20
1.026080
  0
VERTEX
  8
0
  6
CONTINUOUS
 10
6.056600
 20
1.032240
  0
VERTEX
  8
0
  6
CONTINUOUS
 10
6.084320
 20
1.036200
  0
VERTEX
  8
0
  6
CONTINUOUS
 10
6.112920
 20
1.037960
  0
VERTEX
  8
0
  6
CONTINUOUS
 10
6.142840
 20
1.037520
  0
VERTEX
  8
0
  6
CONTINUOUS
 10
6.173200
 20
1.035320
  0
VERTEX
  8
0
  6
CONTINUOUS
 10
6.203560
 20
1.030920
  0
VERTEX
  8
0
  6
CONTINUOUS
 10
6.233040
 20
1.024320
  0
VERTEX
  8
0
  6
CONTINUOUS
 10
6.261640
 20
1.015960
  0
VERTEX
  8
0
  6
CONTINUOUS
 10
6.288920
 20
1.005840
  0
VERTEX
  8
0
  6
CONTINUOUS
 10
6.314440
 20
0.993960
  0
VERTEX
  8
0
  6
CONTINUOUS
 10
6.337320
 20
0.980320
  0
VERTEX
  8
0
  6
CONTINUOUS
 10
6.347440
 20
0.972840
  0
VERTEX
  8
0
  6
CONTINUOUS
 10
6.357120
 20
0.964920
  0
VERTEX
  8
0
  6
CONTINUOUS
 10
6.384840
 20
0.964920
  0
VERTEX
  8
0
  6
CONTINUOUS
 10
6.389240
 20
0.953040
  0
VERTEX
  8
0
  6
CONTINUOUS
 10
6.394520
 20
0.942480
  0
VERTEX
  8
0
  6
CONTINUOUS
 10
6.401560
 20
0.933240
  0
VERTEX
  8
0
  6
CONTINUOUS
 10
6.409920
 20
0.925320
  0
VERTEX
  8
0
  6
CONTINUOUS
 10
6.419160
 20
0.918720
  0
VERTEX
  8
0
  6
CONTINUOUS
 10
6.429720
 20
0.912560
  0
VERTEX
  8
0
  6
CONTINUOUS
 10
6.441160
 20
0.907720
  0
VERTEX
  8
0
  6
CONTINUOUS
 10
6.453040
 20
0.903760
  0
VERTEX
  8
0
  6
CONTINUOUS
 10
6.479000
 20
0.898040
  0
VERTEX
  8
0
  6
CONTINUOUS
 10
6.506720
 20
0.894960
  0
VERTEX
  8
0
  6
CONTINUOUS
 10
6.535320
 20
0.893200
  0
VERTEX
  8
0
  6
CONTINUOUS
 10
6.563480
 20
0.893200
  0
SEQEND
  8
0
  0
TEXT
  8
0
 10
5.958040
 20
0.652520
 40
0.138146
  1
BA  592
 41
1.000000
  7
SN0
 71
     0
 72
     5
 11
6.547897
 21
0.652520
  0
TEXT
  8
0
 10
5.875760
 20
0.460680
 40
0.138146
  1
1/4" x 5/8"
 41
1.000000
  7
SN0
 71
     0
 72
     5
 11
6.628422
 21
0.460680
  0
ENDSEC
  0
EOF
