  0
SECTION
  2
HEADER
  9
$ACADVER
  1
AC1006
  9
$EXTMIN
 10
2.581480
 20
0.567600
  9
$EXTMAX
 10
6.816480
 20
6.777320
  9
$LTSCALE
 40
0.044000
  9
$PDMODE
 70
    35
  9
$PDSIZE
 40
0.035200
  0
ENDSEC
  0
SECTION
  2
TABLES
  0
TABLE
  2
LTYPE
 70
     9
  0
LTYPE
  2
CONTINUOUS
 70
    64
  3
Solid line
 72
    65
 73
     0
 40
0.000000
  0
LTYPE
  2
DASHED
 70
    64
  3
__ __ __ __ __ __ __ __ __ __ __ __ __ __ __
 72
    65
 73
     2
 40
0.000330
 49
0.000220
 49
-0.000110
  0
LTYPE
  2
HIDDEN
 70
    64
  3
 _ _ _ _ _ _ _ _ _ _ _ _ _ _ _ _ _ _ _ _ _ _
 72
    65
 73
     2
 40
0.000165
 49
0.000110
 49
-0.000055
  0
LTYPE
  2
CENTER
 70
    64
  3
____ _ ____ _ ____ _ ____ _ ____ _ ____ _ ____
 72
    65
 73
     4
 40
0.000880
 49
0.000550
 49
-0.000110
 49
0.000110
 49
-0.000110
  0
LTYPE
  2
PHANTOM
 70
    64
  3
_____ _ _ _____ _ _ _____ _ _ _____ _ _ ____
 72
    65
 73
     6
 40
0.001100
 49
0.000550
 49
-0.000110
 49
0.000110
 49
-0.000110
 49
0.000110
 49
-0.000110
  0
LTYPE
  2
DOT
 70
    64
  3
...............................................
 72
    65
 73
     2
 40
0.000110
 49
0.000000
 49
-0.000110
  0
LTYPE
  2
DASHDOT
 70
    64
  3
__ . __ . __ . __ . __ . __ . __ . __ . __ . __
 72
    65
 73
     4
 40
0.000440
 49
0.000220
 49
-0.000110
 49
0.000000
 49
-0.000110
  0
LTYPE
  2
BORDER
 70
    64
  3
__ __ . __ __ . __ __ . __ __ . __ __ . __ __
 72
    65
 73
     6
 40
0.000770
 49
0.000220
 49
-0.000110
 49
0.000220
 49
-0.000110
 49
0.000000
 49
-0.000110
  0
LTYPE
  2
DIVIDE
 70
    64
  3
__ . . __ . . __ . . __ . . __ . . __ . . __
 72
    65
 73
     6
 40
0.000550
 49
0.000220
 49
-0.000110
 49
0.000000
 49
-0.000110
 49
0.000000
 49
-0.000110
  0
LTYPE
  2
DOTDOT
 70
    64
  3
 . .  . .  . .  . .  . .  . . 
 72
    65
 73
     5
 40
0.000242
 49
-0.000110
 49
0.000000
 49
-0.000110
 49
0.000000
 49
-0.000110
  0
ENDTAB
  0
TABLE
  2
STYLE
 70
     2
  0
STYLE
 70
     0
  2
SN0
 40
0.000000
 41
0.000440
 50
0.000000
 71
     0
 42
0.000000
  3
ROMAND
  0
STYLE
 70
    68
  2
SV0
 40
0.000000
 41
0.000440
 50
0.000000
 71
     0
 42
0.000000
  3
ROMAND
  0
ENDTAB
  0
TABLE
  2
LAYER
 70
     3
  0
LAYER
  2
FOREGROUND
 70
    64
 62
     7
  6
CONTINUOUS
  0
LAYER
  2
BACKGROUND
 70
    65
 62
    -7
  6
CONTINUOUS
  0
LAYER
  2
0
 70
    64
 62
     7
  6
CONTINUOUS
  0
ENDTAB
  0
ENDSEC
  0
SECTION
  2
ENTITIES
  0
POLYLINE
  8
FOREGROUND
  6
CONTINUOUS
 66
     1
 40
0.000000
 41
0.000000
  0
VERTEX
  8
FOREGROUND
  6
CONTINUOUS
 10
0.000000
 20
7.344920
  0
VERTEX
  8
FOREGROUND
  6
CONTINUOUS
 10
8.499920
 20
7.344920
  0
VERTEX
  8
FOREGROUND
  6
CONTINUOUS
 10
8.499920
 20
-3.655080
  0
VERTEX
  8
FOREGROUND
  6
CONTINUOUS
 10
0.000000
 20
-3.655080
  0
VERTEX
  8
FOREGROUND
  6
CONTINUOUS
 10
0.000000
 20
7.344920
  0
SEQEND
  8
0
  0
POLYLINE
  8
FOREGROUND
  6
CONTINUOUS
 66
     1
 40
0.000000
 41
0.000000
  0
VERTEX
  8
FOREGROUND
  6
CONTINUOUS
 10
0.000000
 20
7.344920
  0
VERTEX
  8
FOREGROUND
  6
CONTINUOUS
 10
8.499920
 20
7.344920
  0
VERTEX
  8
FOREGROUND
  6
CONTINUOUS
 10
8.499920
 20
-3.655080
  0
VERTEX
  8
FOREGROUND
  6
CONTINUOUS
 10
0.000000
 20
-3.655080
  0
VERTEX
  8
FOREGROUND
  6
CONTINUOUS
 10
0.000000
 20
7.344920
  0
SEQEND
  8
0
  0
POLYLINE
  8
0
  6
CONTINUOUS
 66
     1
 40
0.014080
 41
0.014080
  0
VERTEX
  8
0
  6
CONTINUOUS
 10
5.541800
 20
4.264480
  0
VERTEX
  8
0
  6
CONTINUOUS
 10
3.362480
 20
4.264480
  0
VERTEX
  8
0
  6
CONTINUOUS
 10
3.362480
 20
4.358200
  0
VERTEX
  8
0
  6
CONTINUOUS
 10
3.300880
 20
4.360840
  0
VERTEX
  8
0
  6
CONTINUOUS
 10
3.273160
 20
4.364360
  0
VERTEX
  8
0
  6
CONTINUOUS
 10
3.223000
 20
4.374920
  0
VERTEX
  8
0
  6
CONTINUOUS
 10
3.201000
 20
4.381520
  0
VERTEX
  8
0
  6
CONTINUOUS
 10
3.161840
 20
4.398240
  0
VERTEX
  8
0
  6
CONTINUOUS
 10
3.144680
 20
4.407480
  0
VERTEX
  8
0
  6
CONTINUOUS
 10
3.116080
 20
4.428600
  0
VERTEX
  8
0
  6
CONTINUOUS
 10
3.093640
 20
4.451920
  0
VERTEX
  8
0
  6
CONTINUOUS
 10
3.077800
 20
4.477000
  0
VERTEX
  8
0
  6
CONTINUOUS
 10
3.067680
 20
4.502520
  0
VERTEX
  8
0
  6
CONTINUOUS
 10
3.064600
 20
4.515720
  0
VERTEX
  8
0
  6
CONTINUOUS
 10
3.062840
 20
4.542120
  0
VERTEX
  8
0
  6
CONTINUOUS
 10
3.066360
 20
4.567200
  0
VERTEX
  8
0
  6
CONTINUOUS
 10
3.074720
 20
4.591400
  0
VERTEX
  8
0
  6
CONTINUOUS
 10
3.087920
 20
4.613840
  0
VERTEX
  8
0
  6
CONTINUOUS
 10
3.105520
 20
4.633200
  0
VERTEX
  8
0
  6
CONTINUOUS
 10
3.115640
 20
4.642000
  0
VERTEX
  8
0
  6
CONTINUOUS
 10
3.139400
 20
4.656080
  0
VERTEX
  8
0
  6
CONTINUOUS
 10
3.152600
 20
4.661800
  0
VERTEX
  8
0
  6
CONTINUOUS
 10
3.152600
 20
4.707560
  0
VERTEX
  8
0
  6
CONTINUOUS
 10
3.042600
 20
4.707560
  0
VERTEX
  8
0
  6
CONTINUOUS
 10
3.042160
 20
5.453360
  0
VERTEX
  8
0
  6
CONTINUOUS
 10
3.039080
 20
5.507040
  0
VERTEX
  8
0
  6
CONTINUOUS
 10
3.032480
 20
5.555000
  0
VERTEX
  8
0
  6
CONTINUOUS
 10
3.022800
 20
5.597240
  0
VERTEX
  8
0
  6
CONTINUOUS
 10
3.010040
 20
5.635080
  0
VERTEX
  8
0
  6
CONTINUOUS
 10
2.993760
 20
5.668080
  0
VERTEX
  8
0
  6
CONTINUOUS
 10
2.975280
 20
5.697120
  0
VERTEX
  8
0
  6
CONTINUOUS
 10
2.953280
 20
5.722200
  0
VERTEX
  8
0
  6
CONTINUOUS
 10
2.928640
 20
5.744200
  0
VERTEX
  8
0
  6
CONTINUOUS
 10
2.901360
 20
5.762680
  0
VERTEX
  8
0
  6
CONTINUOUS
 10
2.871000
 20
5.778960
  0
VERTEX
  8
0
  6
CONTINUOUS
 10
2.838440
 20
5.793480
  0
VERTEX
  8
0
  6
CONTINUOUS
 10
2.784320
 20
5.811520
  0
VERTEX
  8
0
  6
CONTINUOUS
 10
2.703360
 20
5.831760
  0
VERTEX
  8
0
  6
CONTINUOUS
 10
2.659360
 20
5.841000
  0
VERTEX
  8
0
  6
CONTINUOUS
 10
2.659360
 20
6.277920
  0
VERTEX
  8
0
  6
CONTINUOUS
 10
4.292640
 20
6.748280
  0
VERTEX
  8
0
  6
CONTINUOUS
 10
4.356880
 20
6.764120
  0
VERTEX
  8
0
  6
CONTINUOUS
 10
4.387680
 20
6.768080
  0
VERTEX
  8
0
  6
CONTINUOUS
 10
4.425080
 20
6.769400
  0
VERTEX
  8
0
  6
CONTINUOUS
 10
4.469080
 20
6.768960
  0
VERTEX
  8
0
  6
CONTINUOUS
 10
4.510000
 20
6.768960
  0
VERTEX
  8
0
  6
CONTINUOUS
 10
4.532000
 20
6.767200
  0
VERTEX
  8
0
  6
CONTINUOUS
 10
4.571600
 20
6.759720
  0
VERTEX
  8
0
  6
CONTINUOUS
 10
4.644640
 20
6.740800
  0
VERTEX
  8
0
  6
CONTINUOUS
 10
6.249760
 20
6.277480
  0
VERTEX
  8
0
  6
CONTINUOUS
 10
6.249760
 20
5.841000
  0
VERTEX
  8
0
  6
CONTINUOUS
 10
6.164400
 20
5.822080
  0
VERTEX
  8
0
  6
CONTINUOUS
 10
6.106320
 20
5.805800
  0
VERTEX
  8
0
  6
CONTINUOUS
 10
6.054400
 20
5.786440
  0
VERTEX
  8
0
  6
CONTINUOUS
 10
6.022720
 20
5.771480
  0
VERTEX
  8
0
  6
CONTINUOUS
 10
5.994120
 20
5.753880
  0
VERTEX
  8
0
  6
CONTINUOUS
 10
5.955840
 20
5.722200
  0
VERTEX
  8
0
  6
CONTINUOUS
 10
5.934280
 20
5.697120
  0
VERTEX
  8
0
  6
CONTINUOUS
 10
5.915360
 20
5.668080
  0
VERTEX
  8
0
  6
CONTINUOUS
 10
5.899520
 20
5.635080
  0
VERTEX
  8
0
  6
CONTINUOUS
 10
5.886320
 20
5.597240
  0
VERTEX
  8
0
  6
CONTINUOUS
 10
5.876640
 20
5.554560
  0
VERTEX
  8
0
  6
CONTINUOUS
 10
5.870040
 20
5.506600
  0
VERTEX
  8
0
  6
CONTINUOUS
 10
5.866960
 20
5.452920
  0
VERTEX
  8
0
  6
CONTINUOUS
 10
5.866960
 20
4.707120
  0
VERTEX
  8
0
  6
CONTINUOUS
 10
5.756960
 20
4.707120
  0
VERTEX
  8
0
  6
CONTINUOUS
 10
5.756960
 20
4.661360
  0
VERTEX
  8
0
  6
CONTINUOUS
 10
5.782480
 20
4.649040
  0
VERTEX
  8
0
  6
CONTINUOUS
 10
5.793920
 20
4.641560
  0
VERTEX
  8
0
  6
CONTINUOUS
 10
5.813280
 20
4.623520
  0
VERTEX
  8
0
  6
CONTINUOUS
 10
5.828680
 20
4.602840
  0
VERTEX
  8
0
  6
CONTINUOUS
 10
5.839680
 20
4.579520
  0
VERTEX
  8
0
  6
CONTINUOUS
 10
5.845400
 20
4.554440
  0
VERTEX
  8
0
  6
CONTINUOUS
 10
5.846720
 20
4.541680
  0
VERTEX
  8
0
  6
CONTINUOUS
 10
5.844960
 20
4.515720
  0
VERTEX
  8
0
  6
CONTINUOUS
 10
5.837480
 20
4.489320
  0
VERTEX
  8
0
  6
CONTINUOUS
 10
5.824280
 20
4.463800
  0
VERTEX
  8
0
  6
CONTINUOUS
 10
5.805360
 20
4.439600
  0
VERTEX
  8
0
  6
CONTINUOUS
 10
5.779840
 20
4.417160
  0
VERTEX
  8
0
  6
CONTINUOUS
 10
5.747720
 20
4.397800
  0
VERTEX
  8
0
  6
CONTINUOUS
 10
5.708560
 20
4.381080
  0
VERTEX
  8
0
  6
CONTINUOUS
 10
5.661920
 20
4.368760
  0
VERTEX
  8
0
  6
CONTINUOUS
 10
5.635960
 20
4.363920
  0
VERTEX
  8
0
  6
CONTINUOUS
 10
5.608240
 20
4.360400
  0
VERTEX
  8
0
  6
CONTINUOUS
 10
5.546640
 20
4.357760
  0
VERTEX
  8
0
  6
CONTINUOUS
 10
5.546640
 20
4.264040
  0
VERTEX
  8
0
  6
CONTINUOUS
 10
5.541800
 20
4.264480
  0
SEQEND
  8
0
  0
SOLID
  8
0
 62
    15
 10
5.945280
 20
2.537920
 11
6.589000
 21
2.887720
 12
5.890280
 22
2.500080
 13
6.534440
 23
2.849880
  0
POLYLINE
  8
0
  6
CONTINUOUS
 66
     1
 40
0.000000
 41
0.000000
  0
VERTEX
  8
0
  6
CONTINUOUS
 10
5.945280
 20
2.537920
  0
VERTEX
  8
0
  6
CONTINUOUS
 10
6.589000
 20
2.887720
  0
VERTEX
  8
0
  6
CONTINUOUS
 10
6.534440
 20
2.849880
  0
VERTEX
  8
0
  6
CONTINUOUS
 10
5.890280
 20
2.500080
  0
VERTEX
  8
0
  6
CONTINUOUS
 10
5.945280
 20
2.537920
  0
SEQEND
  8
0
  0
SOLID
  8
0
 62
    15
 10
4.187040
 20
3.507680
 11
4.831200
 21
3.857040
 12
4.215200
 22
3.514720
 13
4.859360
 23
3.864520
  0
POLYLINE
  8
0
  6
CONTINUOUS
 66
     1
 40
0.000000
 41
0.000000
  0
VERTEX
  8
0
  6
CONTINUOUS
 10
4.187040
 20
3.507680
  0
VERTEX
  8
0
  6
CONTINUOUS
 10
4.831200
 20
3.857040
  0
VERTEX
  8
0
  6
CONTINUOUS
 10
4.859360
 20
3.864520
  0
VERTEX
  8
0
  6
CONTINUOUS
 10
4.215200
 20
3.514720
  0
VERTEX
  8
0
  6
CONTINUOUS
 10
4.187040
 20
3.507680
  0
SEQEND
  8
0
  0
SOLID
  8
0
 62
    15
 10
4.215200
 20
3.514720
 11
4.859360
 21
3.864520
 12
4.238960
 22
3.521320
 13
4.883120
 23
3.870680
  0
POLYLINE
  8
0
  6
CONTINUOUS
 66
     1
 40
0.000000
 41
0.000000
  0
VERTEX
  8
0
  6
CONTINUOUS
 10
4.215200
 20
3.514720
  0
VERTEX
  8
0
  6
CONTINUOUS
 10
4.859360
 20
3.864520
  0
VERTEX
  8
0
  6
CONTINUOUS
 10
4.883120
 20
3.870680
  0
VERTEX
  8
0
  6
CONTINUOUS
 10
4.238960
 20
3.521320
  0
VERTEX
  8
0
  6
CONTINUOUS
 10
4.215200
 20
3.514720
  0
SEQEND
  8
0
  0
SOLID
  8
0
 62
    15
 10
4.238960
 20
3.521320
 11
4.883120
 21
3.870680
 12
4.279440
 22
3.531000
 13
4.923600
 23
3.880360
  0
POLYLINE
  8
0
  6
CONTINUOUS
 66
     1
 40
0.000000
 41
0.000000
  0
VERTEX
  8
0
  6
CONTINUOUS
 10
4.238960
 20
3.521320
  0
VERTEX
  8
0
  6
CONTINUOUS
 10
4.883120
 20
3.870680
  0
VERTEX
  8
0
  6
CONTINUOUS
 10
4.923600
 20
3.880360
  0
VERTEX
  8
0
  6
CONTINUOUS
 10
4.279440
 20
3.531000
  0
VERTEX
  8
0
  6
CONTINUOUS
 10
4.238960
 20
3.521320
  0
SEQEND
  8
0
  0
SOLID
  8
0
 62
    15
 10
4.279440
 20
3.531000
 11
4.923600
 21
3.880360
 12
4.321680
 22
3.535840
 13
4.965400
 23
3.885200
  0
POLYLINE
  8
0
  6
CONTINUOUS
 66
     1
 40
0.000000
 41
0.000000
  0
VERTEX
  8
0
  6
CONTINUOUS
 10
4.279440
 20
3.531000
  0
VERTEX
  8
0
  6
CONTINUOUS
 10
4.923600
 20
3.880360
  0
VERTEX
  8
0
  6
CONTINUOUS
 10
4.965400
 20
3.885200
  0
VERTEX
  8
0
  6
CONTINUOUS
 10
4.321680
 20
3.535840
  0
VERTEX
  8
0
  6
CONTINUOUS
 10
4.279440
 20
3.531000
  0
SEQEND
  8
0
  0
SOLID
  8
0
 62
    15
 10
4.375360
 20
3.534960
 11
5.019520
 21
3.884760
 12
4.432560
 22
3.535400
 13
5.076720
 23
3.885200
  0
POLYLINE
  8
0
  6
CONTINUOUS
 66
     1
 40
0.000000
 41
0.000000
  0
VERTEX
  8
0
  6
CONTINUOUS
 10
4.375360
 20
3.534960
  0
VERTEX
  8
0
  6
CONTINUOUS
 10
5.019520
 20
3.884760
  0
VERTEX
  8
0
  6
CONTINUOUS
 10
5.076720
 20
3.885200
  0
VERTEX
  8
0
  6
CONTINUOUS
 10
4.432560
 20
3.535400
  0
VERTEX
  8
0
  6
CONTINUOUS
 10
4.375360
 20
3.534960
  0
SEQEND
  8
0
  0
SOLID
  8
0
 62
    15
 10
4.321680
 20
3.535840
 11
4.965400
 21
3.885200
 12
4.378880
 22
3.535400
 13
5.023040
 23
3.884760
  0
POLYLINE
  8
0
  6
CONTINUOUS
 66
     1
 40
0.000000
 41
0.000000
  0
VERTEX
  8
0
  6
CONTINUOUS
 10
4.321680
 20
3.535840
  0
VERTEX
  8
0
  6
CONTINUOUS
 10
4.965400
 20
3.885200
  0
VERTEX
  8
0
  6
CONTINUOUS
 10
5.023040
 20
3.884760
  0
VERTEX
  8
0
  6
CONTINUOUS
 10
4.378880
 20
3.535400
  0
VERTEX
  8
0
  6
CONTINUOUS
 10
4.321680
 20
3.535840
  0
SEQEND
  8
0
  0
SOLID
  8
0
 62
    15
 10
4.432560
 20
3.535400
 11
5.076720
 21
3.885200
 12
4.474800
 22
3.530560
 13
5.118960
 23
3.880360
  0
POLYLINE
  8
0
  6
CONTINUOUS
 66
     1
 40
0.000000
 41
0.000000
  0
VERTEX
  8
0
  6
CONTINUOUS
 10
4.432560
 20
3.535400
  0
VERTEX
  8
0
  6
CONTINUOUS
 10
5.076720
 20
3.885200
  0
VERTEX
  8
0
  6
CONTINUOUS
 10
5.118960
 20
3.880360
  0
VERTEX
  8
0
  6
CONTINUOUS
 10
4.474800
 20
3.530560
  0
VERTEX
  8
0
  6
CONTINUOUS
 10
4.432560
 20
3.535400
  0
SEQEND
  8
0
  0
SOLID
  8
0
 62
    15
 10
4.474800
 20
3.530560
 11
5.118960
 21
3.880360
 12
4.515280
 22
3.520880
 13
5.159000
 23
3.870680
  0
POLYLINE
  8
0
  6
CONTINUOUS
 66
     1
 40
0.000000
 41
0.000000
  0
VERTEX
  8
0
  6
CONTINUOUS
 10
4.474800
 20
3.530560
  0
VERTEX
  8
0
  6
CONTINUOUS
 10
5.118960
 20
3.880360
  0
VERTEX
  8
0
  6
CONTINUOUS
 10
5.159000
 20
3.870680
  0
VERTEX
  8
0
  6
CONTINUOUS
 10
4.515280
 20
3.520880
  0
VERTEX
  8
0
  6
CONTINUOUS
 10
4.474800
 20
3.530560
  0
SEQEND
  8
0
  0
SOLID
  8
0
 62
    15
 10
4.515280
 20
3.520880
 11
5.159000
 21
3.870680
 12
4.539040
 22
3.514720
 13
5.182760
 23
3.864080
  0
POLYLINE
  8
0
  6
CONTINUOUS
 66
     1
 40
0.000000
 41
0.000000
  0
VERTEX
  8
0
  6
CONTINUOUS
 10
4.515280
 20
3.520880
  0
VERTEX
  8
0
  6
CONTINUOUS
 10
5.159000
 20
3.870680
  0
VERTEX
  8
0
  6
CONTINUOUS
 10
5.182760
 20
3.864080
  0
VERTEX
  8
0
  6
CONTINUOUS
 10
4.539040
 20
3.514720
  0
VERTEX
  8
0
  6
CONTINUOUS
 10
4.515280
 20
3.520880
  0
SEQEND
  8
0
  0
SOLID
  8
0
 62
    15
 10
4.539040
 20
3.514720
 11
5.182760
 21
3.864080
 12
4.567200
 22
3.507240
 13
5.211360
 23
3.857040
  0
POLYLINE
  8
0
  6
CONTINUOUS
 66
     1
 40
0.000000
 41
0.000000
  0
VERTEX
  8
0
  6
CONTINUOUS
 10
4.539040
 20
3.514720
  0
VERTEX
  8
0
  6
CONTINUOUS
 10
5.182760
 20
3.864080
  0
VERTEX
  8
0
  6
CONTINUOUS
 10
5.211360
 20
3.857040
  0
VERTEX
  8
0
  6
CONTINUOUS
 10
4.567200
 20
3.507240
  0
VERTEX
  8
0
  6
CONTINUOUS
 10
4.539040
 20
3.514720
  0
SEQEND
  8
0
  0
SOLID
  8
0
 62
    15
 10
4.567200
 20
3.507240
 11
5.211360
 21
3.857040
 12
6.172320
 22
3.044360
 13
6.816480
 23
3.393720
  0
POLYLINE
  8
0
  6
CONTINUOUS
 66
     1
 40
0.000000
 41
0.000000
  0
VERTEX
  8
0
  6
CONTINUOUS
 10
4.567200
 20
3.507240
  0
VERTEX
  8
0
  6
CONTINUOUS
 10
5.211360
 20
3.857040
  0
VERTEX
  8
0
  6
CONTINUOUS
 10
6.816480
 20
3.393720
  0
VERTEX
  8
0
  6
CONTINUOUS
 10
6.172320
 20
3.044360
  0
VERTEX
  8
0
  6
CONTINUOUS
 10
4.567200
 20
3.507240
  0
SEQEND
  8
0
  0
SOLID
  8
0
 62
    15
 10
5.890280
 20
2.500080
 11
6.534440
 21
2.849880
 12
5.846720
 22
2.449920
 13
6.490880
 23
2.799280
  0
POLYLINE
  8
0
  6
CONTINUOUS
 66
     1
 40
0.000000
 41
0.000000
  0
VERTEX
  8
0
  6
CONTINUOUS
 10
5.890280
 20
2.500080
  0
VERTEX
  8
0
  6
CONTINUOUS
 10
6.534440
 20
2.849880
  0
VERTEX
  8
0
  6
CONTINUOUS
 10
6.490880
 20
2.799280
  0
VERTEX
  8
0
  6
CONTINUOUS
 10
5.846720
 20
2.449920
  0
VERTEX
  8
0
  6
CONTINUOUS
 10
5.890280
 20
2.500080
  0
SEQEND
  8
0
  0
SOLID
  8
0
 62
    15
 10
2.581920
 20
3.044360
 11
3.226080
 21
3.394160
 12
4.187040
 22
3.507680
 13
4.831200
 23
3.857040
  0
POLYLINE
  8
0
  6
CONTINUOUS
 66
     1
 40
0.000000
 41
0.000000
  0
VERTEX
  8
0
  6
CONTINUOUS
 10
2.581920
 20
3.044360
  0
VERTEX
  8
0
  6
CONTINUOUS
 10
3.226080
 20
3.394160
  0
VERTEX
  8
0
  6
CONTINUOUS
 10
4.831200
 20
3.857040
  0
VERTEX
  8
0
  6
CONTINUOUS
 10
4.187040
 20
3.507680
  0
VERTEX
  8
0
  6
CONTINUOUS
 10
2.581920
 20
3.044360
  0
SEQEND
  8
0
  0
SOLID
  8
0
 62
    15
 10
5.846720
 20
2.449920
 11
6.490880
 21
2.799280
 12
5.815040
 22
2.383480
 13
6.459200
 23
2.732840
  0
POLYLINE
  8
0
  6
CONTINUOUS
 66
     1
 40
0.000000
 41
0.000000
  0
VERTEX
  8
0
  6
CONTINUOUS
 10
5.846720
 20
2.449920
  0
VERTEX
  8
0
  6
CONTINUOUS
 10
6.490880
 20
2.799280
  0
VERTEX
  8
0
  6
CONTINUOUS
 10
6.459200
 20
2.732840
  0
VERTEX
  8
0
  6
CONTINUOUS
 10
5.815040
 20
2.383480
  0
VERTEX
  8
0
  6
CONTINUOUS
 10
5.846720
 20
2.449920
  0
SEQEND
  8
0
  0
SOLID
  8
0
 62
    15
 10
6.172320
 20
3.044360
 11
6.816480
 21
3.393720
 12
6.172320
 22
2.607440
 13
6.816480
 23
2.957240
  0
POLYLINE
  8
0
  6
CONTINUOUS
 66
     1
 40
0.000000
 41
0.000000
  0
VERTEX
  8
0
  6
CONTINUOUS
 10
6.172320
 20
3.044360
  0
VERTEX
  8
0
  6
CONTINUOUS
 10
6.816480
 20
3.393720
  0
VERTEX
  8
0
  6
CONTINUOUS
 10
6.816480
 20
2.957240
  0
VERTEX
  8
0
  6
CONTINUOUS
 10
6.172320
 20
2.607440
  0
VERTEX
  8
0
  6
CONTINUOUS
 10
6.172320
 20
3.044360
  0
SEQEND
  8
0
  0
SOLID
  8
0
 62
    15
 10
5.815040
 20
2.383480
 11
6.459200
 21
2.732840
 12
5.795680
 22
2.298120
 13
6.439840
 23
2.647920
  0
POLYLINE
  8
0
  6
CONTINUOUS
 66
     1
 40
0.000000
 41
0.000000
  0
VERTEX
  8
0
  6
CONTINUOUS
 10
5.815040
 20
2.383480
  0
VERTEX
  8
0
  6
CONTINUOUS
 10
6.459200
 20
2.732840
  0
VERTEX
  8
0
  6
CONTINUOUS
 10
6.439840
 20
2.647920
  0
VERTEX
  8
0
  6
CONTINUOUS
 10
5.795680
 20
2.298120
  0
VERTEX
  8
0
  6
CONTINUOUS
 10
5.815040
 20
2.383480
  0
SEQEND
  8
0
  0
SOLID
  8
0
 62
    15
 10
5.795680
 20
2.298120
 11
6.439840
 21
2.647920
 12
5.789080
 22
2.190760
 13
6.433240
 23
2.540560
  0
POLYLINE
  8
0
  6
CONTINUOUS
 66
     1
 40
0.000000
 41
0.000000
  0
VERTEX
  8
0
  6
CONTINUOUS
 10
5.795680
 20
2.298120
  0
VERTEX
  8
0
  6
CONTINUOUS
 10
6.439840
 20
2.647920
  0
VERTEX
  8
0
  6
CONTINUOUS
 10
6.433240
 20
2.540560
  0
VERTEX
  8
0
  6
CONTINUOUS
 10
5.789080
 20
2.190760
  0
VERTEX
  8
0
  6
CONTINUOUS
 10
5.795680
 20
2.298120
  0
SEQEND
  8
0
  0
SOLID
  8
0
 62
    15
 10
5.679080
 20
1.474000
 11
6.323240
 21
1.823800
 12
5.679080
 22
1.428240
 13
6.323240
 23
1.778040
  0
POLYLINE
  8
0
  6
CONTINUOUS
 66
     1
 40
0.000000
 41
0.000000
  0
VERTEX
  8
0
  6
CONTINUOUS
 10
5.679080
 20
1.474000
  0
VERTEX
  8
0
  6
CONTINUOUS
 10
6.323240
 20
1.823800
  0
VERTEX
  8
0
  6
CONTINUOUS
 10
6.323240
 20
1.778040
  0
VERTEX
  8
0
  6
CONTINUOUS
 10
5.679080
 20
1.428240
  0
VERTEX
  8
0
  6
CONTINUOUS
 10
5.679080
 20
1.474000
  0
SEQEND
  8
0
  0
SOLID
  8
0
 62
    15
 10
5.679080
 20
1.428240
 11
6.323240
 21
1.778040
 12
5.726160
 22
1.399640
 13
6.370320
 23
1.749440
  0
POLYLINE
  8
0
  6
CONTINUOUS
 66
     1
 40
0.000000
 41
0.000000
  0
VERTEX
  8
0
  6
CONTINUOUS
 10
5.679080
 20
1.428240
  0
VERTEX
  8
0
  6
CONTINUOUS
 10
6.323240
 20
1.778040
  0
VERTEX
  8
0
  6
CONTINUOUS
 10
6.370320
 20
1.749440
  0
VERTEX
  8
0
  6
CONTINUOUS
 10
5.726160
 20
1.399640
  0
VERTEX
  8
0
  6
CONTINUOUS
 10
5.679080
 20
1.428240
  0
SEQEND
  8
0
  0
SOLID
  8
0
 62
    15
 10
5.789080
 20
2.190760
 11
6.433240
 21
2.540560
 12
5.789520
 22
1.474000
 13
6.433240
 23
1.823800
  0
POLYLINE
  8
0
  6
CONTINUOUS
 66
     1
 40
0.000000
 41
0.000000
  0
VERTEX
  8
0
  6
CONTINUOUS
 10
5.789080
 20
2.190760
  0
VERTEX
  8
0
  6
CONTINUOUS
 10
6.433240
 20
2.540560
  0
VERTEX
  8
0
  6
CONTINUOUS
 10
6.433240
 20
1.823800
  0
VERTEX
  8
0
  6
CONTINUOUS
 10
5.789520
 20
1.474000
  0
VERTEX
  8
0
  6
CONTINUOUS
 10
5.789080
 20
2.190760
  0
SEQEND
  8
0
  0
SOLID
  8
0
 62
    15
 10
5.726160
 20
1.399640
 11
6.370320
 21
1.749440
 12
5.756960
 22
1.358280
 13
6.401120
 23
1.707640
  0
POLYLINE
  8
0
  6
CONTINUOUS
 66
     1
 40
0.000000
 41
0.000000
  0
VERTEX
  8
0
  6
CONTINUOUS
 10
5.726160
 20
1.399640
  0
VERTEX
  8
0
  6
CONTINUOUS
 10
6.370320
 20
1.749440
  0
VERTEX
  8
0
  6
CONTINUOUS
 10
6.401120
 20
1.707640
  0
VERTEX
  8
0
  6
CONTINUOUS
 10
5.756960
 20
1.358280
  0
VERTEX
  8
0
  6
CONTINUOUS
 10
5.726160
 20
1.399640
  0
SEQEND
  8
0
  0
SOLID
  8
0
 62
    15
 10
5.756960
 20
1.358280
 11
6.401120
 21
1.707640
 12
5.768840
 22
1.308560
 13
6.413000
 23
1.657920
  0
POLYLINE
  8
0
  6
CONTINUOUS
 66
     1
 40
0.000000
 41
0.000000
  0
VERTEX
  8
0
  6
CONTINUOUS
 10
5.756960
 20
1.358280
  0
VERTEX
  8
0
  6
CONTINUOUS
 10
6.401120
 20
1.707640
  0
VERTEX
  8
0
  6
CONTINUOUS
 10
6.413000
 20
1.657920
  0
VERTEX
  8
0
  6
CONTINUOUS
 10
5.768840
 20
1.308560
  0
VERTEX
  8
0
  6
CONTINUOUS
 10
5.756960
 20
1.358280
  0
SEQEND
  8
0
  0
SOLID
  8
0
 62
    15
 10
5.469200
 20
1.124640
 11
6.113360
 21
1.474000
 12
5.469200
 22
1.030920
 13
6.113360
 23
1.380720
  0
POLYLINE
  8
0
  6
CONTINUOUS
 66
     1
 40
0.000000
 41
0.000000
  0
VERTEX
  8
0
  6
CONTINUOUS
 10
5.469200
 20
1.124640
  0
VERTEX
  8
0
  6
CONTINUOUS
 10
6.113360
 20
1.474000
  0
VERTEX
  8
0
  6
CONTINUOUS
 10
6.113360
 20
1.380720
  0
VERTEX
  8
0
  6
CONTINUOUS
 10
5.469200
 20
1.030920
  0
VERTEX
  8
0
  6
CONTINUOUS
 10
5.469200
 20
1.124640
  0
SEQEND
  8
0
  0
SOLID
  8
0
 62
    15
 10
5.727480
 20
1.206480
 11
6.371640
 21
1.556280
 12
5.669840
 22
1.164680
 13
6.314000
 23
1.514040
  0
POLYLINE
  8
0
  6
CONTINUOUS
 66
     1
 40
0.000000
 41
0.000000
  0
VERTEX
  8
0
  6
CONTINUOUS
 10
5.727480
 20
1.206480
  0
VERTEX
  8
0
  6
CONTINUOUS
 10
6.371640
 20
1.556280
  0
VERTEX
  8
0
  6
CONTINUOUS
 10
6.314000
 20
1.514040
  0
VERTEX
  8
0
  6
CONTINUOUS
 10
5.669840
 20
1.164680
  0
VERTEX
  8
0
  6
CONTINUOUS
 10
5.727480
 20
1.206480
  0
SEQEND
  8
0
  0
SOLID
  8
0
 62
    15
 10
5.760040
 20
1.256200
 11
6.403760
 21
1.605560
 12
5.727480
 22
1.206480
 13
6.371640
 23
1.556280
  0
POLYLINE
  8
0
  6
CONTINUOUS
 66
     1
 40
0.000000
 41
0.000000
  0
VERTEX
  8
0
  6
CONTINUOUS
 10
5.760040
 20
1.256200
  0
VERTEX
  8
0
  6
CONTINUOUS
 10
6.403760
 20
1.605560
  0
VERTEX
  8
0
  6
CONTINUOUS
 10
6.371640
 20
1.556280
  0
VERTEX
  8
0
  6
CONTINUOUS
 10
5.727480
 20
1.206480
  0
VERTEX
  8
0
  6
CONTINUOUS
 10
5.760040
 20
1.256200
  0
SEQEND
  8
0
  0
SOLID
  8
0
 62
    15
 10
5.768840
 20
1.308560
 11
6.413000
 21
1.657920
 12
5.760040
 22
1.256200
 13
6.403760
 23
1.605560
  0
POLYLINE
  8
0
  6
CONTINUOUS
 66
     1
 40
0.000000
 41
0.000000
  0
VERTEX
  8
0
  6
CONTINUOUS
 10
5.768840
 20
1.308560
  0
VERTEX
  8
0
  6
CONTINUOUS
 10
6.413000
 20
1.657920
  0
VERTEX
  8
0
  6
CONTINUOUS
 10
6.403760
 20
1.605560
  0
VERTEX
  8
0
  6
CONTINUOUS
 10
5.760040
 20
1.256200
  0
VERTEX
  8
0
  6
CONTINUOUS
 10
5.768840
 20
1.308560
  0
SEQEND
  8
0
  0
POLYLINE
  8
0
  6
CONTINUOUS
 66
     1
 40
0.000000
 41
0.000000
  0
VERTEX
  8
0
  6
CONTINUOUS
 10
5.464360
 20
1.031360
  0
VERTEX
  8
0
  6
CONTINUOUS
 10
3.285040
 20
1.031360
  0
VERTEX
  8
0
  6
CONTINUOUS
 10
3.285040
 20
1.124640
  0
VERTEX
  8
0
  6
CONTINUOUS
 10
3.169760
 20
1.135640
  0
VERTEX
  8
0
  6
CONTINUOUS
 10
3.084400
 20
1.164680
  0
VERTEX
  8
0
  6
CONTINUOUS
 10
3.026320
 20
1.206480
  0
VERTEX
  8
0
  6
CONTINUOUS
 10
2.994200
 20
1.256200
  0
VERTEX
  8
0
  6
CONTINUOUS
 10
2.985400
 20
1.308560
  0
VERTEX
  8
0
  6
CONTINUOUS
 10
2.997280
 20
1.358280
  0
VERTEX
  8
0
  6
CONTINUOUS
 10
3.027640
 20
1.400080
  0
VERTEX
  8
0
  6
CONTINUOUS
 10
3.075160
 20
1.428680
  0
VERTEX
  8
0
  6
CONTINUOUS
 10
3.075160
 20
1.474440
  0
VERTEX
  8
0
  6
CONTINUOUS
 10
2.964720
 20
1.474440
  0
VERTEX
  8
0
  6
CONTINUOUS
 10
2.965160
 20
2.191200
  0
VERTEX
  8
0
  6
CONTINUOUS
 10
2.958560
 20
2.298560
  0
VERTEX
  8
0
  6
CONTINUOUS
 10
2.939200
 20
2.383480
  0
VERTEX
  8
0
  6
CONTINUOUS
 10
2.907520
 20
2.449920
  0
VERTEX
  8
0
  6
CONTINUOUS
 10
2.863960
 20
2.500520
  0
VERTEX
  8
0
  6
CONTINUOUS
 10
2.808960
 20
2.538360
  0
VERTEX
  8
0
  6
CONTINUOUS
 10
2.743400
 20
2.566520
  0
VERTEX
  8
0
  6
CONTINUOUS
 10
2.581920
 20
2.607880
  0
VERTEX
  8
0
  6
CONTINUOUS
 10
2.581920
 20
3.044360
  0
VERTEX
  8
0
  6
CONTINUOUS
 10
4.187040
 20
3.507680
  0
VERTEX
  8
0
  6
CONTINUOUS
 10
4.279440
 20
3.531000
  0
VERTEX
  8
0
  6
CONTINUOUS
 10
4.321680
 20
3.535840
  0
VERTEX
  8
0
  6
CONTINUOUS
 10
4.378880
 20
3.535400
  0
VERTEX
  8
0
  6
CONTINUOUS
 10
4.375360
 20
3.534960
  0
VERTEX
  8
0
  6
CONTINUOUS
 10
4.432560
 20
3.535400
  0
VERTEX
  8
0
  6
CONTINUOUS
 10
4.474800
 20
3.530560
  0
VERTEX
  8
0
  6
CONTINUOUS
 10
4.567200
 20
3.507240
  0
VERTEX
  8
0
  6
CONTINUOUS
 10
6.172320
 20
3.044360
  0
VERTEX
  8
0
  6
CONTINUOUS
 10
6.172320
 20
2.607440
  0
VERTEX
  8
0
  6
CONTINUOUS
 10
6.010840
 20
2.566520
  0
VERTEX
  8
0
  6
CONTINUOUS
 10
5.945280
 20
2.537920
  0
VERTEX
  8
0
  6
CONTINUOUS
 10
5.890280
 20
2.500080
  0
VERTEX
  8
0
  6
CONTINUOUS
 10
5.846720
 20
2.449920
  0
VERTEX
  8
0
  6
CONTINUOUS
 10
5.815040
 20
2.383480
  0
VERTEX
  8
0
  6
CONTINUOUS
 10
5.795680
 20
2.298120
  0
VERTEX
  8
0
  6
CONTINUOUS
 10
5.789080
 20
2.190760
  0
VERTEX
  8
0
  6
CONTINUOUS
 10
5.789520
 20
1.474000
  0
VERTEX
  8
0
  6
CONTINUOUS
 10
5.679080
 20
1.474000
  0
VERTEX
  8
0
  6
CONTINUOUS
 10
5.679080
 20
1.428240
  0
VERTEX
  8
0
  6
CONTINUOUS
 10
5.726160
 20
1.399640
  0
VERTEX
  8
0
  6
CONTINUOUS
 10
5.756960
 20
1.358280
  0
VERTEX
  8
0
  6
CONTINUOUS
 10
5.768840
 20
1.308560
  0
VERTEX
  8
0
  6
CONTINUOUS
 10
5.760040
 20
1.256200
  0
VERTEX
  8
0
  6
CONTINUOUS
 10
5.727480
 20
1.206480
  0
VERTEX
  8
0
  6
CONTINUOUS
 10
5.669840
 20
1.164680
  0
VERTEX
  8
0
  6
CONTINUOUS
 10
5.584480
 20
1.135640
  0
VERTEX
  8
0
  6
CONTINUOUS
 10
5.469200
 20
1.124640
  0
VERTEX
  8
0
  6
CONTINUOUS
 10
5.469200
 20
1.030920
  0
VERTEX
  8
0
  6
CONTINUOUS
 10
5.464360
 20
1.031360
  0
SEQEND
  8
0
  0
TEXT
  8
0
 10
4.403960
 20
0.803440
 40
0.138042
  1
BA  589
 41
1.000000
  7
SN0
 71
     0
 72
     5
 11
4.994504
 21
0.803440
  0
TEXT
  8
0
 10
4.128080
 20
0.611600
 40
0.138042
  1
2-1/2" x 3-9/16"
 41
1.000000
  7
SN0
 71
     0
 72
     5
 11
5.267874
 21
0.611600
  0
ENDSEC
  0
EOF
