  0
SECTION
  2
HEADER
  9
$ACADVER
  1
AC1006
  9
$EXTMIN
 10
4.511320
 20
0.351120
  9
$EXTMAX
 10
7.168480
 20
2.900480
  9
$LTSCALE
 40
0.044000
  9
$PDMODE
 70
    35
  9
$PDSIZE
 40
0.035200
  0
ENDSEC
  0
SECTION
  2
TABLES
  0
TABLE
  2
LTYPE
 70
     9
  0
LTYPE
  2
CONTINUOUS
 70
    64
  3
Solid line
 72
    65
 73
     0
 40
0.000000
  0
LTYPE
  2
DASHED
 70
    64
  3
__ __ __ __ __ __ __ __ __ __ __ __ __ __ __
 72
    65
 73
     2
 40
0.000330
 49
0.000220
 49
-0.000110
  0
LTYPE
  2
HIDDEN
 70
    64
  3
 _ _ _ _ _ _ _ _ _ _ _ _ _ _ _ _ _ _ _ _ _ _
 72
    65
 73
     2
 40
0.000165
 49
0.000110
 49
-0.000055
  0
LTYPE
  2
CENTER
 70
    64
  3
____ _ ____ _ ____ _ ____ _ ____ _ ____ _ ____
 72
    65
 73
     4
 40
0.000880
 49
0.000550
 49
-0.000110
 49
0.000110
 49
-0.000110
  0
LTYPE
  2
PHANTOM
 70
    64
  3
_____ _ _ _____ _ _ _____ _ _ _____ _ _ ____
 72
    65
 73
     6
 40
0.001100
 49
0.000550
 49
-0.000110
 49
0.000110
 49
-0.000110
 49
0.000110
 49
-0.000110
  0
LTYPE
  2
DOT
 70
    64
  3
...............................................
 72
    65
 73
     2
 40
0.000110
 49
0.000000
 49
-0.000110
  0
LTYPE
  2
DASHDOT
 70
    64
  3
__ . __ . __ . __ . __ . __ . __ . __ . __ . __
 72
    65
 73
     4
 40
0.000440
 49
0.000220
 49
-0.000110
 49
0.000000
 49
-0.000110
  0
LTYPE
  2
BORDER
 70
    64
  3
__ __ . __ __ . __ __ . __ __ . __ __ . __ __
 72
    65
 73
     6
 40
0.000770
 49
0.000220
 49
-0.000110
 49
0.000220
 49
-0.000110
 49
0.000000
 49
-0.000110
  0
LTYPE
  2
DIVIDE
 70
    64
  3
__ . . __ . . __ . . __ . . __ . . __ . . __
 72
    65
 73
     6
 40
0.000550
 49
0.000220
 49
-0.000110
 49
0.000000
 49
-0.000110
 49
0.000000
 49
-0.000110
  0
LTYPE
  2
DOTDOT
 70
    64
  3
 . .  . .  . .  . .  . .  . . 
 72
    65
 73
     5
 40
0.000242
 49
-0.000110
 49
0.000000
 49
-0.000110
 49
0.000000
 49
-0.000110
  0
ENDTAB
  0
TABLE
  2
STYLE
 70
     2
  0
STYLE
 70
     0
  2
SN0
 40
0.000000
 41
0.000440
 50
0.000000
 71
     0
 42
0.000000
  3
ROMAND
  0
STYLE
 70
    68
  2
SV0
 40
0.000000
 41
0.000440
 50
0.000000
 71
     0
 42
0.000000
  3
ROMAND
  0
ENDTAB
  0
TABLE
  2
LAYER
 70
     3
  0
LAYER
  2
FOREGROUND
 70
    64
 62
     7
  6
CONTINUOUS
  0
LAYER
  2
BACKGROUND
 70
    65
 62
    -7
  6
CONTINUOUS
  0
LAYER
  2
0
 70
    64
 62
     7
  6
CONTINUOUS
  0
ENDTAB
  0
ENDSEC
  0
SECTION
  2
ENTITIES
  0
POLYLINE
  8
FOREGROUND
  6
CONTINUOUS
 66
     1
 40
0.000000
 41
0.000000
  0
VERTEX
  8
FOREGROUND
  6
CONTINUOUS
 10
0.000000
 20
3.251600
  0
VERTEX
  8
FOREGROUND
  6
CONTINUOUS
 10
8.499920
 20
3.251600
  0
VERTEX
  8
FOREGROUND
  6
CONTINUOUS
 10
8.499920
 20
-7.748400
  0
VERTEX
  8
FOREGROUND
  6
CONTINUOUS
 10
0.000000
 20
-7.748400
  0
VERTEX
  8
FOREGROUND
  6
CONTINUOUS
 10
0.000000
 20
3.251600
  0
SEQEND
  8
0
  0
POLYLINE
  8
FOREGROUND
  6
CONTINUOUS
 66
     1
 40
0.000000
 41
0.000000
  0
VERTEX
  8
FOREGROUND
  6
CONTINUOUS
 10
0.000000
 20
3.251600
  0
VERTEX
  8
FOREGROUND
  6
CONTINUOUS
 10
8.499920
 20
3.251600
  0
VERTEX
  8
FOREGROUND
  6
CONTINUOUS
 10
8.499920
 20
-7.748400
  0
VERTEX
  8
FOREGROUND
  6
CONTINUOUS
 10
0.000000
 20
-7.748400
  0
VERTEX
  8
FOREGROUND
  6
CONTINUOUS
 10
0.000000
 20
3.251600
  0
SEQEND
  8
0
  0
POLYLINE
  8
0
  6
CONTINUOUS
 66
     1
 40
0.014080
 41
0.014080
  0
VERTEX
  8
0
  6
CONTINUOUS
 10
6.991160
 20
2.055240
  0
VERTEX
  8
0
  6
CONTINUOUS
 10
6.991160
 20
1.917520
  0
VERTEX
  8
0
  6
CONTINUOUS
 10
7.010960
 20
1.907400
  0
VERTEX
  8
0
  6
CONTINUOUS
 10
7.047040
 20
1.883200
  0
VERTEX
  8
0
  6
CONTINUOUS
 10
7.077400
 20
1.855040
  0
VERTEX
  8
0
  6
CONTINUOUS
 10
7.102920
 20
1.823360
  0
VERTEX
  8
0
  6
CONTINUOUS
 10
7.123600
 20
1.788600
  0
VERTEX
  8
0
  6
CONTINUOUS
 10
7.132400
 20
1.770560
  0
VERTEX
  8
0
  6
CONTINUOUS
 10
7.146040
 20
1.733160
  0
VERTEX
  8
0
  6
CONTINUOUS
 10
7.155280
 20
1.694440
  0
VERTEX
  8
0
  6
CONTINUOUS
 10
7.160560
 20
1.655280
  0
VERTEX
  8
0
  6
CONTINUOUS
 10
7.161440
 20
1.616120
  0
VERTEX
  8
0
  6
CONTINUOUS
 10
7.158360
 20
1.578280
  0
VERTEX
  8
0
  6
CONTINUOUS
 10
7.151760
 20
1.541760
  0
VERTEX
  8
0
  6
CONTINUOUS
 10
7.141640
 20
1.507440
  0
VERTEX
  8
0
  6
CONTINUOUS
 10
7.128440
 20
1.476200
  0
VERTEX
  8
0
  6
CONTINUOUS
 10
7.111720
 20
1.448920
  0
VERTEX
  8
0
  6
CONTINUOUS
 10
7.091920
 20
1.425600
  0
VERTEX
  8
0
  6
CONTINUOUS
 10
7.069480
 20
1.407120
  0
VERTEX
  8
0
  6
CONTINUOUS
 10
7.044840
 20
1.388200
  0
VERTEX
  8
0
  6
CONTINUOUS
 10
7.036480
 20
1.377640
  0
VERTEX
  8
0
  6
CONTINUOUS
 10
7.030320
 20
1.364880
  0
VERTEX
  8
0
  6
CONTINUOUS
 10
7.025040
 20
1.337600
  0
VERTEX
  8
0
  6
CONTINUOUS
 10
7.023280
 20
1.297560
  0
VERTEX
  8
0
  6
CONTINUOUS
 10
7.024160
 20
1.257080
  0
VERTEX
  8
0
  6
CONTINUOUS
 10
6.407720
 20
1.257080
  0
VERTEX
  8
0
  6
CONTINUOUS
 10
6.407720
 20
2.892560
  0
VERTEX
  8
0
  6
CONTINUOUS
 10
6.567880
 20
2.892560
  0
VERTEX
  8
0
  6
CONTINUOUS
 10
6.568320
 20
2.862640
  0
VERTEX
  8
0
  6
CONTINUOUS
 10
6.572280
 20
2.823920
  0
VERTEX
  8
0
  6
CONTINUOUS
 10
6.579760
 20
2.790480
  0
VERTEX
  8
0
  6
CONTINUOUS
 10
6.589880
 20
2.761440
  0
VERTEX
  8
0
  6
CONTINUOUS
 10
6.609680
 20
2.723600
  0
VERTEX
  8
0
  6
CONTINUOUS
 10
6.641360
 20
2.681360
  0
VERTEX
  8
0
  6
CONTINUOUS
 10
6.691520
 20
2.621960
  0
VERTEX
  8
0
  6
CONTINUOUS
 10
6.713960
 20
2.588080
  0
VERTEX
  8
0
  6
CONTINUOUS
 10
6.727160
 20
2.562560
  0
VERTEX
  8
0
  6
CONTINUOUS
 10
6.737720
 20
2.533080
  0
VERTEX
  8
0
  6
CONTINUOUS
 10
6.745640
 20
2.499200
  0
VERTEX
  8
0
  6
CONTINUOUS
 10
6.750040
 20
2.460040
  0
VERTEX
  8
0
  6
CONTINUOUS
 10
6.750920
 20
2.430120
  0
VERTEX
  8
0
  6
CONTINUOUS
 10
6.851240
 20
2.430560
  0
VERTEX
  8
0
  6
CONTINUOUS
 10
6.851240
 20
2.233880
  0
VERTEX
  8
0
  6
CONTINUOUS
 10
6.852120
 20
2.213200
  0
VERTEX
  8
0
  6
CONTINUOUS
 10
6.854320
 20
2.194280
  0
VERTEX
  8
0
  6
CONTINUOUS
 10
6.863120
 20
2.159520
  0
VERTEX
  8
0
  6
CONTINUOUS
 10
6.876760
 20
2.130040
  0
VERTEX
  8
0
  6
CONTINUOUS
 10
6.894800
 20
2.105840
  0
VERTEX
  8
0
  6
CONTINUOUS
 10
6.915920
 20
2.086480
  0
VERTEX
  8
0
  6
CONTINUOUS
 10
6.939680
 20
2.072840
  0
VERTEX
  8
0
  6
CONTINUOUS
 10
6.964760
 20
2.063600
  0
VERTEX
  8
0
  6
CONTINUOUS
 10
6.991160
 20
2.059640
  0
VERTEX
  8
0
  6
CONTINUOUS
 10
6.991160
 20
2.048640
  0
VERTEX
  8
0
  6
CONTINUOUS
 10
6.991160
 20
2.055240
  0
SEQEND
  8
0
  0
SOLID
  8
0
 62
    15
 10
4.671920
 20
2.437160
 11
5.309040
 21
2.806760
 12
4.671920
 22
2.428800
 13
5.309040
 23
2.797960
  0
POLYLINE
  8
0
  6
CONTINUOUS
 66
     1
 40
0.000000
 41
0.000000
  0
VERTEX
  8
0
  6
CONTINUOUS
 10
4.671920
 20
2.437160
  0
VERTEX
  8
0
  6
CONTINUOUS
 10
5.309040
 20
2.806760
  0
VERTEX
  8
0
  6
CONTINUOUS
 10
5.309040
 20
2.797960
  0
VERTEX
  8
0
  6
CONTINUOUS
 10
4.671920
 20
2.428800
  0
VERTEX
  8
0
  6
CONTINUOUS
 10
4.671920
 20
2.437160
  0
SEQEND
  8
0
  0
SOLID
  8
0
 62
    15
 10
5.095200
 20
1.462120
 11
5.732320
 21
1.831720
 12
5.133920
 22
1.440560
 13
5.770600
 23
1.809720
  0
POLYLINE
  8
0
  6
CONTINUOUS
 66
     1
 40
0.000000
 41
0.000000
  0
VERTEX
  8
0
  6
CONTINUOUS
 10
5.095200
 20
1.462120
  0
VERTEX
  8
0
  6
CONTINUOUS
 10
5.732320
 20
1.831720
  0
VERTEX
  8
0
  6
CONTINUOUS
 10
5.770600
 20
1.809720
  0
VERTEX
  8
0
  6
CONTINUOUS
 10
5.133920
 20
1.440560
  0
VERTEX
  8
0
  6
CONTINUOUS
 10
5.095200
 20
1.462120
  0
SEQEND
  8
0
  0
SOLID
  8
0
 62
     7
 10
5.133920
 20
1.440560
 11
5.770600
 21
1.809720
 12
5.166920
 22
1.414160
 13
5.803600
 23
1.783760
  0
POLYLINE
  8
0
  6
CONTINUOUS
 66
     1
 40
0.000000
 41
0.000000
  0
VERTEX
  8
0
  6
CONTINUOUS
 10
5.133920
 20
1.440560
  0
VERTEX
  8
0
  6
CONTINUOUS
 10
5.770600
 20
1.809720
  0
VERTEX
  8
0
  6
CONTINUOUS
 10
5.803600
 20
1.783760
  0
VERTEX
  8
0
  6
CONTINUOUS
 10
5.166920
 20
1.414160
  0
VERTEX
  8
0
  6
CONTINUOUS
 10
5.133920
 20
1.440560
  0
SEQEND
  8
0
  0
SOLID
  8
0
 62
     7
 10
5.166920
 20
1.414160
 11
5.803600
 21
1.783760
 12
5.195080
 22
1.384240
 13
5.831760
 23
1.753840
  0
POLYLINE
  8
0
  6
CONTINUOUS
 66
     1
 40
0.000000
 41
0.000000
  0
VERTEX
  8
0
  6
CONTINUOUS
 10
5.166920
 20
1.414160
  0
VERTEX
  8
0
  6
CONTINUOUS
 10
5.803600
 20
1.783760
  0
VERTEX
  8
0
  6
CONTINUOUS
 10
5.831760
 20
1.753840
  0
VERTEX
  8
0
  6
CONTINUOUS
 10
5.195080
 20
1.384240
  0
VERTEX
  8
0
  6
CONTINUOUS
 10
5.166920
 20
1.414160
  0
SEQEND
  8
0
  0
SOLID
  8
0
 62
     7
 10
5.195080
 20
1.384240
 11
5.831760
 21
1.753840
 12
5.217960
 22
1.350800
 13
5.855080
 23
1.720400
  0
POLYLINE
  8
0
  6
CONTINUOUS
 66
     1
 40
0.000000
 41
0.000000
  0
VERTEX
  8
0
  6
CONTINUOUS
 10
5.195080
 20
1.384240
  0
VERTEX
  8
0
  6
CONTINUOUS
 10
5.831760
 20
1.753840
  0
VERTEX
  8
0
  6
CONTINUOUS
 10
5.855080
 20
1.720400
  0
VERTEX
  8
0
  6
CONTINUOUS
 10
5.217960
 20
1.350800
  0
VERTEX
  8
0
  6
CONTINUOUS
 10
5.195080
 20
1.384240
  0
SEQEND
  8
0
  0
SOLID
  8
0
 62
    15
 10
5.217960
 20
1.350800
 11
5.855080
 21
1.720400
 12
5.236440
 22
1.315160
 13
5.873120
 23
1.684760
  0
POLYLINE
  8
0
  6
CONTINUOUS
 66
     1
 40
0.000000
 41
0.000000
  0
VERTEX
  8
0
  6
CONTINUOUS
 10
5.217960
 20
1.350800
  0
VERTEX
  8
0
  6
CONTINUOUS
 10
5.855080
 20
1.720400
  0
VERTEX
  8
0
  6
CONTINUOUS
 10
5.873120
 20
1.684760
  0
VERTEX
  8
0
  6
CONTINUOUS
 10
5.236440
 20
1.315160
  0
VERTEX
  8
0
  6
CONTINUOUS
 10
5.217960
 20
1.350800
  0
SEQEND
  8
0
  0
SOLID
  8
0
 62
    15
 10
5.236440
 20
1.315160
 11
5.873120
 21
1.684760
 12
5.250080
 22
1.277760
 13
5.886760
 23
1.647360
  0
POLYLINE
  8
0
  6
CONTINUOUS
 66
     1
 40
0.000000
 41
0.000000
  0
VERTEX
  8
0
  6
CONTINUOUS
 10
5.236440
 20
1.315160
  0
VERTEX
  8
0
  6
CONTINUOUS
 10
5.873120
 20
1.684760
  0
VERTEX
  8
0
  6
CONTINUOUS
 10
5.886760
 20
1.647360
  0
VERTEX
  8
0
  6
CONTINUOUS
 10
5.250080
 20
1.277760
  0
VERTEX
  8
0
  6
CONTINUOUS
 10
5.236440
 20
1.315160
  0
SEQEND
  8
0
  0
SOLID
  8
0
 62
    15
 10
5.250080
 20
1.277760
 11
5.886760
 21
1.647360
 12
5.259320
 22
1.239040
 13
5.896440
 23
1.608640
  0
POLYLINE
  8
0
  6
CONTINUOUS
 66
     1
 40
0.000000
 41
0.000000
  0
VERTEX
  8
0
  6
CONTINUOUS
 10
5.250080
 20
1.277760
  0
VERTEX
  8
0
  6
CONTINUOUS
 10
5.886760
 20
1.647360
  0
VERTEX
  8
0
  6
CONTINUOUS
 10
5.896440
 20
1.608640
  0
VERTEX
  8
0
  6
CONTINUOUS
 10
5.259320
 20
1.239040
  0
VERTEX
  8
0
  6
CONTINUOUS
 10
5.250080
 20
1.277760
  0
SEQEND
  8
0
  0
SOLID
  8
0
 62
    15
 10
5.259320
 20
1.239040
 11
5.896440
 21
1.608640
 12
5.264600
 22
1.199880
 13
5.901280
 23
1.569480
  0
POLYLINE
  8
0
  6
CONTINUOUS
 66
     1
 40
0.000000
 41
0.000000
  0
VERTEX
  8
0
  6
CONTINUOUS
 10
5.259320
 20
1.239040
  0
VERTEX
  8
0
  6
CONTINUOUS
 10
5.896440
 20
1.608640
  0
VERTEX
  8
0
  6
CONTINUOUS
 10
5.901280
 20
1.569480
  0
VERTEX
  8
0
  6
CONTINUOUS
 10
5.264600
 20
1.199880
  0
VERTEX
  8
0
  6
CONTINUOUS
 10
5.259320
 20
1.239040
  0
SEQEND
  8
0
  0
SOLID
  8
0
 62
    15
 10
5.264600
 20
1.199880
 11
5.901280
 21
1.569480
 12
5.265480
 22
1.160720
 13
5.902160
 23
1.530320
  0
POLYLINE
  8
0
  6
CONTINUOUS
 66
     1
 40
0.000000
 41
0.000000
  0
VERTEX
  8
0
  6
CONTINUOUS
 10
5.264600
 20
1.199880
  0
VERTEX
  8
0
  6
CONTINUOUS
 10
5.901280
 20
1.569480
  0
VERTEX
  8
0
  6
CONTINUOUS
 10
5.902160
 20
1.530320
  0
VERTEX
  8
0
  6
CONTINUOUS
 10
5.265480
 20
1.160720
  0
VERTEX
  8
0
  6
CONTINUOUS
 10
5.264600
 20
1.199880
  0
SEQEND
  8
0
  0
SOLID
  8
0
 62
    15
 10
5.265480
 20
1.160720
 11
5.902160
 21
1.530320
 12
5.262400
 22
1.122880
 13
5.899520
 23
1.492480
  0
POLYLINE
  8
0
  6
CONTINUOUS
 66
     1
 40
0.000000
 41
0.000000
  0
VERTEX
  8
0
  6
CONTINUOUS
 10
5.265480
 20
1.160720
  0
VERTEX
  8
0
  6
CONTINUOUS
 10
5.902160
 20
1.530320
  0
VERTEX
  8
0
  6
CONTINUOUS
 10
5.899520
 20
1.492480
  0
VERTEX
  8
0
  6
CONTINUOUS
 10
5.262400
 20
1.122880
  0
VERTEX
  8
0
  6
CONTINUOUS
 10
5.265480
 20
1.160720
  0
SEQEND
  8
0
  0
SOLID
  8
0
 62
    15
 10
5.262400
 20
1.122880
 11
5.899520
 21
1.492480
 12
5.256240
 22
1.086360
 13
5.892920
 23
1.455960
  0
POLYLINE
  8
0
  6
CONTINUOUS
 66
     1
 40
0.000000
 41
0.000000
  0
VERTEX
  8
0
  6
CONTINUOUS
 10
5.262400
 20
1.122880
  0
VERTEX
  8
0
  6
CONTINUOUS
 10
5.899520
 20
1.492480
  0
VERTEX
  8
0
  6
CONTINUOUS
 10
5.892920
 20
1.455960
  0
VERTEX
  8
0
  6
CONTINUOUS
 10
5.256240
 20
1.086360
  0
VERTEX
  8
0
  6
CONTINUOUS
 10
5.262400
 20
1.122880
  0
SEQEND
  8
0
  0
SOLID
  8
0
 62
    15
 10
5.256240
 20
1.086360
 11
5.892920
 21
1.455960
 12
5.246120
 22
1.052040
 13
5.882800
 23
1.421640
  0
POLYLINE
  8
0
  6
CONTINUOUS
 66
     1
 40
0.000000
 41
0.000000
  0
VERTEX
  8
0
  6
CONTINUOUS
 10
5.256240
 20
1.086360
  0
VERTEX
  8
0
  6
CONTINUOUS
 10
5.892920
 20
1.455960
  0
VERTEX
  8
0
  6
CONTINUOUS
 10
5.882800
 20
1.421640
  0
VERTEX
  8
0
  6
CONTINUOUS
 10
5.246120
 20
1.052040
  0
VERTEX
  8
0
  6
CONTINUOUS
 10
5.256240
 20
1.086360
  0
SEQEND
  8
0
  0
SOLID
  8
0
 62
    15
 10
5.246120
 20
1.052040
 11
5.882800
 21
1.421640
 12
5.232480
 22
1.020800
 13
5.869160
 23
1.390400
  0
POLYLINE
  8
0
  6
CONTINUOUS
 66
     1
 40
0.000000
 41
0.000000
  0
VERTEX
  8
0
  6
CONTINUOUS
 10
5.246120
 20
1.052040
  0
VERTEX
  8
0
  6
CONTINUOUS
 10
5.882800
 20
1.421640
  0
VERTEX
  8
0
  6
CONTINUOUS
 10
5.869160
 20
1.390400
  0
VERTEX
  8
0
  6
CONTINUOUS
 10
5.232480
 20
1.020800
  0
VERTEX
  8
0
  6
CONTINUOUS
 10
5.246120
 20
1.052040
  0
SEQEND
  8
0
  0
SOLID
  8
0
 62
    15
 10
5.232480
 20
1.020800
 11
5.869160
 21
1.390400
 12
5.215760
 22
0.993520
 13
5.852880
 23
1.362680
  0
POLYLINE
  8
0
  6
CONTINUOUS
 66
     1
 40
0.000000
 41
0.000000
  0
VERTEX
  8
0
  6
CONTINUOUS
 10
5.232480
 20
1.020800
  0
VERTEX
  8
0
  6
CONTINUOUS
 10
5.869160
 20
1.390400
  0
VERTEX
  8
0
  6
CONTINUOUS
 10
5.852880
 20
1.362680
  0
VERTEX
  8
0
  6
CONTINUOUS
 10
5.215760
 20
0.993520
  0
VERTEX
  8
0
  6
CONTINUOUS
 10
5.232480
 20
1.020800
  0
SEQEND
  8
0
  0
SOLID
  8
0
 62
    15
 10
5.215760
 20
0.993520
 11
5.852880
 21
1.362680
 12
5.196400
 22
0.970200
 13
5.833080
 23
1.339360
  0
POLYLINE
  8
0
  6
CONTINUOUS
 66
     1
 40
0.000000
 41
0.000000
  0
VERTEX
  8
0
  6
CONTINUOUS
 10
5.215760
 20
0.993520
  0
VERTEX
  8
0
  6
CONTINUOUS
 10
5.852880
 20
1.362680
  0
VERTEX
  8
0
  6
CONTINUOUS
 10
5.833080
 20
1.339360
  0
VERTEX
  8
0
  6
CONTINUOUS
 10
5.196400
 20
0.970200
  0
VERTEX
  8
0
  6
CONTINUOUS
 10
5.215760
 20
0.993520
  0
SEQEND
  8
0
  0
SOLID
  8
0
 62
    15
 10
5.196400
 20
0.970200
 11
5.833080
 21
1.339360
 12
5.173520
 22
0.951720
 13
5.810640
 23
1.321320
  0
POLYLINE
  8
0
  6
CONTINUOUS
 66
     1
 40
0.000000
 41
0.000000
  0
VERTEX
  8
0
  6
CONTINUOUS
 10
5.196400
 20
0.970200
  0
VERTEX
  8
0
  6
CONTINUOUS
 10
5.833080
 20
1.339360
  0
VERTEX
  8
0
  6
CONTINUOUS
 10
5.810640
 20
1.321320
  0
VERTEX
  8
0
  6
CONTINUOUS
 10
5.173520
 20
0.951720
  0
VERTEX
  8
0
  6
CONTINUOUS
 10
5.196400
 20
0.970200
  0
SEQEND
  8
0
  0
SOLID
  8
0
 62
    15
 10
5.173520
 20
0.951720
 11
5.810640
 21
1.321320
 12
5.149320
 22
0.932800
 13
5.786000
 23
1.301960
  0
POLYLINE
  8
0
  6
CONTINUOUS
 66
     1
 40
0.000000
 41
0.000000
  0
VERTEX
  8
0
  6
CONTINUOUS
 10
5.173520
 20
0.951720
  0
VERTEX
  8
0
  6
CONTINUOUS
 10
5.810640
 20
1.321320
  0
VERTEX
  8
0
  6
CONTINUOUS
 10
5.786000
 20
1.301960
  0
VERTEX
  8
0
  6
CONTINUOUS
 10
5.149320
 20
0.932800
  0
VERTEX
  8
0
  6
CONTINUOUS
 10
5.173520
 20
0.951720
  0
SEQEND
  8
0
  0
SOLID
  8
0
 62
    15
 10
5.149320
 20
0.932800
 11
5.786000
 21
1.301960
 12
5.134800
 22
0.909040
 13
5.771480
 23
1.278640
  0
POLYLINE
  8
0
  6
CONTINUOUS
 66
     1
 40
0.000000
 41
0.000000
  0
VERTEX
  8
0
  6
CONTINUOUS
 10
5.149320
 20
0.932800
  0
VERTEX
  8
0
  6
CONTINUOUS
 10
5.786000
 20
1.301960
  0
VERTEX
  8
0
  6
CONTINUOUS
 10
5.771480
 20
1.278640
  0
VERTEX
  8
0
  6
CONTINUOUS
 10
5.134800
 20
0.909040
  0
VERTEX
  8
0
  6
CONTINUOUS
 10
5.149320
 20
0.932800
  0
SEQEND
  8
0
  0
SOLID
  8
0
 62
    15
 10
5.134800
 20
0.909040
 11
5.771480
 21
1.278640
 12
5.130840
 22
0.892320
 13
5.767520
 23
1.261920
  0
POLYLINE
  8
0
  6
CONTINUOUS
 66
     1
 40
0.000000
 41
0.000000
  0
VERTEX
  8
0
  6
CONTINUOUS
 10
5.134800
 20
0.909040
  0
VERTEX
  8
0
  6
CONTINUOUS
 10
5.771480
 20
1.278640
  0
VERTEX
  8
0
  6
CONTINUOUS
 10
5.767520
 20
1.261920
  0
VERTEX
  8
0
  6
CONTINUOUS
 10
5.130840
 20
0.892320
  0
VERTEX
  8
0
  6
CONTINUOUS
 10
5.134800
 20
0.909040
  0
SEQEND
  8
0
  0
SOLID
  8
0
 62
    15
 10
5.130840
 20
0.892320
 11
5.767520
 21
1.261920
 12
5.128200
 22
0.870320
 13
5.765320
 23
1.239920
  0
POLYLINE
  8
0
  6
CONTINUOUS
 66
     1
 40
0.000000
 41
0.000000
  0
VERTEX
  8
0
  6
CONTINUOUS
 10
5.130840
 20
0.892320
  0
VERTEX
  8
0
  6
CONTINUOUS
 10
5.767520
 20
1.261920
  0
VERTEX
  8
0
  6
CONTINUOUS
 10
5.765320
 20
1.239920
  0
VERTEX
  8
0
  6
CONTINUOUS
 10
5.128200
 20
0.870320
  0
VERTEX
  8
0
  6
CONTINUOUS
 10
5.130840
 20
0.892320
  0
SEQEND
  8
0
  0
SOLID
  8
0
 62
    15
 10
5.128200
 20
0.870320
 11
5.765320
 21
1.239920
 12
5.127760
 22
0.842160
 13
5.764440
 23
1.211760
  0
POLYLINE
  8
0
  6
CONTINUOUS
 66
     1
 40
0.000000
 41
0.000000
  0
VERTEX
  8
0
  6
CONTINUOUS
 10
5.128200
 20
0.870320
  0
VERTEX
  8
0
  6
CONTINUOUS
 10
5.765320
 20
1.239920
  0
VERTEX
  8
0
  6
CONTINUOUS
 10
5.764440
 20
1.211760
  0
VERTEX
  8
0
  6
CONTINUOUS
 10
5.127760
 20
0.842160
  0
VERTEX
  8
0
  6
CONTINUOUS
 10
5.128200
 20
0.870320
  0
SEQEND
  8
0
  0
SOLID
  8
0
 62
    15
 10
5.127760
 20
0.842160
 11
5.764440
 21
1.211760
 12
5.128640
 22
0.805640
 13
5.765320
 23
1.175240
  0
POLYLINE
  8
0
  6
CONTINUOUS
 66
     1
 40
0.000000
 41
0.000000
  0
VERTEX
  8
0
  6
CONTINUOUS
 10
5.127760
 20
0.842160
  0
VERTEX
  8
0
  6
CONTINUOUS
 10
5.764440
 20
1.211760
  0
VERTEX
  8
0
  6
CONTINUOUS
 10
5.765320
 20
1.175240
  0
VERTEX
  8
0
  6
CONTINUOUS
 10
5.128640
 20
0.805640
  0
VERTEX
  8
0
  6
CONTINUOUS
 10
5.127760
 20
0.842160
  0
SEQEND
  8
0
  0
SOLID
  8
0
 62
    15
 10
5.128640
 20
0.805640
 11
5.765320
 21
1.175240
 12
5.128200
 22
0.801680
 13
5.765320
 23
1.171280
  0
POLYLINE
  8
0
  6
CONTINUOUS
 66
     1
 40
0.000000
 41
0.000000
  0
VERTEX
  8
0
  6
CONTINUOUS
 10
5.128640
 20
0.805640
  0
VERTEX
  8
0
  6
CONTINUOUS
 10
5.765320
 20
1.175240
  0
VERTEX
  8
0
  6
CONTINUOUS
 10
5.765320
 20
1.171280
  0
VERTEX
  8
0
  6
CONTINUOUS
 10
5.128200
 20
0.801680
  0
VERTEX
  8
0
  6
CONTINUOUS
 10
5.128640
 20
0.805640
  0
SEQEND
  8
0
  0
SOLID
  8
0
 62
    15
 10
4.511760
 20
2.437160
 11
5.148880
 21
2.806760
 12
4.671920
 22
2.437160
 13
5.309040
 23
2.806760
  0
POLYLINE
  8
0
  6
CONTINUOUS
 66
     1
 40
0.000000
 41
0.000000
  0
VERTEX
  8
0
  6
CONTINUOUS
 10
4.511760
 20
2.437160
  0
VERTEX
  8
0
  6
CONTINUOUS
 10
5.148880
 20
2.806760
  0
VERTEX
  8
0
  6
CONTINUOUS
 10
5.309040
 20
2.806760
  0
VERTEX
  8
0
  6
CONTINUOUS
 10
4.671920
 20
2.437160
  0
VERTEX
  8
0
  6
CONTINUOUS
 10
4.511760
 20
2.437160
  0
SEQEND
  8
0
  0
SOLID
  8
0
 62
    15
 10
5.095200
 20
1.599400
 11
5.732320
 21
1.969000
 12
5.095200
 22
1.462120
 13
5.732320
 23
1.831720
  0
POLYLINE
  8
0
  6
CONTINUOUS
 66
     1
 40
0.000000
 41
0.000000
  0
VERTEX
  8
0
  6
CONTINUOUS
 10
5.095200
 20
1.599400
  0
VERTEX
  8
0
  6
CONTINUOUS
 10
5.732320
 20
1.969000
  0
VERTEX
  8
0
  6
CONTINUOUS
 10
5.732320
 20
1.831720
  0
VERTEX
  8
0
  6
CONTINUOUS
 10
5.095200
 20
1.462120
  0
VERTEX
  8
0
  6
CONTINUOUS
 10
5.095200
 20
1.599400
  0
SEQEND
  8
0
  0
SOLID
  8
0
 62
    15
 10
4.671920
 20
2.428800
 11
5.309040
 21
2.797960
 12
4.674120
 22
2.387000
 13
5.310800
 23
2.756600
  0
POLYLINE
  8
0
  6
CONTINUOUS
 66
     1
 40
0.000000
 41
0.000000
  0
VERTEX
  8
0
  6
CONTINUOUS
 10
4.671920
 20
2.428800
  0
VERTEX
  8
0
  6
CONTINUOUS
 10
5.309040
 20
2.797960
  0
VERTEX
  8
0
  6
CONTINUOUS
 10
5.310800
 20
2.756600
  0
VERTEX
  8
0
  6
CONTINUOUS
 10
4.674120
 20
2.387000
  0
VERTEX
  8
0
  6
CONTINUOUS
 10
4.671920
 20
2.428800
  0
SEQEND
  8
0
  0
SOLID
  8
0
 62
    15
 10
4.674120
 20
2.387000
 11
5.310800
 21
2.756600
 12
4.679840
 22
2.351360
 13
5.316520
 23
2.720520
  0
POLYLINE
  8
0
  6
CONTINUOUS
 66
     1
 40
0.000000
 41
0.000000
  0
VERTEX
  8
0
  6
CONTINUOUS
 10
4.674120
 20
2.387000
  0
VERTEX
  8
0
  6
CONTINUOUS
 10
5.310800
 20
2.756600
  0
VERTEX
  8
0
  6
CONTINUOUS
 10
5.316520
 20
2.720520
  0
VERTEX
  8
0
  6
CONTINUOUS
 10
4.679840
 20
2.351360
  0
VERTEX
  8
0
  6
CONTINUOUS
 10
4.674120
 20
2.387000
  0
SEQEND
  8
0
  0
SOLID
  8
0
 62
    15
 10
4.679840
 20
2.351360
 11
5.316520
 21
2.720520
 12
4.688640
 22
2.320120
 13
5.325760
 23
2.689280
  0
POLYLINE
  8
0
  6
CONTINUOUS
 66
     1
 40
0.000000
 41
0.000000
  0
VERTEX
  8
0
  6
CONTINUOUS
 10
4.679840
 20
2.351360
  0
VERTEX
  8
0
  6
CONTINUOUS
 10
5.316520
 20
2.720520
  0
VERTEX
  8
0
  6
CONTINUOUS
 10
5.325760
 20
2.689280
  0
VERTEX
  8
0
  6
CONTINUOUS
 10
4.688640
 20
2.320120
  0
VERTEX
  8
0
  6
CONTINUOUS
 10
4.679840
 20
2.351360
  0
SEQEND
  8
0
  0
SOLID
  8
0
 62
     7
 10
4.688640
 20
2.320120
 11
5.325760
 21
2.689280
 12
4.700080
 22
2.292400
 13
5.337200
 23
2.662000
  0
POLYLINE
  8
0
  6
CONTINUOUS
 66
     1
 40
0.000000
 41
0.000000
  0
VERTEX
  8
0
  6
CONTINUOUS
 10
4.688640
 20
2.320120
  0
VERTEX
  8
0
  6
CONTINUOUS
 10
5.325760
 20
2.689280
  0
VERTEX
  8
0
  6
CONTINUOUS
 10
5.337200
 20
2.662000
  0
VERTEX
  8
0
  6
CONTINUOUS
 10
4.700080
 20
2.292400
  0
VERTEX
  8
0
  6
CONTINUOUS
 10
4.688640
 20
2.320120
  0
SEQEND
  8
0
  0
SOLID
  8
0
 62
     7
 10
4.700080
 20
2.292400
 11
5.337200
 21
2.662000
 12
4.729120
 22
2.246640
 13
5.365800
 23
2.615800
  0
POLYLINE
  8
0
  6
CONTINUOUS
 66
     1
 40
0.000000
 41
0.000000
  0
VERTEX
  8
0
  6
CONTINUOUS
 10
4.700080
 20
2.292400
  0
VERTEX
  8
0
  6
CONTINUOUS
 10
5.337200
 20
2.662000
  0
VERTEX
  8
0
  6
CONTINUOUS
 10
5.365800
 20
2.615800
  0
VERTEX
  8
0
  6
CONTINUOUS
 10
4.729120
 20
2.246640
  0
VERTEX
  8
0
  6
CONTINUOUS
 10
4.700080
 20
2.292400
  0
SEQEND
  8
0
  0
SOLID
  8
0
 62
     7
 10
4.729120
 20
2.246640
 11
5.365800
 21
2.615800
 12
4.762120
 22
2.206600
 13
5.399240
 23
2.576200
  0
POLYLINE
  8
0
  6
CONTINUOUS
 66
     1
 40
0.000000
 41
0.000000
  0
VERTEX
  8
0
  6
CONTINUOUS
 10
4.729120
 20
2.246640
  0
VERTEX
  8
0
  6
CONTINUOUS
 10
5.365800
 20
2.615800
  0
VERTEX
  8
0
  6
CONTINUOUS
 10
5.399240
 20
2.576200
  0
VERTEX
  8
0
  6
CONTINUOUS
 10
4.762120
 20
2.206600
  0
VERTEX
  8
0
  6
CONTINUOUS
 10
4.729120
 20
2.246640
  0
SEQEND
  8
0
  0
SOLID
  8
0
 62
     7
 10
4.762120
 20
2.206600
 11
5.399240
 21
2.576200
 12
4.795560
 22
2.166560
 13
5.432680
 23
2.536160
  0
POLYLINE
  8
0
  6
CONTINUOUS
 66
     1
 40
0.000000
 41
0.000000
  0
VERTEX
  8
0
  6
CONTINUOUS
 10
4.762120
 20
2.206600
  0
VERTEX
  8
0
  6
CONTINUOUS
 10
5.399240
 20
2.576200
  0
VERTEX
  8
0
  6
CONTINUOUS
 10
5.432680
 20
2.536160
  0
VERTEX
  8
0
  6
CONTINUOUS
 10
4.795560
 20
2.166560
  0
VERTEX
  8
0
  6
CONTINUOUS
 10
4.762120
 20
2.206600
  0
SEQEND
  8
0
  0
SOLID
  8
0
 62
     7
 10
4.795560
 20
2.166560
 11
5.432680
 21
2.536160
 12
4.825040
 22
2.120360
 13
5.461720
 23
2.489520
  0
POLYLINE
  8
0
  6
CONTINUOUS
 66
     1
 40
0.000000
 41
0.000000
  0
VERTEX
  8
0
  6
CONTINUOUS
 10
4.795560
 20
2.166560
  0
VERTEX
  8
0
  6
CONTINUOUS
 10
5.432680
 20
2.536160
  0
VERTEX
  8
0
  6
CONTINUOUS
 10
5.461720
 20
2.489520
  0
VERTEX
  8
0
  6
CONTINUOUS
 10
4.825040
 20
2.120360
  0
VERTEX
  8
0
  6
CONTINUOUS
 10
4.795560
 20
2.166560
  0
SEQEND
  8
0
  0
SOLID
  8
0
 62
    15
 10
4.825040
 20
2.120360
 11
5.461720
 21
2.489520
 12
4.836920
 22
2.092640
 13
5.473600
 23
2.462240
  0
POLYLINE
  8
0
  6
CONTINUOUS
 66
     1
 40
0.000000
 41
0.000000
  0
VERTEX
  8
0
  6
CONTINUOUS
 10
4.825040
 20
2.120360
  0
VERTEX
  8
0
  6
CONTINUOUS
 10
5.461720
 20
2.489520
  0
VERTEX
  8
0
  6
CONTINUOUS
 10
5.473600
 20
2.462240
  0
VERTEX
  8
0
  6
CONTINUOUS
 10
4.836920
 20
2.092640
  0
VERTEX
  8
0
  6
CONTINUOUS
 10
4.825040
 20
2.120360
  0
SEQEND
  8
0
  0
SOLID
  8
0
 62
    15
 10
4.836920
 20
2.092640
 11
5.473600
 21
2.462240
 12
4.846160
 22
2.060960
 13
5.482840
 23
2.430560
  0
POLYLINE
  8
0
  6
CONTINUOUS
 66
     1
 40
0.000000
 41
0.000000
  0
VERTEX
  8
0
  6
CONTINUOUS
 10
4.836920
 20
2.092640
  0
VERTEX
  8
0
  6
CONTINUOUS
 10
5.473600
 20
2.462240
  0
VERTEX
  8
0
  6
CONTINUOUS
 10
5.482840
 20
2.430560
  0
VERTEX
  8
0
  6
CONTINUOUS
 10
4.846160
 20
2.060960
  0
VERTEX
  8
0
  6
CONTINUOUS
 10
4.836920
 20
2.092640
  0
SEQEND
  8
0
  0
SOLID
  8
0
 62
    15
 10
4.846160
 20
2.060960
 11
5.482840
 21
2.430560
 12
4.852320
 22
2.024880
 13
5.489000
 23
2.394040
  0
POLYLINE
  8
0
  6
CONTINUOUS
 66
     1
 40
0.000000
 41
0.000000
  0
VERTEX
  8
0
  6
CONTINUOUS
 10
4.846160
 20
2.060960
  0
VERTEX
  8
0
  6
CONTINUOUS
 10
5.482840
 20
2.430560
  0
VERTEX
  8
0
  6
CONTINUOUS
 10
5.489000
 20
2.394040
  0
VERTEX
  8
0
  6
CONTINUOUS
 10
4.852320
 20
2.024880
  0
VERTEX
  8
0
  6
CONTINUOUS
 10
4.846160
 20
2.060960
  0
SEQEND
  8
0
  0
SOLID
  8
0
 62
    15
 10
4.852320
 20
2.024880
 11
5.489000
 21
2.394040
 12
4.854960
 22
1.982640
 13
5.491640
 23
2.352240
  0
POLYLINE
  8
0
  6
CONTINUOUS
 66
     1
 40
0.000000
 41
0.000000
  0
VERTEX
  8
0
  6
CONTINUOUS
 10
4.852320
 20
2.024880
  0
VERTEX
  8
0
  6
CONTINUOUS
 10
5.489000
 20
2.394040
  0
VERTEX
  8
0
  6
CONTINUOUS
 10
5.491640
 20
2.352240
  0
VERTEX
  8
0
  6
CONTINUOUS
 10
4.854960
 20
1.982640
  0
VERTEX
  8
0
  6
CONTINUOUS
 10
4.852320
 20
2.024880
  0
SEQEND
  8
0
  0
SOLID
  8
0
 62
    15
 10
4.854960
 20
1.982640
 11
5.491640
 21
2.352240
 12
4.854960
 22
1.974720
 13
5.491640
 23
2.343880
  0
POLYLINE
  8
0
  6
CONTINUOUS
 66
     1
 40
0.000000
 41
0.000000
  0
VERTEX
  8
0
  6
CONTINUOUS
 10
4.854960
 20
1.982640
  0
VERTEX
  8
0
  6
CONTINUOUS
 10
5.491640
 20
2.352240
  0
VERTEX
  8
0
  6
CONTINUOUS
 10
5.491640
 20
2.343880
  0
VERTEX
  8
0
  6
CONTINUOUS
 10
4.854960
 20
1.974720
  0
VERTEX
  8
0
  6
CONTINUOUS
 10
4.854960
 20
1.982640
  0
SEQEND
  8
0
  0
SOLID
  8
0
 62
    15
 10
4.854960
 20
1.974720
 11
5.491640
 21
2.343880
 12
4.955280
 22
1.974720
 13
5.592400
 23
2.343880
  0
POLYLINE
  8
0
  6
CONTINUOUS
 66
     1
 40
0.000000
 41
0.000000
  0
VERTEX
  8
0
  6
CONTINUOUS
 10
4.854960
 20
1.974720
  0
VERTEX
  8
0
  6
CONTINUOUS
 10
5.491640
 20
2.343880
  0
VERTEX
  8
0
  6
CONTINUOUS
 10
5.592400
 20
2.343880
  0
VERTEX
  8
0
  6
CONTINUOUS
 10
4.955280
 20
1.974720
  0
VERTEX
  8
0
  6
CONTINUOUS
 10
4.854960
 20
1.974720
  0
SEQEND
  8
0
  0
SOLID
  8
0
 62
    15
 10
4.955280
 20
1.974720
 11
5.592400
 21
2.343880
 12
4.955280
 22
1.778480
 13
5.592400
 23
2.147640
  0
POLYLINE
  8
0
  6
CONTINUOUS
 66
     1
 40
0.000000
 41
0.000000
  0
VERTEX
  8
0
  6
CONTINUOUS
 10
4.955280
 20
1.974720
  0
VERTEX
  8
0
  6
CONTINUOUS
 10
5.592400
 20
2.343880
  0
VERTEX
  8
0
  6
CONTINUOUS
 10
5.592400
 20
2.147640
  0
VERTEX
  8
0
  6
CONTINUOUS
 10
4.955280
 20
1.778480
  0
VERTEX
  8
0
  6
CONTINUOUS
 10
4.955280
 20
1.974720
  0
SEQEND
  8
0
  0
SOLID
  8
0
 62
    15
 10
4.955280
 20
1.778480
 11
5.592400
 21
2.147640
 12
4.958800
 22
1.738440
 13
5.595480
 23
2.108040
  0
POLYLINE
  8
0
  6
CONTINUOUS
 66
     1
 40
0.000000
 41
0.000000
  0
VERTEX
  8
0
  6
CONTINUOUS
 10
4.955280
 20
1.778480
  0
VERTEX
  8
0
  6
CONTINUOUS
 10
5.592400
 20
2.147640
  0
VERTEX
  8
0
  6
CONTINUOUS
 10
5.595480
 20
2.108040
  0
VERTEX
  8
0
  6
CONTINUOUS
 10
4.958800
 20
1.738440
  0
VERTEX
  8
0
  6
CONTINUOUS
 10
4.955280
 20
1.778480
  0
SEQEND
  8
0
  0
SOLID
  8
0
 62
    15
 10
4.958800
 20
1.738440
 11
5.595480
 21
2.108040
 12
4.967600
 22
1.704120
 13
5.604280
 23
2.073280
  0
POLYLINE
  8
0
  6
CONTINUOUS
 66
     1
 40
0.000000
 41
0.000000
  0
VERTEX
  8
0
  6
CONTINUOUS
 10
4.958800
 20
1.738440
  0
VERTEX
  8
0
  6
CONTINUOUS
 10
5.595480
 20
2.108040
  0
VERTEX
  8
0
  6
CONTINUOUS
 10
5.604280
 20
2.073280
  0
VERTEX
  8
0
  6
CONTINUOUS
 10
4.967600
 20
1.704120
  0
VERTEX
  8
0
  6
CONTINUOUS
 10
4.958800
 20
1.738440
  0
SEQEND
  8
0
  0
SOLID
  8
0
 62
     7
 10
4.967600
 20
1.704120
 11
5.604280
 21
2.073280
 12
4.981240
 22
1.674640
 13
5.617920
 23
2.044240
  0
POLYLINE
  8
0
  6
CONTINUOUS
 66
     1
 40
0.000000
 41
0.000000
  0
VERTEX
  8
0
  6
CONTINUOUS
 10
4.967600
 20
1.704120
  0
VERTEX
  8
0
  6
CONTINUOUS
 10
5.604280
 20
2.073280
  0
VERTEX
  8
0
  6
CONTINUOUS
 10
5.617920
 20
2.044240
  0
VERTEX
  8
0
  6
CONTINUOUS
 10
4.981240
 20
1.674640
  0
VERTEX
  8
0
  6
CONTINUOUS
 10
4.967600
 20
1.704120
  0
SEQEND
  8
0
  0
SOLID
  8
0
 62
     7
 10
4.981240
 20
1.674640
 11
5.617920
 21
2.044240
 12
4.998840
 22
1.650440
 13
5.635960
 23
2.020040
  0
POLYLINE
  8
0
  6
CONTINUOUS
 66
     1
 40
0.000000
 41
0.000000
  0
VERTEX
  8
0
  6
CONTINUOUS
 10
4.981240
 20
1.674640
  0
VERTEX
  8
0
  6
CONTINUOUS
 10
5.617920
 20
2.044240
  0
VERTEX
  8
0
  6
CONTINUOUS
 10
5.635960
 20
2.020040
  0
VERTEX
  8
0
  6
CONTINUOUS
 10
4.998840
 20
1.650440
  0
VERTEX
  8
0
  6
CONTINUOUS
 10
4.981240
 20
1.674640
  0
SEQEND
  8
0
  0
SOLID
  8
0
 62
     7
 10
4.998840
 20
1.650440
 11
5.635960
 21
2.020040
 12
5.020400
 22
1.631080
 13
5.657080
 23
2.000680
  0
POLYLINE
  8
0
  6
CONTINUOUS
 66
     1
 40
0.000000
 41
0.000000
  0
VERTEX
  8
0
  6
CONTINUOUS
 10
4.998840
 20
1.650440
  0
VERTEX
  8
0
  6
CONTINUOUS
 10
5.635960
 20
2.020040
  0
VERTEX
  8
0
  6
CONTINUOUS
 10
5.657080
 20
2.000680
  0
VERTEX
  8
0
  6
CONTINUOUS
 10
5.020400
 20
1.631080
  0
VERTEX
  8
0
  6
CONTINUOUS
 10
4.998840
 20
1.650440
  0
SEQEND
  8
0
  0
SOLID
  8
0
 62
    15
 10
5.020400
 20
1.631080
 11
5.657080
 21
2.000680
 12
5.043720
 22
1.617000
 13
5.680840
 23
1.986600
  0
POLYLINE
  8
0
  6
CONTINUOUS
 66
     1
 40
0.000000
 41
0.000000
  0
VERTEX
  8
0
  6
CONTINUOUS
 10
5.020400
 20
1.631080
  0
VERTEX
  8
0
  6
CONTINUOUS
 10
5.657080
 20
2.000680
  0
VERTEX
  8
0
  6
CONTINUOUS
 10
5.680840
 20
1.986600
  0
VERTEX
  8
0
  6
CONTINUOUS
 10
5.043720
 20
1.617000
  0
VERTEX
  8
0
  6
CONTINUOUS
 10
5.020400
 20
1.631080
  0
SEQEND
  8
0
  0
SOLID
  8
0
 62
    15
 10
5.043720
 20
1.617000
 11
5.680840
 21
1.986600
 12
5.069240
 22
1.608200
 13
5.706360
 23
1.977800
  0
POLYLINE
  8
0
  6
CONTINUOUS
 66
     1
 40
0.000000
 41
0.000000
  0
VERTEX
  8
0
  6
CONTINUOUS
 10
5.043720
 20
1.617000
  0
VERTEX
  8
0
  6
CONTINUOUS
 10
5.680840
 20
1.986600
  0
VERTEX
  8
0
  6
CONTINUOUS
 10
5.706360
 20
1.977800
  0
VERTEX
  8
0
  6
CONTINUOUS
 10
5.069240
 20
1.608200
  0
VERTEX
  8
0
  6
CONTINUOUS
 10
5.043720
 20
1.617000
  0
SEQEND
  8
0
  0
SOLID
  8
0
 62
    15
 10
5.069240
 20
1.608200
 11
5.706360
 21
1.977800
 12
5.095640
 22
1.604240
 13
5.732320
 23
1.973840
  0
POLYLINE
  8
0
  6
CONTINUOUS
 66
     1
 40
0.000000
 41
0.000000
  0
VERTEX
  8
0
  6
CONTINUOUS
 10
5.069240
 20
1.608200
  0
VERTEX
  8
0
  6
CONTINUOUS
 10
5.706360
 20
1.977800
  0
VERTEX
  8
0
  6
CONTINUOUS
 10
5.732320
 20
1.973840
  0
VERTEX
  8
0
  6
CONTINUOUS
 10
5.095640
 20
1.604240
  0
VERTEX
  8
0
  6
CONTINUOUS
 10
5.069240
 20
1.608200
  0
SEQEND
  8
0
  0
SOLID
  8
0
 62
    15
 10
5.095640
 20
1.604240
 11
5.732320
 21
1.973840
 12
5.095640
 22
1.593240
 13
5.732320
 23
1.962840
  0
POLYLINE
  8
0
  6
CONTINUOUS
 66
     1
 40
0.000000
 41
0.000000
  0
VERTEX
  8
0
  6
CONTINUOUS
 10
5.095640
 20
1.604240
  0
VERTEX
  8
0
  6
CONTINUOUS
 10
5.732320
 20
1.973840
  0
VERTEX
  8
0
  6
CONTINUOUS
 10
5.732320
 20
1.962840
  0
VERTEX
  8
0
  6
CONTINUOUS
 10
5.095640
 20
1.593240
  0
VERTEX
  8
0
  6
CONTINUOUS
 10
5.095640
 20
1.604240
  0
SEQEND
  8
0
  0
POLYLINE
  8
0
  6
CONTINUOUS
 66
     1
 40
0.000000
 41
0.000000
  0
VERTEX
  8
0
  6
CONTINUOUS
 10
5.095200
 20
1.599400
  0
VERTEX
  8
0
  6
CONTINUOUS
 10
5.095200
 20
1.462120
  0
VERTEX
  8
0
  6
CONTINUOUS
 10
5.133920
 20
1.440560
  0
VERTEX
  8
0
  6
CONTINUOUS
 10
5.166920
 20
1.414160
  0
VERTEX
  8
0
  6
CONTINUOUS
 10
5.195080
 20
1.384240
  0
VERTEX
  8
0
  6
CONTINUOUS
 10
5.217960
 20
1.350800
  0
VERTEX
  8
0
  6
CONTINUOUS
 10
5.236440
 20
1.315160
  0
VERTEX
  8
0
  6
CONTINUOUS
 10
5.250080
 20
1.277760
  0
VERTEX
  8
0
  6
CONTINUOUS
 10
5.259320
 20
1.239040
  0
VERTEX
  8
0
  6
CONTINUOUS
 10
5.264600
 20
1.199880
  0
VERTEX
  8
0
  6
CONTINUOUS
 10
5.265480
 20
1.160720
  0
VERTEX
  8
0
  6
CONTINUOUS
 10
5.262400
 20
1.122880
  0
VERTEX
  8
0
  6
CONTINUOUS
 10
5.256240
 20
1.086360
  0
VERTEX
  8
0
  6
CONTINUOUS
 10
5.246120
 20
1.052040
  0
VERTEX
  8
0
  6
CONTINUOUS
 10
5.232480
 20
1.020800
  0
VERTEX
  8
0
  6
CONTINUOUS
 10
5.215760
 20
0.993520
  0
VERTEX
  8
0
  6
CONTINUOUS
 10
5.196400
 20
0.970200
  0
VERTEX
  8
0
  6
CONTINUOUS
 10
5.149320
 20
0.932800
  0
VERTEX
  8
0
  6
CONTINUOUS
 10
5.134800
 20
0.909040
  0
VERTEX
  8
0
  6
CONTINUOUS
 10
5.130840
 20
0.892320
  0
VERTEX
  8
0
  6
CONTINUOUS
 10
5.128200
 20
0.870320
  0
VERTEX
  8
0
  6
CONTINUOUS
 10
5.128200
 20
0.801680
  0
VERTEX
  8
0
  6
CONTINUOUS
 10
4.511760
 20
0.801680
  0
VERTEX
  8
0
  6
CONTINUOUS
 10
4.511760
 20
2.437160
  0
VERTEX
  8
0
  6
CONTINUOUS
 10
4.671920
 20
2.437160
  0
VERTEX
  8
0
  6
CONTINUOUS
 10
4.674120
 20
2.387000
  0
VERTEX
  8
0
  6
CONTINUOUS
 10
4.679840
 20
2.351360
  0
VERTEX
  8
0
  6
CONTINUOUS
 10
4.688640
 20
2.320120
  0
VERTEX
  8
0
  6
CONTINUOUS
 10
4.700080
 20
2.292400
  0
VERTEX
  8
0
  6
CONTINUOUS
 10
4.729120
 20
2.246640
  0
VERTEX
  8
0
  6
CONTINUOUS
 10
4.795560
 20
2.166560
  0
VERTEX
  8
0
  6
CONTINUOUS
 10
4.825040
 20
2.120360
  0
VERTEX
  8
0
  6
CONTINUOUS
 10
4.836920
 20
2.092640
  0
VERTEX
  8
0
  6
CONTINUOUS
 10
4.846160
 20
2.060960
  0
VERTEX
  8
0
  6
CONTINUOUS
 10
4.852320
 20
2.024880
  0
VERTEX
  8
0
  6
CONTINUOUS
 10
4.854960
 20
1.974720
  0
VERTEX
  8
0
  6
CONTINUOUS
 10
4.955280
 20
1.974720
  0
VERTEX
  8
0
  6
CONTINUOUS
 10
4.955280
 20
1.778480
  0
VERTEX
  8
0
  6
CONTINUOUS
 10
4.958800
 20
1.738440
  0
VERTEX
  8
0
  6
CONTINUOUS
 10
4.967600
 20
1.704120
  0
VERTEX
  8
0
  6
CONTINUOUS
 10
4.981240
 20
1.674640
  0
VERTEX
  8
0
  6
CONTINUOUS
 10
4.998840
 20
1.650440
  0
VERTEX
  8
0
  6
CONTINUOUS
 10
5.020400
 20
1.631080
  0
VERTEX
  8
0
  6
CONTINUOUS
 10
5.043720
 20
1.617000
  0
VERTEX
  8
0
  6
CONTINUOUS
 10
5.069240
 20
1.608200
  0
VERTEX
  8
0
  6
CONTINUOUS
 10
5.095640
 20
1.604240
  0
VERTEX
  8
0
  6
CONTINUOUS
 10
5.095640
 20
1.593240
  0
VERTEX
  8
0
  6
CONTINUOUS
 10
5.095200
 20
1.599400
  0
SEQEND
  8
0
  0
TEXT
  8
0
 10
4.913040
 20
0.586960
 40
0.138111
  1
BA  588
 41
1.000000
  7
SN0
 71
     0
 72
     5
 11
5.503062
 21
0.586960
  0
TEXT
  8
0
 10
4.756840
 20
0.395120
 40
0.138111
  1
3/4" x 1-5/8"
 41
1.000000
  7
SN0
 71
     0
 72
     5
 11
5.656953
 21
0.395120
  0
ENDSEC
  0
EOF
