  0
SECTION
  2
HEADER
  9
$ACADVER
  1
AC1006
  9
$EXTMIN
 10
1.745040
 20
0.775280
  9
$EXTMAX
 10
7.363840
 20
4.897640
  9
$LTSCALE
 40
0.044000
  9
$PDMODE
 70
    35
  9
$PDSIZE
 40
0.035200
  0
ENDSEC
  0
SECTION
  2
TABLES
  0
TABLE
  2
LTYPE
 70
     9
  0
LTYPE
  2
CONTINUOUS
 70
    64
  3
Solid line
 72
    65
 73
     0
 40
0.000000
  0
LTYPE
  2
DASHED
 70
    64
  3
__ __ __ __ __ __ __ __ __ __ __ __ __ __ __
 72
    65
 73
     2
 40
0.000330
 49
0.000220
 49
-0.000110
  0
LTYPE
  2
HIDDEN
 70
    64
  3
 _ _ _ _ _ _ _ _ _ _ _ _ _ _ _ _ _ _ _ _ _ _
 72
    65
 73
     2
 40
0.000165
 49
0.000110
 49
-0.000055
  0
LTYPE
  2
CENTER
 70
    64
  3
____ _ ____ _ ____ _ ____ _ ____ _ ____ _ ____
 72
    65
 73
     4
 40
0.000880
 49
0.000550
 49
-0.000110
 49
0.000110
 49
-0.000110
  0
LTYPE
  2
PHANTOM
 70
    64
  3
_____ _ _ _____ _ _ _____ _ _ _____ _ _ ____
 72
    65
 73
     6
 40
0.001100
 49
0.000550
 49
-0.000110
 49
0.000110
 49
-0.000110
 49
0.000110
 49
-0.000110
  0
LTYPE
  2
DOT
 70
    64
  3
...............................................
 72
    65
 73
     2
 40
0.000110
 49
0.000000
 49
-0.000110
  0
LTYPE
  2
DASHDOT
 70
    64
  3
__ . __ . __ . __ . __ . __ . __ . __ . __ . __
 72
    65
 73
     4
 40
0.000440
 49
0.000220
 49
-0.000110
 49
0.000000
 49
-0.000110
  0
LTYPE
  2
BORDER
 70
    64
  3
__ __ . __ __ . __ __ . __ __ . __ __ . __ __
 72
    65
 73
     6
 40
0.000770
 49
0.000220
 49
-0.000110
 49
0.000220
 49
-0.000110
 49
0.000000
 49
-0.000110
  0
LTYPE
  2
DIVIDE
 70
    64
  3
__ . . __ . . __ . . __ . . __ . . __ . . __
 72
    65
 73
     6
 40
0.000550
 49
0.000220
 49
-0.000110
 49
0.000000
 49
-0.000110
 49
0.000000
 49
-0.000110
  0
LTYPE
  2
DOTDOT
 70
    64
  3
 . .  . .  . .  . .  . .  . . 
 72
    65
 73
     5
 40
0.000242
 49
-0.000110
 49
0.000000
 49
-0.000110
 49
0.000000
 49
-0.000110
  0
ENDTAB
  0
TABLE
  2
STYLE
 70
     2
  0
STYLE
 70
     0
  2
SN0
 40
0.000000
 41
0.000440
 50
0.000000
 71
     0
 42
0.000000
  3
ROMAND
  0
STYLE
 70
    68
  2
SV0
 40
0.000000
 41
0.000440
 50
0.000000
 71
     0
 42
0.000000
  3
ROMAND
  0
ENDTAB
  0
TABLE
  2
LAYER
 70
     3
  0
LAYER
  2
FOREGROUND
 70
    64
 62
     7
  6
CONTINUOUS
  0
LAYER
  2
BACKGROUND
 70
    65
 62
    -7
  6
CONTINUOUS
  0
LAYER
  2
0
 70
    64
 62
     7
  6
CONTINUOUS
  0
ENDTAB
  0
ENDSEC
  0
SECTION
  2
ENTITIES
  0
POLYLINE
  8
FOREGROUND
  6
CONTINUOUS
 66
     1
 40
0.000000
 41
0.000000
  0
VERTEX
  8
FOREGROUND
  6
CONTINUOUS
 10
0.000000
 20
5.672920
  0
VERTEX
  8
FOREGROUND
  6
CONTINUOUS
 10
8.499920
 20
5.672920
  0
VERTEX
  8
FOREGROUND
  6
CONTINUOUS
 10
8.499920
 20
-5.327080
  0
VERTEX
  8
FOREGROUND
  6
CONTINUOUS
 10
0.000000
 20
-5.327080
  0
VERTEX
  8
FOREGROUND
  6
CONTINUOUS
 10
0.000000
 20
5.672920
  0
SEQEND
  8
0
  0
POLYLINE
  8
FOREGROUND
  6
CONTINUOUS
 66
     1
 40
0.000000
 41
0.000000
  0
VERTEX
  8
FOREGROUND
  6
CONTINUOUS
 10
0.000000
 20
5.672920
  0
VERTEX
  8
FOREGROUND
  6
CONTINUOUS
 10
8.499920
 20
5.672920
  0
VERTEX
  8
FOREGROUND
  6
CONTINUOUS
 10
8.499920
 20
-5.327080
  0
VERTEX
  8
FOREGROUND
  6
CONTINUOUS
 10
0.000000
 20
-5.327080
  0
VERTEX
  8
FOREGROUND
  6
CONTINUOUS
 10
0.000000
 20
5.672920
  0
SEQEND
  8
0
  0
POLYLINE
  8
0
  6
CONTINUOUS
 66
     1
 40
0.014080
 41
0.014080
  0
VERTEX
  8
0
  6
CONTINUOUS
 10
3.796320
 20
4.886200
  0
VERTEX
  8
0
  6
CONTINUOUS
 10
3.796320
 20
3.485240
  0
VERTEX
  8
0
  6
CONTINUOUS
 10
5.296720
 20
3.485240
  0
VERTEX
  8
0
  6
CONTINUOUS
 10
5.296720
 20
3.558720
  0
VERTEX
  8
0
  6
CONTINUOUS
 10
5.353040
 20
3.558720
  0
VERTEX
  8
0
  6
CONTINUOUS
 10
5.354360
 20
3.576320
  0
VERTEX
  8
0
  6
CONTINUOUS
 10
5.357440
 20
3.594800
  0
VERTEX
  8
0
  6
CONTINUOUS
 10
5.370640
 20
3.631760
  0
VERTEX
  8
0
  6
CONTINUOUS
 10
5.392200
 20
3.668280
  0
VERTEX
  8
0
  6
CONTINUOUS
 10
5.405840
 20
3.685880
  0
VERTEX
  8
0
  6
CONTINUOUS
 10
5.421680
 20
3.702600
  0
VERTEX
  8
0
  6
CONTINUOUS
 10
5.438840
 20
3.718000
  0
VERTEX
  8
0
  6
CONTINUOUS
 10
5.457760
 20
3.732080
  0
VERTEX
  8
0
  6
CONTINUOUS
 10
5.478440
 20
3.744840
  0
VERTEX
  8
0
  6
CONTINUOUS
 10
5.512320
 20
3.760680
  0
VERTEX
  8
0
  6
CONTINUOUS
 10
5.550160
 20
3.771240
  0
VERTEX
  8
0
  6
CONTINUOUS
 10
5.576560
 20
3.775640
  0
VERTEX
  8
0
  6
CONTINUOUS
 10
5.604720
 20
3.776960
  0
VERTEX
  8
0
  6
CONTINUOUS
 10
5.604720
 20
3.852640
  0
VERTEX
  8
0
  6
CONTINUOUS
 10
5.622760
 20
3.853520
  0
VERTEX
  8
0
  6
CONTINUOUS
 10
5.640360
 20
3.856160
  0
VERTEX
  8
0
  6
CONTINUOUS
 10
5.675560
 20
3.865840
  0
VERTEX
  8
0
  6
CONTINUOUS
 10
5.709440
 20
3.882120
  0
VERTEX
  8
0
  6
CONTINUOUS
 10
5.739800
 20
3.904560
  0
VERTEX
  8
0
  6
CONTINUOUS
 10
5.753440
 20
3.918200
  0
VERTEX
  8
0
  6
CONTINUOUS
 10
5.765760
 20
3.933600
  0
VERTEX
  8
0
  6
CONTINUOUS
 10
5.776760
 20
3.950760
  0
VERTEX
  8
0
  6
CONTINUOUS
 10
5.786000
 20
3.969240
  0
VERTEX
  8
0
  6
CONTINUOUS
 10
5.797000
 20
4.000920
  0
VERTEX
  8
0
  6
CONTINUOUS
 10
5.802720
 20
4.036120
  0
VERTEX
  8
0
  6
CONTINUOUS
 10
5.804040
 20
4.062080
  0
VERTEX
  8
0
  6
CONTINUOUS
 10
5.420360
 20
4.062080
  0
VERTEX
  8
0
  6
CONTINUOUS
 10
5.420800
 20
4.062080
  0
VERTEX
  8
0
  6
CONTINUOUS
 10
5.420800
 20
4.313320
  0
VERTEX
  8
0
  6
CONTINUOUS
 10
5.804480
 20
4.313320
  0
VERTEX
  8
0
  6
CONTINUOUS
 10
5.801840
 20
4.351600
  0
VERTEX
  8
0
  6
CONTINUOUS
 10
5.794360
 20
4.385480
  0
VERTEX
  8
0
  6
CONTINUOUS
 10
5.777200
 20
4.424640
  0
VERTEX
  8
0
  6
CONTINUOUS
 10
5.766200
 20
4.441800
  0
VERTEX
  8
0
  6
CONTINUOUS
 10
5.753880
 20
4.457200
  0
VERTEX
  8
0
  6
CONTINUOUS
 10
5.740240
 20
4.470840
  0
VERTEX
  8
0
  6
CONTINUOUS
 10
5.709880
 20
4.493280
  0
VERTEX
  8
0
  6
CONTINUOUS
 10
5.693160
 20
4.502080
  0
VERTEX
  8
0
  6
CONTINUOUS
 10
5.658840
 20
4.514840
  0
VERTEX
  8
0
  6
CONTINUOUS
 10
5.640800
 20
4.519240
  0
VERTEX
  8
0
  6
CONTINUOUS
 10
5.623200
 20
4.521880
  0
VERTEX
  8
0
  6
CONTINUOUS
 10
5.605160
 20
4.522760
  0
VERTEX
  8
0
  6
CONTINUOUS
 10
5.605160
 20
4.598440
  0
VERTEX
  8
0
  6
CONTINUOUS
 10
5.577000
 20
4.599760
  0
VERTEX
  8
0
  6
CONTINUOUS
 10
5.550600
 20
4.604160
  0
VERTEX
  8
0
  6
CONTINUOUS
 10
5.512760
 20
4.614720
  0
VERTEX
  8
0
  6
CONTINUOUS
 10
5.478880
 20
4.630560
  0
VERTEX
  8
0
  6
CONTINUOUS
 10
5.458200
 20
4.643320
  0
VERTEX
  8
0
  6
CONTINUOUS
 10
5.439280
 20
4.657400
  0
VERTEX
  8
0
  6
CONTINUOUS
 10
5.422120
 20
4.672800
  0
VERTEX
  8
0
  6
CONTINUOUS
 10
5.406280
 20
4.689520
  0
VERTEX
  8
0
  6
CONTINUOUS
 10
5.392640
 20
4.707120
  0
VERTEX
  8
0
  6
CONTINUOUS
 10
5.371080
 20
4.743640
  0
VERTEX
  8
0
  6
CONTINUOUS
 10
5.357880
 20
4.780600
  0
VERTEX
  8
0
  6
CONTINUOUS
 10
5.354800
 20
4.799080
  0
VERTEX
  8
0
  6
CONTINUOUS
 10
5.353480
 20
4.816680
  0
VERTEX
  8
0
  6
CONTINUOUS
 10
5.297160
 20
4.816680
  0
VERTEX
  8
0
  6
CONTINUOUS
 10
5.297160
 20
4.890160
  0
VERTEX
  8
0
  6
CONTINUOUS
 10
3.795880
 20
4.890160
  0
VERTEX
  8
0
  6
CONTINUOUS
 10
3.795880
 20
4.869480
  0
VERTEX
  8
0
  6
CONTINUOUS
 10
3.796320
 20
4.886200
  0
SEQEND
  8
0
  0
POLYLINE
  8
0
  6
CONTINUOUS
 66
     1
 40
0.014080
 41
0.014080
  0
VERTEX
  8
0
  6
CONTINUOUS
 10
5.853760
 20
3.478640
  0
VERTEX
  8
0
  6
CONTINUOUS
 10
5.853760
 20
3.551680
  0
VERTEX
  8
0
  6
CONTINUOUS
 10
5.910520
 20
3.551680
  0
VERTEX
  8
0
  6
CONTINUOUS
 10
5.911840
 20
3.569280
  0
VERTEX
  8
0
  6
CONTINUOUS
 10
5.914920
 20
3.587760
  0
VERTEX
  8
0
  6
CONTINUOUS
 10
5.928120
 20
3.624720
  0
VERTEX
  8
0
  6
CONTINUOUS
 10
5.949680
 20
3.661240
  0
VERTEX
  8
0
  6
CONTINUOUS
 10
5.963320
 20
3.678840
  0
VERTEX
  8
0
  6
CONTINUOUS
 10
5.979160
 20
3.695560
  0
VERTEX
  8
0
  6
CONTINUOUS
 10
5.996320
 20
3.710960
  0
VERTEX
  8
0
  6
CONTINUOUS
 10
6.015240
 20
3.725040
  0
VERTEX
  8
0
  6
CONTINUOUS
 10
6.035920
 20
3.737800
  0
VERTEX
  8
0
  6
CONTINUOUS
 10
6.069800
 20
3.753640
  0
VERTEX
  8
0
  6
CONTINUOUS
 10
6.107640
 20
3.764200
  0
VERTEX
  8
0
  6
CONTINUOUS
 10
6.134040
 20
3.768600
  0
VERTEX
  8
0
  6
CONTINUOUS
 10
6.162200
 20
3.769920
  0
VERTEX
  8
0
  6
CONTINUOUS
 10
6.162200
 20
3.845600
  0
VERTEX
  8
0
  6
CONTINUOUS
 10
6.197840
 20
3.849560
  0
VERTEX
  8
0
  6
CONTINUOUS
 10
6.215880
 20
3.853520
  0
VERTEX
  8
0
  6
CONTINUOUS
 10
6.250200
 20
3.866280
  0
VERTEX
  8
0
  6
CONTINUOUS
 10
6.266920
 20
3.875080
  0
VERTEX
  8
0
  6
CONTINUOUS
 10
6.297280
 20
3.897520
  0
VERTEX
  8
0
  6
CONTINUOUS
 10
6.323240
 20
3.927000
  0
VERTEX
  8
0
  6
CONTINUOUS
 10
6.334240
 20
3.943720
  0
VERTEX
  8
0
  6
CONTINUOUS
 10
6.343480
 20
3.962640
  0
VERTEX
  8
0
  6
CONTINUOUS
 10
6.354480
 20
3.994320
  0
VERTEX
  8
0
  6
CONTINUOUS
 10
6.360200
 20
4.029520
  0
VERTEX
  8
0
  6
CONTINUOUS
 10
6.361520
 20
4.055480
  0
VERTEX
  8
0
  6
CONTINUOUS
 10
5.977840
 20
4.055040
  0
VERTEX
  8
0
  6
CONTINUOUS
 10
5.977840
 20
4.306280
  0
VERTEX
  8
0
  6
CONTINUOUS
 10
6.361960
 20
4.306280
  0
VERTEX
  8
0
  6
CONTINUOUS
 10
6.359320
 20
4.344560
  0
VERTEX
  8
0
  6
CONTINUOUS
 10
6.351840
 20
4.378440
  0
VERTEX
  8
0
  6
CONTINUOUS
 10
6.343920
 20
4.399120
  0
VERTEX
  8
0
  6
CONTINUOUS
 10
6.334680
 20
4.417600
  0
VERTEX
  8
0
  6
CONTINUOUS
 10
6.323680
 20
4.434760
  0
VERTEX
  8
0
  6
CONTINUOUS
 10
6.311360
 20
4.450160
  0
VERTEX
  8
0
  6
CONTINUOUS
 10
6.283200
 20
4.476120
  0
VERTEX
  8
0
  6
CONTINUOUS
 10
6.250640
 20
4.495040
  0
VERTEX
  8
0
  6
CONTINUOUS
 10
6.216320
 20
4.508240
  0
VERTEX
  8
0
  6
CONTINUOUS
 10
6.180680
 20
4.514840
  0
VERTEX
  8
0
  6
CONTINUOUS
 10
6.162640
 20
4.516160
  0
VERTEX
  8
0
  6
CONTINUOUS
 10
6.162640
 20
4.591400
  0
VERTEX
  8
0
  6
CONTINUOUS
 10
6.134480
 20
4.592720
  0
VERTEX
  8
0
  6
CONTINUOUS
 10
6.108080
 20
4.597120
  0
VERTEX
  8
0
  6
CONTINUOUS
 10
6.070240
 20
4.607680
  0
VERTEX
  8
0
  6
CONTINUOUS
 10
6.036360
 20
4.623520
  0
VERTEX
  8
0
  6
CONTINUOUS
 10
6.015680
 20
4.636280
  0
VERTEX
  8
0
  6
CONTINUOUS
 10
5.996760
 20
4.650360
  0
VERTEX
  8
0
  6
CONTINUOUS
 10
5.979600
 20
4.665760
  0
VERTEX
  8
0
  6
CONTINUOUS
 10
5.963760
 20
4.682480
  0
VERTEX
  8
0
  6
CONTINUOUS
 10
5.950120
 20
4.700080
  0
VERTEX
  8
0
  6
CONTINUOUS
 10
5.928560
 20
4.736600
  0
VERTEX
  8
0
  6
CONTINUOUS
 10
5.915360
 20
4.773560
  0
VERTEX
  8
0
  6
CONTINUOUS
 10
5.912280
 20
4.792040
  0
VERTEX
  8
0
  6
CONTINUOUS
 10
5.910960
 20
4.809640
  0
VERTEX
  8
0
  6
CONTINUOUS
 10
5.854200
 20
4.809640
  0
VERTEX
  8
0
  6
CONTINUOUS
 10
5.854200
 20
4.884000
  0
VERTEX
  8
0
  6
CONTINUOUS
 10
5.854640
 20
4.882680
  0
VERTEX
  8
0
  6
CONTINUOUS
 10
5.856840
 20
4.885320
  0
VERTEX
  8
0
  6
CONTINUOUS
 10
7.356800
 20
4.885320
  0
VERTEX
  8
0
  6
CONTINUOUS
 10
7.356800
 20
3.480400
  0
VERTEX
  8
0
  6
CONTINUOUS
 10
5.851120
 20
3.480400
  0
VERTEX
  8
0
  6
CONTINUOUS
 10
5.853760
 20
3.478640
  0
SEQEND
  8
0
  0
POLYLINE
  8
0
  6
CONTINUOUS
 66
     1
 40
0.000000
 41
0.000000
  0
VERTEX
  8
0
  6
CONTINUOUS
 10
4.031720
 20
2.181520
  0
VERTEX
  8
0
  6
CONTINUOUS
 10
3.370840
 20
1.811040
  0
VERTEX
  8
0
  6
CONTINUOUS
 10
4.031720
 20
2.181520
  0
SEQEND
  8
0
  0
SOLID
  8
0
 62
    15
 10
3.370400
 20
1.811040
 11
4.031280
 21
2.181520
 12
3.754520
 22
1.811040
 13
4.415400
 23
2.181520
  0
POLYLINE
  8
0
  6
CONTINUOUS
 66
     1
 40
0.000000
 41
0.000000
  0
VERTEX
  8
0
  6
CONTINUOUS
 10
3.370400
 20
1.811040
  0
VERTEX
  8
0
  6
CONTINUOUS
 10
4.031280
 20
2.181520
  0
VERTEX
  8
0
  6
CONTINUOUS
 10
4.415400
 20
2.181520
  0
VERTEX
  8
0
  6
CONTINUOUS
 10
3.754520
 20
1.811040
  0
VERTEX
  8
0
  6
CONTINUOUS
 10
3.370400
 20
1.811040
  0
SEQEND
  8
0
  0
SOLID
  8
0
 62
    15
 10
3.247200
 20
2.639120
 11
3.908080
 21
3.009160
 12
3.247200
 22
2.565640
 13
3.908080
 23
2.935680
  0
POLYLINE
  8
0
  6
CONTINUOUS
 66
     1
 40
0.000000
 41
0.000000
  0
VERTEX
  8
0
  6
CONTINUOUS
 10
3.247200
 20
2.639120
  0
VERTEX
  8
0
  6
CONTINUOUS
 10
3.908080
 20
3.009160
  0
VERTEX
  8
0
  6
CONTINUOUS
 10
3.908080
 20
2.935680
  0
VERTEX
  8
0
  6
CONTINUOUS
 10
3.247200
 20
2.565640
  0
VERTEX
  8
0
  6
CONTINUOUS
 10
3.247200
 20
2.639120
  0
SEQEND
  8
0
  0
SOLID
  8
0
 62
    15
 10
3.247200
 20
2.565640
 11
3.908080
 21
2.935680
 12
3.303960
 22
2.565640
 13
3.964840
 23
2.935680
  0
POLYLINE
  8
0
  6
CONTINUOUS
 66
     1
 40
0.000000
 41
0.000000
  0
VERTEX
  8
0
  6
CONTINUOUS
 10
3.247200
 20
2.565640
  0
VERTEX
  8
0
  6
CONTINUOUS
 10
3.908080
 20
2.935680
  0
VERTEX
  8
0
  6
CONTINUOUS
 10
3.964840
 20
2.935680
  0
VERTEX
  8
0
  6
CONTINUOUS
 10
3.303960
 20
2.565640
  0
VERTEX
  8
0
  6
CONTINUOUS
 10
3.247200
 20
2.565640
  0
SEQEND
  8
0
  0
SOLID
  8
0
 62
    15
 10
3.303960
 20
2.565640
 11
3.964840
 21
2.935680
 12
3.308360
 22
2.529560
 13
3.969240
 23
2.900040
  0
POLYLINE
  8
0
  6
CONTINUOUS
 66
     1
 40
0.000000
 41
0.000000
  0
VERTEX
  8
0
  6
CONTINUOUS
 10
3.303960
 20
2.565640
  0
VERTEX
  8
0
  6
CONTINUOUS
 10
3.964840
 20
2.935680
  0
VERTEX
  8
0
  6
CONTINUOUS
 10
3.969240
 20
2.900040
  0
VERTEX
  8
0
  6
CONTINUOUS
 10
3.308360
 20
2.529560
  0
VERTEX
  8
0
  6
CONTINUOUS
 10
3.303960
 20
2.565640
  0
SEQEND
  8
0
  0
SOLID
  8
0
 62
    15
 10
3.308360
 20
2.529560
 11
3.969240
 21
2.900040
 12
3.321560
 22
2.492600
 13
3.982440
 23
2.862640
  0
POLYLINE
  8
0
  6
CONTINUOUS
 66
     1
 40
0.000000
 41
0.000000
  0
VERTEX
  8
0
  6
CONTINUOUS
 10
3.308360
 20
2.529560
  0
VERTEX
  8
0
  6
CONTINUOUS
 10
3.969240
 20
2.900040
  0
VERTEX
  8
0
  6
CONTINUOUS
 10
3.982440
 20
2.862640
  0
VERTEX
  8
0
  6
CONTINUOUS
 10
3.321560
 20
2.492600
  0
VERTEX
  8
0
  6
CONTINUOUS
 10
3.308360
 20
2.529560
  0
SEQEND
  8
0
  0
SOLID
  8
0
 62
    15
 10
3.321560
 20
2.492600
 11
3.982440
 21
2.862640
 12
3.343120
 22
2.456080
 13
4.004000
 23
2.826120
  0
POLYLINE
  8
0
  6
CONTINUOUS
 66
     1
 40
0.000000
 41
0.000000
  0
VERTEX
  8
0
  6
CONTINUOUS
 10
3.321560
 20
2.492600
  0
VERTEX
  8
0
  6
CONTINUOUS
 10
3.982440
 20
2.862640
  0
VERTEX
  8
0
  6
CONTINUOUS
 10
4.004000
 20
2.826120
  0
VERTEX
  8
0
  6
CONTINUOUS
 10
3.343120
 20
2.456080
  0
VERTEX
  8
0
  6
CONTINUOUS
 10
3.321560
 20
2.492600
  0
SEQEND
  8
0
  0
SOLID
  8
0
 62
    15
 10
3.343120
 20
2.456080
 11
4.004000
 21
2.826120
 12
3.372160
 22
2.421760
 13
4.033040
 23
2.792240
  0
POLYLINE
  8
0
  6
CONTINUOUS
 66
     1
 40
0.000000
 41
0.000000
  0
VERTEX
  8
0
  6
CONTINUOUS
 10
3.343120
 20
2.456080
  0
VERTEX
  8
0
  6
CONTINUOUS
 10
4.004000
 20
2.826120
  0
VERTEX
  8
0
  6
CONTINUOUS
 10
4.033040
 20
2.792240
  0
VERTEX
  8
0
  6
CONTINUOUS
 10
3.372160
 20
2.421760
  0
VERTEX
  8
0
  6
CONTINUOUS
 10
3.343120
 20
2.456080
  0
SEQEND
  8
0
  0
SOLID
  8
0
 62
    15
 10
3.372160
 20
2.421760
 11
4.033040
 21
2.792240
 12
3.408680
 22
2.391840
 13
4.069560
 23
2.762320
  0
POLYLINE
  8
0
  6
CONTINUOUS
 66
     1
 40
0.000000
 41
0.000000
  0
VERTEX
  8
0
  6
CONTINUOUS
 10
3.372160
 20
2.421760
  0
VERTEX
  8
0
  6
CONTINUOUS
 10
4.033040
 20
2.792240
  0
VERTEX
  8
0
  6
CONTINUOUS
 10
4.069560
 20
2.762320
  0
VERTEX
  8
0
  6
CONTINUOUS
 10
3.408680
 20
2.391840
  0
VERTEX
  8
0
  6
CONTINUOUS
 10
3.372160
 20
2.421760
  0
SEQEND
  8
0
  0
SOLID
  8
0
 62
    15
 10
3.408680
 20
2.391840
 11
4.069560
 21
2.762320
 12
3.451800
 22
2.368520
 13
4.112680
 23
2.738560
  0
POLYLINE
  8
0
  6
CONTINUOUS
 66
     1
 40
0.000000
 41
0.000000
  0
VERTEX
  8
0
  6
CONTINUOUS
 10
3.408680
 20
2.391840
  0
VERTEX
  8
0
  6
CONTINUOUS
 10
4.069560
 20
2.762320
  0
VERTEX
  8
0
  6
CONTINUOUS
 10
4.112680
 20
2.738560
  0
VERTEX
  8
0
  6
CONTINUOUS
 10
3.451800
 20
2.368520
  0
VERTEX
  8
0
  6
CONTINUOUS
 10
3.408680
 20
2.391840
  0
SEQEND
  8
0
  0
SOLID
  8
0
 62
    15
 10
3.451800
 20
2.368520
 11
4.112680
 21
2.738560
 12
3.500640
 22
2.353120
 13
4.161520
 23
2.723160
  0
POLYLINE
  8
0
  6
CONTINUOUS
 66
     1
 40
0.000000
 41
0.000000
  0
VERTEX
  8
0
  6
CONTINUOUS
 10
3.451800
 20
2.368520
  0
VERTEX
  8
0
  6
CONTINUOUS
 10
4.112680
 20
2.738560
  0
VERTEX
  8
0
  6
CONTINUOUS
 10
4.161520
 20
2.723160
  0
VERTEX
  8
0
  6
CONTINUOUS
 10
3.500640
 20
2.353120
  0
VERTEX
  8
0
  6
CONTINUOUS
 10
3.451800
 20
2.368520
  0
SEQEND
  8
0
  0
SOLID
  8
0
 62
    15
 10
3.500640
 20
2.353120
 11
4.161520
 21
2.723160
 12
3.555640
 22
2.347400
 13
4.216520
 23
2.717440
  0
POLYLINE
  8
0
  6
CONTINUOUS
 66
     1
 40
0.000000
 41
0.000000
  0
VERTEX
  8
0
  6
CONTINUOUS
 10
3.500640
 20
2.353120
  0
VERTEX
  8
0
  6
CONTINUOUS
 10
4.161520
 20
2.723160
  0
VERTEX
  8
0
  6
CONTINUOUS
 10
4.216520
 20
2.717440
  0
VERTEX
  8
0
  6
CONTINUOUS
 10
3.555640
 20
2.347400
  0
VERTEX
  8
0
  6
CONTINUOUS
 10
3.500640
 20
2.353120
  0
SEQEND
  8
0
  0
SOLID
  8
0
 62
    15
 10
3.555640
 20
2.347400
 11
4.216520
 21
2.717440
 12
3.555640
 22
2.271720
 13
4.216520
 23
2.642200
  0
POLYLINE
  8
0
  6
CONTINUOUS
 66
     1
 40
0.000000
 41
0.000000
  0
VERTEX
  8
0
  6
CONTINUOUS
 10
3.555640
 20
2.347400
  0
VERTEX
  8
0
  6
CONTINUOUS
 10
4.216520
 20
2.717440
  0
VERTEX
  8
0
  6
CONTINUOUS
 10
4.216520
 20
2.642200
  0
VERTEX
  8
0
  6
CONTINUOUS
 10
3.555640
 20
2.271720
  0
VERTEX
  8
0
  6
CONTINUOUS
 10
3.555640
 20
2.347400
  0
SEQEND
  8
0
  0
SOLID
  8
0
 62
    15
 10
3.555640
 20
2.271720
 11
4.216520
 21
2.642200
 12
3.626480
 22
2.258080
 13
4.287360
 23
2.628560
  0
POLYLINE
  8
0
  6
CONTINUOUS
 66
     1
 40
0.000000
 41
0.000000
  0
VERTEX
  8
0
  6
CONTINUOUS
 10
3.555640
 20
2.271720
  0
VERTEX
  8
0
  6
CONTINUOUS
 10
4.216520
 20
2.642200
  0
VERTEX
  8
0
  6
CONTINUOUS
 10
4.287360
 20
2.628560
  0
VERTEX
  8
0
  6
CONTINUOUS
 10
3.626480
 20
2.258080
  0
VERTEX
  8
0
  6
CONTINUOUS
 10
3.555640
 20
2.271720
  0
SEQEND
  8
0
  0
SOLID
  8
0
 62
    15
 10
3.626480
 20
2.258080
 11
4.287360
 21
2.628560
 12
3.659920
 22
2.242240
 13
4.320800
 23
2.612280
  0
POLYLINE
  8
0
  6
CONTINUOUS
 66
     1
 40
0.000000
 41
0.000000
  0
VERTEX
  8
0
  6
CONTINUOUS
 10
3.626480
 20
2.258080
  0
VERTEX
  8
0
  6
CONTINUOUS
 10
4.287360
 20
2.628560
  0
VERTEX
  8
0
  6
CONTINUOUS
 10
4.320800
 20
2.612280
  0
VERTEX
  8
0
  6
CONTINUOUS
 10
3.659920
 20
2.242240
  0
VERTEX
  8
0
  6
CONTINUOUS
 10
3.626480
 20
2.258080
  0
SEQEND
  8
0
  0
SOLID
  8
0
 62
    15
 10
3.370840
 20
2.061840
 11
4.031720
 21
2.432320
 12
3.370840
 22
1.811040
 13
4.031720
 23
2.181520
  0
POLYLINE
  8
0
  6
CONTINUOUS
 66
     1
 40
0.000000
 41
0.000000
  0
VERTEX
  8
0
  6
CONTINUOUS
 10
3.370840
 20
2.061840
  0
VERTEX
  8
0
  6
CONTINUOUS
 10
4.031720
 20
2.432320
  0
VERTEX
  8
0
  6
CONTINUOUS
 10
4.031720
 20
2.181520
  0
VERTEX
  8
0
  6
CONTINUOUS
 10
3.370840
 20
1.811040
  0
VERTEX
  8
0
  6
CONTINUOUS
 10
3.370840
 20
2.061840
  0
SEQEND
  8
0
  0
SOLID
  8
0
 62
    15
 10
3.690720
 20
2.219800
 11
4.351600
 21
2.589840
 12
3.716680
 22
2.190760
 13
4.377560
 23
2.560800
  0
POLYLINE
  8
0
  6
CONTINUOUS
 66
     1
 40
0.000000
 41
0.000000
  0
VERTEX
  8
0
  6
CONTINUOUS
 10
3.690720
 20
2.219800
  0
VERTEX
  8
0
  6
CONTINUOUS
 10
4.351600
 20
2.589840
  0
VERTEX
  8
0
  6
CONTINUOUS
 10
4.377560
 20
2.560800
  0
VERTEX
  8
0
  6
CONTINUOUS
 10
3.716680
 20
2.190760
  0
VERTEX
  8
0
  6
CONTINUOUS
 10
3.690720
 20
2.219800
  0
SEQEND
  8
0
  0
SOLID
  8
0
 62
    15
 10
3.716680
 20
2.190760
 11
4.377560
 21
2.560800
 12
3.736920
 22
2.154680
 13
4.397800
 23
2.525160
  0
POLYLINE
  8
0
  6
CONTINUOUS
 66
     1
 40
0.000000
 41
0.000000
  0
VERTEX
  8
0
  6
CONTINUOUS
 10
3.716680
 20
2.190760
  0
VERTEX
  8
0
  6
CONTINUOUS
 10
4.377560
 20
2.560800
  0
VERTEX
  8
0
  6
CONTINUOUS
 10
4.397800
 20
2.525160
  0
VERTEX
  8
0
  6
CONTINUOUS
 10
3.736920
 20
2.154680
  0
VERTEX
  8
0
  6
CONTINUOUS
 10
3.716680
 20
2.190760
  0
SEQEND
  8
0
  0
SOLID
  8
0
 62
    15
 10
1.746360
 20
2.635160
 11
2.407240
 21
3.005640
 12
1.745920
 22
2.618440
 13
2.406800
 23
2.988480
  0
POLYLINE
  8
0
  6
CONTINUOUS
 66
     1
 40
0.000000
 41
0.000000
  0
VERTEX
  8
0
  6
CONTINUOUS
 10
1.746360
 20
2.635160
  0
VERTEX
  8
0
  6
CONTINUOUS
 10
2.407240
 20
3.005640
  0
VERTEX
  8
0
  6
CONTINUOUS
 10
2.406800
 20
2.988480
  0
VERTEX
  8
0
  6
CONTINUOUS
 10
1.745920
 20
2.618440
  0
VERTEX
  8
0
  6
CONTINUOUS
 10
1.746360
 20
2.635160
  0
SEQEND
  8
0
  0
SOLID
  8
0
 62
    15
 10
3.750120
 20
2.112000
 11
4.411000
 21
2.482040
 12
3.754960
 22
2.061840
 13
4.415840
 23
2.432320
  0
POLYLINE
  8
0
  6
CONTINUOUS
 66
     1
 40
0.000000
 41
0.000000
  0
VERTEX
  8
0
  6
CONTINUOUS
 10
3.750120
 20
2.112000
  0
VERTEX
  8
0
  6
CONTINUOUS
 10
4.411000
 20
2.482040
  0
VERTEX
  8
0
  6
CONTINUOUS
 10
4.415840
 20
2.432320
  0
VERTEX
  8
0
  6
CONTINUOUS
 10
3.754960
 20
2.061840
  0
VERTEX
  8
0
  6
CONTINUOUS
 10
3.750120
 20
2.112000
  0
SEQEND
  8
0
  0
SOLID
  8
0
 62
    15
 10
3.736920
 20
2.154680
 11
4.397800
 21
2.525160
 12
3.750120
 22
2.112000
 13
4.411000
 23
2.482040
  0
POLYLINE
  8
0
  6
CONTINUOUS
 66
     1
 40
0.000000
 41
0.000000
  0
VERTEX
  8
0
  6
CONTINUOUS
 10
3.736920
 20
2.154680
  0
VERTEX
  8
0
  6
CONTINUOUS
 10
4.397800
 20
2.525160
  0
VERTEX
  8
0
  6
CONTINUOUS
 10
4.411000
 20
2.482040
  0
VERTEX
  8
0
  6
CONTINUOUS
 10
3.750120
 20
2.112000
  0
VERTEX
  8
0
  6
CONTINUOUS
 10
3.736920
 20
2.154680
  0
SEQEND
  8
0
  0
SOLID
  8
0
 62
    15
 10
3.659920
 20
2.242240
 11
4.320800
 21
2.612280
 12
3.690720
 22
2.219800
 13
4.351600
 23
2.589840
  0
POLYLINE
  8
0
  6
CONTINUOUS
 66
     1
 40
0.000000
 41
0.000000
  0
VERTEX
  8
0
  6
CONTINUOUS
 10
3.659920
 20
2.242240
  0
VERTEX
  8
0
  6
CONTINUOUS
 10
4.320800
 20
2.612280
  0
VERTEX
  8
0
  6
CONTINUOUS
 10
4.351600
 20
2.589840
  0
VERTEX
  8
0
  6
CONTINUOUS
 10
3.690720
 20
2.219800
  0
VERTEX
  8
0
  6
CONTINUOUS
 10
3.659920
 20
2.242240
  0
SEQEND
  8
0
  0
SOLID
  8
0
 62
    15
 10
3.754520
 20
1.811040
 11
4.415400
 21
2.181520
 12
3.749680
 22
1.761320
 13
4.410560
 23
2.131800
  0
POLYLINE
  8
0
  6
CONTINUOUS
 66
     1
 40
0.000000
 41
0.000000
  0
VERTEX
  8
0
  6
CONTINUOUS
 10
3.754520
 20
1.811040
  0
VERTEX
  8
0
  6
CONTINUOUS
 10
4.415400
 20
2.181520
  0
VERTEX
  8
0
  6
CONTINUOUS
 10
4.410560
 20
2.131800
  0
VERTEX
  8
0
  6
CONTINUOUS
 10
3.749680
 20
1.761320
  0
VERTEX
  8
0
  6
CONTINUOUS
 10
3.754520
 20
1.811040
  0
SEQEND
  8
0
  0
SOLID
  8
0
 62
    15
 10
3.749680
 20
1.761320
 11
4.410560
 21
2.131800
 12
3.736480
 22
1.718640
 13
4.397360
 23
2.088680
  0
POLYLINE
  8
0
  6
CONTINUOUS
 66
     1
 40
0.000000
 41
0.000000
  0
VERTEX
  8
0
  6
CONTINUOUS
 10
3.749680
 20
1.761320
  0
VERTEX
  8
0
  6
CONTINUOUS
 10
4.410560
 20
2.131800
  0
VERTEX
  8
0
  6
CONTINUOUS
 10
4.397360
 20
2.088680
  0
VERTEX
  8
0
  6
CONTINUOUS
 10
3.736480
 20
1.718640
  0
VERTEX
  8
0
  6
CONTINUOUS
 10
3.749680
 20
1.761320
  0
SEQEND
  8
0
  0
SOLID
  8
0
 62
    15
 10
3.408240
 20
1.481040
 11
4.069120
 21
1.851520
 12
3.371720
 22
1.451560
 13
4.032600
 23
1.821600
  0
POLYLINE
  8
0
  6
CONTINUOUS
 66
     1
 40
0.000000
 41
0.000000
  0
VERTEX
  8
0
  6
CONTINUOUS
 10
3.408240
 20
1.481040
  0
VERTEX
  8
0
  6
CONTINUOUS
 10
4.069120
 20
1.851520
  0
VERTEX
  8
0
  6
CONTINUOUS
 10
4.032600
 20
1.821600
  0
VERTEX
  8
0
  6
CONTINUOUS
 10
3.371720
 20
1.451560
  0
VERTEX
  8
0
  6
CONTINUOUS
 10
3.408240
 20
1.481040
  0
SEQEND
  8
0
  0
SOLID
  8
0
 62
    15
 10
3.371720
 20
1.451560
 11
4.032600
 21
1.821600
 12
3.342680
 22
1.417240
 13
4.003560
 23
1.787720
  0
POLYLINE
  8
0
  6
CONTINUOUS
 66
     1
 40
0.000000
 41
0.000000
  0
VERTEX
  8
0
  6
CONTINUOUS
 10
3.371720
 20
1.451560
  0
VERTEX
  8
0
  6
CONTINUOUS
 10
4.032600
 20
1.821600
  0
VERTEX
  8
0
  6
CONTINUOUS
 10
4.003560
 20
1.787720
  0
VERTEX
  8
0
  6
CONTINUOUS
 10
3.342680
 20
1.417240
  0
VERTEX
  8
0
  6
CONTINUOUS
 10
3.371720
 20
1.451560
  0
SEQEND
  8
0
  0
SOLID
  8
0
 62
    15
 10
3.342680
 20
1.417240
 11
4.003560
 21
1.787720
 12
3.321120
 22
1.380720
 13
3.982000
 23
1.751200
  0
POLYLINE
  8
0
  6
CONTINUOUS
 66
     1
 40
0.000000
 41
0.000000
  0
VERTEX
  8
0
  6
CONTINUOUS
 10
3.342680
 20
1.417240
  0
VERTEX
  8
0
  6
CONTINUOUS
 10
4.003560
 20
1.787720
  0
VERTEX
  8
0
  6
CONTINUOUS
 10
3.982000
 20
1.751200
  0
VERTEX
  8
0
  6
CONTINUOUS
 10
3.321120
 20
1.380720
  0
VERTEX
  8
0
  6
CONTINUOUS
 10
3.342680
 20
1.417240
  0
SEQEND
  8
0
  0
SOLID
  8
0
 62
    15
 10
3.555200
 20
1.601600
 11
4.216080
 21
1.971640
 12
3.555200
 22
1.525920
 13
4.216080
 23
1.896400
  0
POLYLINE
  8
0
  6
CONTINUOUS
 66
     1
 40
0.000000
 41
0.000000
  0
VERTEX
  8
0
  6
CONTINUOUS
 10
3.555200
 20
1.601600
  0
VERTEX
  8
0
  6
CONTINUOUS
 10
4.216080
 20
1.971640
  0
VERTEX
  8
0
  6
CONTINUOUS
 10
4.216080
 20
1.896400
  0
VERTEX
  8
0
  6
CONTINUOUS
 10
3.555200
 20
1.525920
  0
VERTEX
  8
0
  6
CONTINUOUS
 10
3.555200
 20
1.601600
  0
SEQEND
  8
0
  0
SOLID
  8
0
 62
    15
 10
3.716240
 20
1.682560
 11
4.377120
 21
2.053040
 12
3.690280
 22
1.653520
 13
4.351160
 23
2.024000
  0
POLYLINE
  8
0
  6
CONTINUOUS
 66
     1
 40
0.000000
 41
0.000000
  0
VERTEX
  8
0
  6
CONTINUOUS
 10
3.716240
 20
1.682560
  0
VERTEX
  8
0
  6
CONTINUOUS
 10
4.377120
 20
2.053040
  0
VERTEX
  8
0
  6
CONTINUOUS
 10
4.351160
 20
2.024000
  0
VERTEX
  8
0
  6
CONTINUOUS
 10
3.690280
 20
1.653520
  0
VERTEX
  8
0
  6
CONTINUOUS
 10
3.716240
 20
1.682560
  0
SEQEND
  8
0
  0
SOLID
  8
0
 62
    15
 10
3.690280
 20
1.653520
 11
4.351160
 21
2.024000
 12
3.659480
 22
1.631080
 13
4.320800
 23
2.001560
  0
POLYLINE
  8
0
  6
CONTINUOUS
 66
     1
 40
0.000000
 41
0.000000
  0
VERTEX
  8
0
  6
CONTINUOUS
 10
3.690280
 20
1.653520
  0
VERTEX
  8
0
  6
CONTINUOUS
 10
4.351160
 20
2.024000
  0
VERTEX
  8
0
  6
CONTINUOUS
 10
4.320800
 20
2.001560
  0
VERTEX
  8
0
  6
CONTINUOUS
 10
3.659480
 20
1.631080
  0
VERTEX
  8
0
  6
CONTINUOUS
 10
3.690280
 20
1.653520
  0
SEQEND
  8
0
  0
SOLID
  8
0
 62
    15
 10
3.736480
 20
1.718640
 11
4.397360
 21
2.088680
 12
3.716240
 22
1.682560
 13
4.377120
 23
2.053040
  0
POLYLINE
  8
0
  6
CONTINUOUS
 66
     1
 40
0.000000
 41
0.000000
  0
VERTEX
  8
0
  6
CONTINUOUS
 10
3.736480
 20
1.718640
  0
VERTEX
  8
0
  6
CONTINUOUS
 10
4.397360
 20
2.088680
  0
VERTEX
  8
0
  6
CONTINUOUS
 10
4.377120
 20
2.053040
  0
VERTEX
  8
0
  6
CONTINUOUS
 10
3.716240
 20
1.682560
  0
VERTEX
  8
0
  6
CONTINUOUS
 10
3.736480
 20
1.718640
  0
SEQEND
  8
0
  0
SOLID
  8
0
 62
    15
 10
3.321120
 20
1.380720
 11
3.982000
 21
1.751200
 12
3.307920
 22
1.343760
 13
3.968800
 23
1.713800
  0
POLYLINE
  8
0
  6
CONTINUOUS
 66
     1
 40
0.000000
 41
0.000000
  0
VERTEX
  8
0
  6
CONTINUOUS
 10
3.321120
 20
1.380720
  0
VERTEX
  8
0
  6
CONTINUOUS
 10
3.982000
 20
1.751200
  0
VERTEX
  8
0
  6
CONTINUOUS
 10
3.968800
 20
1.713800
  0
VERTEX
  8
0
  6
CONTINUOUS
 10
3.307920
 20
1.343760
  0
VERTEX
  8
0
  6
CONTINUOUS
 10
3.321120
 20
1.380720
  0
SEQEND
  8
0
  0
SOLID
  8
0
 62
    15
 10
3.246760
 20
1.307680
 11
3.907640
 21
1.678160
 12
3.246760
 22
1.234200
 13
3.907640
 23
1.604680
  0
POLYLINE
  8
0
  6
CONTINUOUS
 66
     1
 40
0.000000
 41
0.000000
  0
VERTEX
  8
0
  6
CONTINUOUS
 10
3.246760
 20
1.307680
  0
VERTEX
  8
0
  6
CONTINUOUS
 10
3.907640
 20
1.678160
  0
VERTEX
  8
0
  6
CONTINUOUS
 10
3.907640
 20
1.604680
  0
VERTEX
  8
0
  6
CONTINUOUS
 10
3.246760
 20
1.234200
  0
VERTEX
  8
0
  6
CONTINUOUS
 10
3.246760
 20
1.307680
  0
SEQEND
  8
0
  0
SOLID
  8
0
 62
    15
 10
3.307920
 20
1.343760
 11
3.968800
 21
1.713800
 12
3.303520
 22
1.307680
 13
3.964400
 23
1.678160
  0
POLYLINE
  8
0
  6
CONTINUOUS
 66
     1
 40
0.000000
 41
0.000000
  0
VERTEX
  8
0
  6
CONTINUOUS
 10
3.307920
 20
1.343760
  0
VERTEX
  8
0
  6
CONTINUOUS
 10
3.968800
 20
1.713800
  0
VERTEX
  8
0
  6
CONTINUOUS
 10
3.964400
 20
1.678160
  0
VERTEX
  8
0
  6
CONTINUOUS
 10
3.303520
 20
1.307680
  0
VERTEX
  8
0
  6
CONTINUOUS
 10
3.307920
 20
1.343760
  0
SEQEND
  8
0
  0
SOLID
  8
0
 62
    15
 10
1.745920
 20
2.639120
 11
2.406800
 21
3.009160
 12
3.247200
 22
2.639120
 13
3.908080
 23
3.009160
  0
POLYLINE
  8
0
  6
CONTINUOUS
 66
     1
 40
0.000000
 41
0.000000
  0
VERTEX
  8
0
  6
CONTINUOUS
 10
1.745920
 20
2.639120
  0
VERTEX
  8
0
  6
CONTINUOUS
 10
2.406800
 20
3.009160
  0
VERTEX
  8
0
  6
CONTINUOUS
 10
3.908080
 20
3.009160
  0
VERTEX
  8
0
  6
CONTINUOUS
 10
3.247200
 20
2.639120
  0
VERTEX
  8
0
  6
CONTINUOUS
 10
1.745920
 20
2.639120
  0
SEQEND
  8
0
  0
POLYLINE
  8
0
  6
CONTINUOUS
 66
     1
 40
0.000000
 41
0.000000
  0
VERTEX
  8
0
  6
CONTINUOUS
 10
1.745920
 20
2.618440
  0
VERTEX
  8
0
  6
CONTINUOUS
 10
1.745920
 20
2.639120
  0
VERTEX
  8
0
  6
CONTINUOUS
 10
3.247200
 20
2.639120
  0
VERTEX
  8
0
  6
CONTINUOUS
 10
3.247200
 20
2.565640
  0
VERTEX
  8
0
  6
CONTINUOUS
 10
3.303960
 20
2.565640
  0
VERTEX
  8
0
  6
CONTINUOUS
 10
3.308360
 20
2.529560
  0
VERTEX
  8
0
  6
CONTINUOUS
 10
3.321560
 20
2.492600
  0
VERTEX
  8
0
  6
CONTINUOUS
 10
3.343120
 20
2.456080
  0
VERTEX
  8
0
  6
CONTINUOUS
 10
3.372160
 20
2.421760
  0
VERTEX
  8
0
  6
CONTINUOUS
 10
3.408680
 20
2.391840
  0
VERTEX
  8
0
  6
CONTINUOUS
 10
3.451800
 20
2.368520
  0
VERTEX
  8
0
  6
CONTINUOUS
 10
3.500640
 20
2.353120
  0
VERTEX
  8
0
  6
CONTINUOUS
 10
3.555640
 20
2.347400
  0
VERTEX
  8
0
  6
CONTINUOUS
 10
3.555640
 20
2.271720
  0
VERTEX
  8
0
  6
CONTINUOUS
 10
3.626480
 20
2.258080
  0
VERTEX
  8
0
  6
CONTINUOUS
 10
3.659920
 20
2.242240
  0
VERTEX
  8
0
  6
CONTINUOUS
 10
3.690720
 20
2.219800
  0
VERTEX
  8
0
  6
CONTINUOUS
 10
3.716680
 20
2.190760
  0
VERTEX
  8
0
  6
CONTINUOUS
 10
3.736920
 20
2.154680
  0
VERTEX
  8
0
  6
CONTINUOUS
 10
3.750120
 20
2.112000
  0
VERTEX
  8
0
  6
CONTINUOUS
 10
3.754960
 20
2.061840
  0
VERTEX
  8
0
  6
CONTINUOUS
 10
3.370840
 20
2.061840
  0
VERTEX
  8
0
  6
CONTINUOUS
 10
3.370840
 20
1.811040
  0
VERTEX
  8
0
  6
CONTINUOUS
 10
3.370400
 20
1.811040
  0
VERTEX
  8
0
  6
CONTINUOUS
 10
3.754520
 20
1.811040
  0
VERTEX
  8
0
  6
CONTINUOUS
 10
3.749680
 20
1.761320
  0
VERTEX
  8
0
  6
CONTINUOUS
 10
3.736480
 20
1.718640
  0
VERTEX
  8
0
  6
CONTINUOUS
 10
3.716240
 20
1.682560
  0
VERTEX
  8
0
  6
CONTINUOUS
 10
3.690280
 20
1.653520
  0
VERTEX
  8
0
  6
CONTINUOUS
 10
3.659480
 20
1.631080
  0
VERTEX
  8
0
  6
CONTINUOUS
 10
3.626040
 20
1.614800
  0
VERTEX
  8
0
  6
CONTINUOUS
 10
3.555200
 20
1.601600
  0
VERTEX
  8
0
  6
CONTINUOUS
 10
3.555200
 20
1.525920
  0
VERTEX
  8
0
  6
CONTINUOUS
 10
3.500200
 20
1.520200
  0
VERTEX
  8
0
  6
CONTINUOUS
 10
3.451360
 20
1.504800
  0
VERTEX
  8
0
  6
CONTINUOUS
 10
3.408240
 20
1.481040
  0
VERTEX
  8
0
  6
CONTINUOUS
 10
3.371720
 20
1.451560
  0
VERTEX
  8
0
  6
CONTINUOUS
 10
3.342680
 20
1.417240
  0
VERTEX
  8
0
  6
CONTINUOUS
 10
3.321120
 20
1.380720
  0
VERTEX
  8
0
  6
CONTINUOUS
 10
3.307920
 20
1.343760
  0
VERTEX
  8
0
  6
CONTINUOUS
 10
3.303520
 20
1.307680
  0
VERTEX
  8
0
  6
CONTINUOUS
 10
3.246760
 20
1.307680
  0
VERTEX
  8
0
  6
CONTINUOUS
 10
3.246760
 20
1.234200
  0
VERTEX
  8
0
  6
CONTINUOUS
 10
1.746360
 20
1.234200
  0
VERTEX
  8
0
  6
CONTINUOUS
 10
1.746360
 20
2.635160
  0
VERTEX
  8
0
  6
CONTINUOUS
 10
1.745920
 20
2.618440
  0
SEQEND
  8
0
  0
SOLID
  8
0
 62
    15
 10
4.546080
 20
1.811040
 11
5.208720
 21
2.184160
 12
4.546520
 22
1.811040
 13
5.209160
 23
2.184160
  0
POLYLINE
  8
0
  6
CONTINUOUS
 66
     1
 40
0.000000
 41
0.000000
  0
VERTEX
  8
0
  6
CONTINUOUS
 10
4.546080
 20
1.811040
  0
VERTEX
  8
0
  6
CONTINUOUS
 10
5.208720
 20
2.184160
  0
VERTEX
  8
0
  6
CONTINUOUS
 10
5.209160
 20
2.184160
  0
VERTEX
  8
0
  6
CONTINUOUS
 10
4.546520
 20
1.811040
  0
VERTEX
  8
0
  6
CONTINUOUS
 10
4.546080
 20
1.811040
  0
SEQEND
  8
0
  0
SOLID
  8
0
 62
    15
 10
4.583920
 20
1.481040
 11
5.246560
 21
1.854160
 12
4.626600
 22
1.504800
 13
5.289680
 23
1.877920
  0
POLYLINE
  8
0
  6
CONTINUOUS
 66
     1
 40
0.000000
 41
0.000000
  0
VERTEX
  8
0
  6
CONTINUOUS
 10
4.583920
 20
1.481040
  0
VERTEX
  8
0
  6
CONTINUOUS
 10
5.246560
 20
1.854160
  0
VERTEX
  8
0
  6
CONTINUOUS
 10
5.289680
 20
1.877920
  0
VERTEX
  8
0
  6
CONTINUOUS
 10
4.626600
 20
1.504800
  0
VERTEX
  8
0
  6
CONTINUOUS
 10
4.583920
 20
1.481040
  0
SEQEND
  8
0
  0
SOLID
  8
0
 62
    15
 10
4.626600
 20
1.504800
 11
5.289680
 21
1.877920
 12
4.675880
 22
1.520200
 13
5.338960
 23
1.893320
  0
POLYLINE
  8
0
  6
CONTINUOUS
 66
     1
 40
0.000000
 41
0.000000
  0
VERTEX
  8
0
  6
CONTINUOUS
 10
4.626600
 20
1.504800
  0
VERTEX
  8
0
  6
CONTINUOUS
 10
5.289680
 20
1.877920
  0
VERTEX
  8
0
  6
CONTINUOUS
 10
5.338960
 20
1.893320
  0
VERTEX
  8
0
  6
CONTINUOUS
 10
4.675880
 20
1.520200
  0
VERTEX
  8
0
  6
CONTINUOUS
 10
4.626600
 20
1.504800
  0
SEQEND
  8
0
  0
SOLID
  8
0
 62
    15
 10
4.675880
 20
1.520200
 11
5.338960
 21
1.893320
 12
4.730880
 22
1.525920
 13
5.393520
 23
1.899040
  0
POLYLINE
  8
0
  6
CONTINUOUS
 66
     1
 40
0.000000
 41
0.000000
  0
VERTEX
  8
0
  6
CONTINUOUS
 10
4.675880
 20
1.520200
  0
VERTEX
  8
0
  6
CONTINUOUS
 10
5.338960
 20
1.893320
  0
VERTEX
  8
0
  6
CONTINUOUS
 10
5.393520
 20
1.899040
  0
VERTEX
  8
0
  6
CONTINUOUS
 10
4.730880
 20
1.525920
  0
VERTEX
  8
0
  6
CONTINUOUS
 10
4.675880
 20
1.520200
  0
SEQEND
  8
0
  0
SOLID
  8
0
 62
    15
 10
4.730880
 20
1.601600
 11
5.393520
 21
1.974280
 12
4.801720
 22
1.614800
 13
5.464360
 23
1.987920
  0
POLYLINE
  8
0
  6
CONTINUOUS
 66
     1
 40
0.000000
 41
0.000000
  0
VERTEX
  8
0
  6
CONTINUOUS
 10
4.730880
 20
1.601600
  0
VERTEX
  8
0
  6
CONTINUOUS
 10
5.393520
 20
1.974280
  0
VERTEX
  8
0
  6
CONTINUOUS
 10
5.464360
 20
1.987920
  0
VERTEX
  8
0
  6
CONTINUOUS
 10
4.801720
 20
1.614800
  0
VERTEX
  8
0
  6
CONTINUOUS
 10
4.730880
 20
1.601600
  0
SEQEND
  8
0
  0
SOLID
  8
0
 62
    15
 10
4.801720
 20
1.614800
 11
5.464360
 21
1.987920
 12
4.835160
 22
1.631080
 13
5.498240
 23
2.004200
  0
POLYLINE
  8
0
  6
CONTINUOUS
 66
     1
 40
0.000000
 41
0.000000
  0
VERTEX
  8
0
  6
CONTINUOUS
 10
4.801720
 20
1.614800
  0
VERTEX
  8
0
  6
CONTINUOUS
 10
5.464360
 20
1.987920
  0
VERTEX
  8
0
  6
CONTINUOUS
 10
5.498240
 20
2.004200
  0
VERTEX
  8
0
  6
CONTINUOUS
 10
4.835160
 20
1.631080
  0
VERTEX
  8
0
  6
CONTINUOUS
 10
4.801720
 20
1.614800
  0
SEQEND
  8
0
  0
SOLID
  8
0
 62
    15
 10
4.422440
 20
1.307680
 11
5.085080
 21
1.680800
 12
4.479200
 22
1.307680
 13
5.141840
 23
1.680800
  0
POLYLINE
  8
0
  6
CONTINUOUS
 66
     1
 40
0.000000
 41
0.000000
  0
VERTEX
  8
0
  6
CONTINUOUS
 10
4.422440
 20
1.307680
  0
VERTEX
  8
0
  6
CONTINUOUS
 10
5.085080
 20
1.680800
  0
VERTEX
  8
0
  6
CONTINUOUS
 10
5.141840
 20
1.680800
  0
VERTEX
  8
0
  6
CONTINUOUS
 10
4.479200
 20
1.307680
  0
VERTEX
  8
0
  6
CONTINUOUS
 10
4.422440
 20
1.307680
  0
SEQEND
  8
0
  0
SOLID
  8
0
 62
    15
 10
4.546520
 20
2.061840
 11
5.209160
 21
2.434960
 12
4.930640
 22
2.061840
 13
5.593280
 23
2.434960
  0
POLYLINE
  8
0
  6
CONTINUOUS
 66
     1
 40
0.000000
 41
0.000000
  0
VERTEX
  8
0
  6
CONTINUOUS
 10
4.546520
 20
2.061840
  0
VERTEX
  8
0
  6
CONTINUOUS
 10
5.209160
 20
2.434960
  0
VERTEX
  8
0
  6
CONTINUOUS
 10
5.593280
 20
2.434960
  0
VERTEX
  8
0
  6
CONTINUOUS
 10
4.930640
 20
2.061840
  0
VERTEX
  8
0
  6
CONTINUOUS
 10
4.546520
 20
2.061840
  0
SEQEND
  8
0
  0
SOLID
  8
0
 62
     7
 10
4.422880
 20
2.640000
 11
5.085520
 21
3.013120
 12
4.423320
 22
2.638680
 13
5.085960
 23
3.011800
  0
POLYLINE
  8
0
  6
CONTINUOUS
 66
     1
 40
0.000000
 41
0.000000
  0
VERTEX
  8
0
  6
CONTINUOUS
 10
4.422880
 20
2.640000
  0
VERTEX
  8
0
  6
CONTINUOUS
 10
5.085520
 20
3.013120
  0
VERTEX
  8
0
  6
CONTINUOUS
 10
5.085960
 20
3.011800
  0
VERTEX
  8
0
  6
CONTINUOUS
 10
4.423320
 20
2.638680
  0
VERTEX
  8
0
  6
CONTINUOUS
 10
4.422880
 20
2.640000
  0
SEQEND
  8
0
  0
SOLID
  8
0
 62
    15
 10
4.425080
 20
2.641320
 11
5.088160
 21
3.014000
 12
5.925480
 22
2.641320
 13
6.588120
 23
3.014000
  0
POLYLINE
  8
0
  6
CONTINUOUS
 66
     1
 40
0.000000
 41
0.000000
  0
VERTEX
  8
0
  6
CONTINUOUS
 10
4.425080
 20
2.641320
  0
VERTEX
  8
0
  6
CONTINUOUS
 10
5.088160
 20
3.014000
  0
VERTEX
  8
0
  6
CONTINUOUS
 10
6.588120
 20
3.014000
  0
VERTEX
  8
0
  6
CONTINUOUS
 10
5.925480
 20
2.641320
  0
VERTEX
  8
0
  6
CONTINUOUS
 10
4.425080
 20
2.641320
  0
SEQEND
  8
0
  0
SOLID
  8
0
 62
    15
 10
5.925480
 20
2.641320
 11
6.588120
 21
3.014000
 12
5.925480
 22
1.235960
 13
6.588120
 23
1.609080
  0
POLYLINE
  8
0
  6
CONTINUOUS
 66
     1
 40
0.000000
 41
0.000000
  0
VERTEX
  8
0
  6
CONTINUOUS
 10
5.925480
 20
2.641320
  0
VERTEX
  8
0
  6
CONTINUOUS
 10
6.588120
 20
3.014000
  0
VERTEX
  8
0
  6
CONTINUOUS
 10
6.588120
 20
1.609080
  0
VERTEX
  8
0
  6
CONTINUOUS
 10
5.925480
 20
1.235960
  0
VERTEX
  8
0
  6
CONTINUOUS
 10
5.925480
 20
2.641320
  0
SEQEND
  8
0
  0
SOLID
  8
0
 62
     7
 10
4.419800
 20
1.235960
 11
5.082440
 21
1.609080
 12
4.422440
 22
1.234200
 13
5.085080
 23
1.607320
  0
POLYLINE
  8
0
  6
CONTINUOUS
 66
     1
 40
0.000000
 41
0.000000
  0
VERTEX
  8
0
  6
CONTINUOUS
 10
4.419800
 20
1.235960
  0
VERTEX
  8
0
  6
CONTINUOUS
 10
5.082440
 20
1.609080
  0
VERTEX
  8
0
  6
CONTINUOUS
 10
5.085080
 20
1.607320
  0
VERTEX
  8
0
  6
CONTINUOUS
 10
4.422440
 20
1.234200
  0
VERTEX
  8
0
  6
CONTINUOUS
 10
4.419800
 20
1.235960
  0
SEQEND
  8
0
  0
POLYLINE
  8
0
  6
CONTINUOUS
 66
     1
 40
0.000000
 41
0.000000
  0
VERTEX
  8
0
  6
CONTINUOUS
 10
4.422440
 20
1.234200
  0
VERTEX
  8
0
  6
CONTINUOUS
 10
4.422440
 20
1.307680
  0
VERTEX
  8
0
  6
CONTINUOUS
 10
4.479200
 20
1.307680
  0
VERTEX
  8
0
  6
CONTINUOUS
 10
4.483600
 20
1.343760
  0
VERTEX
  8
0
  6
CONTINUOUS
 10
4.496800
 20
1.380720
  0
VERTEX
  8
0
  6
CONTINUOUS
 10
4.518360
 20
1.417240
  0
VERTEX
  8
0
  6
CONTINUOUS
 10
4.547400
 20
1.451560
  0
VERTEX
  8
0
  6
CONTINUOUS
 10
4.583920
 20
1.481040
  0
VERTEX
  8
0
  6
CONTINUOUS
 10
4.626600
 20
1.504800
  0
VERTEX
  8
0
  6
CONTINUOUS
 10
4.675880
 20
1.520200
  0
VERTEX
  8
0
  6
CONTINUOUS
 10
4.730880
 20
1.525920
  0
VERTEX
  8
0
  6
CONTINUOUS
 10
4.730880
 20
1.601600
  0
VERTEX
  8
0
  6
CONTINUOUS
 10
4.801720
 20
1.614800
  0
VERTEX
  8
0
  6
CONTINUOUS
 10
4.835160
 20
1.631080
  0
VERTEX
  8
0
  6
CONTINUOUS
 10
4.865960
 20
1.653520
  0
VERTEX
  8
0
  6
CONTINUOUS
 10
4.891920
 20
1.682560
  0
VERTEX
  8
0
  6
CONTINUOUS
 10
4.912160
 20
1.718640
  0
VERTEX
  8
0
  6
CONTINUOUS
 10
4.925360
 20
1.761320
  0
VERTEX
  8
0
  6
CONTINUOUS
 10
4.930200
 20
1.811040
  0
VERTEX
  8
0
  6
CONTINUOUS
 10
4.546080
 20
1.811040
  0
VERTEX
  8
0
  6
CONTINUOUS
 10
4.546520
 20
1.811040
  0
VERTEX
  8
0
  6
CONTINUOUS
 10
4.546520
 20
2.061840
  0
VERTEX
  8
0
  6
CONTINUOUS
 10
4.930640
 20
2.061840
  0
VERTEX
  8
0
  6
CONTINUOUS
 10
4.925800
 20
2.112000
  0
VERTEX
  8
0
  6
CONTINUOUS
 10
4.912600
 20
2.154680
  0
VERTEX
  8
0
  6
CONTINUOUS
 10
4.892360
 20
2.190760
  0
VERTEX
  8
0
  6
CONTINUOUS
 10
4.866400
 20
2.219800
  0
VERTEX
  8
0
  6
CONTINUOUS
 10
4.835600
 20
2.242240
  0
VERTEX
  8
0
  6
CONTINUOUS
 10
4.802160
 20
2.258080
  0
VERTEX
  8
0
  6
CONTINUOUS
 10
4.731320
 20
2.271720
  0
VERTEX
  8
0
  6
CONTINUOUS
 10
4.731320
 20
2.347400
  0
VERTEX
  8
0
  6
CONTINUOUS
 10
4.676320
 20
2.353120
  0
VERTEX
  8
0
  6
CONTINUOUS
 10
4.627040
 20
2.368520
  0
VERTEX
  8
0
  6
CONTINUOUS
 10
4.584360
 20
2.391840
  0
VERTEX
  8
0
  6
CONTINUOUS
 10
4.547840
 20
2.421760
  0
VERTEX
  8
0
  6
CONTINUOUS
 10
4.518800
 20
2.456080
  0
VERTEX
  8
0
  6
CONTINUOUS
 10
4.497240
 20
2.492600
  0
VERTEX
  8
0
  6
CONTINUOUS
 10
4.484040
 20
2.529560
  0
VERTEX
  8
0
  6
CONTINUOUS
 10
4.479200
 20
2.565640
  0
VERTEX
  8
0
  6
CONTINUOUS
 10
4.422880
 20
2.565640
  0
VERTEX
  8
0
  6
CONTINUOUS
 10
4.422880
 20
2.640000
  0
VERTEX
  8
0
  6
CONTINUOUS
 10
4.423320
 20
2.638680
  0
VERTEX
  8
0
  6
CONTINUOUS
 10
4.425080
 20
2.641320
  0
VERTEX
  8
0
  6
CONTINUOUS
 10
5.925480
 20
2.641320
  0
VERTEX
  8
0
  6
CONTINUOUS
 10
5.925480
 20
1.235960
  0
VERTEX
  8
0
  6
CONTINUOUS
 10
4.419800
 20
1.235960
  0
VERTEX
  8
0
  6
CONTINUOUS
 10
4.422440
 20
1.234200
  0
SEQEND
  8
0
  0
TEXT
  8
0
 10
3.683240
 20
1.010680
 40
0.138040
  1
BA  587A& B
 41
1.000000
  7
SN0
 71
     0
 72
     5
 11
4.650797
 21
1.010680
  0
TEXT
  8
0
 10
3.949000
 20
0.818840
 40
0.138040
  1
1-3/8"
 41
1.000000
  7
SN0
 71
     0
 72
     5
 11
4.385300
 21
0.818840
  0
ENDSEC
  0
EOF
