  0
SECTION
  2
HEADER
  9
$ACADVER
  1
AC1006
  9
$EXTMIN
 10
4.403520
 20
0.344960
  9
$EXTMAX
 10
6.930000
 20
2.229920
  9
$LTSCALE
 40
0.044000
  9
$PDMODE
 70
    35
  9
$PDSIZE
 40
0.035200
  0
ENDSEC
  0
SECTION
  2
TABLES
  0
TABLE
  2
LTYPE
 70
     9
  0
LTYPE
  2
CONTINUOUS
 70
    64
  3
Solid line
 72
    65
 73
     0
 40
0.000000
  0
LTYPE
  2
DASHED
 70
    64
  3
__ __ __ __ __ __ __ __ __ __ __ __ __ __ __
 72
    65
 73
     2
 40
0.000330
 49
0.000220
 49
-0.000110
  0
LTYPE
  2
HIDDEN
 70
    64
  3
 _ _ _ _ _ _ _ _ _ _ _ _ _ _ _ _ _ _ _ _ _ _
 72
    65
 73
     2
 40
0.000165
 49
0.000110
 49
-0.000055
  0
LTYPE
  2
CENTER
 70
    64
  3
____ _ ____ _ ____ _ ____ _ ____ _ ____ _ ____
 72
    65
 73
     4
 40
0.000880
 49
0.000550
 49
-0.000110
 49
0.000110
 49
-0.000110
  0
LTYPE
  2
PHANTOM
 70
    64
  3
_____ _ _ _____ _ _ _____ _ _ _____ _ _ ____
 72
    65
 73
     6
 40
0.001100
 49
0.000550
 49
-0.000110
 49
0.000110
 49
-0.000110
 49
0.000110
 49
-0.000110
  0
LTYPE
  2
DOT
 70
    64
  3
...............................................
 72
    65
 73
     2
 40
0.000110
 49
0.000000
 49
-0.000110
  0
LTYPE
  2
DASHDOT
 70
    64
  3
__ . __ . __ . __ . __ . __ . __ . __ . __ . __
 72
    65
 73
     4
 40
0.000440
 49
0.000220
 49
-0.000110
 49
0.000000
 49
-0.000110
  0
LTYPE
  2
BORDER
 70
    64
  3
__ __ . __ __ . __ __ . __ __ . __ __ . __ __
 72
    65
 73
     6
 40
0.000770
 49
0.000220
 49
-0.000110
 49
0.000220
 49
-0.000110
 49
0.000000
 49
-0.000110
  0
LTYPE
  2
DIVIDE
 70
    64
  3
__ . . __ . . __ . . __ . . __ . . __ . . __
 72
    65
 73
     6
 40
0.000550
 49
0.000220
 49
-0.000110
 49
0.000000
 49
-0.000110
 49
0.000000
 49
-0.000110
  0
LTYPE
  2
DOTDOT
 70
    64
  3
 . .  . .  . .  . .  . .  . . 
 72
    65
 73
     5
 40
0.000242
 49
-0.000110
 49
0.000000
 49
-0.000110
 49
0.000000
 49
-0.000110
  0
ENDTAB
  0
TABLE
  2
STYLE
 70
     2
  0
STYLE
 70
     0
  2
SN0
 40
0.000000
 41
0.000440
 50
0.000000
 71
     0
 42
0.000000
  3
ROMAND
  0
STYLE
 70
    68
  2
SV0
 40
0.000000
 41
0.000440
 50
0.000000
 71
     0
 42
0.000000
  3
ROMAND
  0
ENDTAB
  0
TABLE
  2
LAYER
 70
     3
  0
LAYER
  2
FOREGROUND
 70
    64
 62
     7
  6
CONTINUOUS
  0
LAYER
  2
BACKGROUND
 70
    65
 62
    -7
  6
CONTINUOUS
  0
LAYER
  2
0
 70
    64
 62
     7
  6
CONTINUOUS
  0
ENDTAB
  0
ENDSEC
  0
SECTION
  2
ENTITIES
  0
POLYLINE
  8
FOREGROUND
  6
CONTINUOUS
 66
     1
 40
0.000000
 41
0.000000
  0
VERTEX
  8
FOREGROUND
  6
CONTINUOUS
 10
0.000000
 20
2.574880
  0
VERTEX
  8
FOREGROUND
  6
CONTINUOUS
 10
8.499920
 20
2.574880
  0
VERTEX
  8
FOREGROUND
  6
CONTINUOUS
 10
8.499920
 20
-8.425120
  0
VERTEX
  8
FOREGROUND
  6
CONTINUOUS
 10
0.000000
 20
-8.425120
  0
VERTEX
  8
FOREGROUND
  6
CONTINUOUS
 10
0.000000
 20
2.574880
  0
SEQEND
  8
0
  0
POLYLINE
  8
FOREGROUND
  6
CONTINUOUS
 66
     1
 40
0.000000
 41
0.000000
  0
VERTEX
  8
FOREGROUND
  6
CONTINUOUS
 10
0.000000
 20
2.574880
  0
VERTEX
  8
FOREGROUND
  6
CONTINUOUS
 10
8.499920
 20
2.574880
  0
VERTEX
  8
FOREGROUND
  6
CONTINUOUS
 10
8.499920
 20
-8.425120
  0
VERTEX
  8
FOREGROUND
  6
CONTINUOUS
 10
0.000000
 20
-8.425120
  0
VERTEX
  8
FOREGROUND
  6
CONTINUOUS
 10
0.000000
 20
2.574880
  0
SEQEND
  8
0
  0
POLYLINE
  8
0
  6
CONTINUOUS
 66
     1
 40
0.000000
 41
0.000000
  0
VERTEX
  8
0
  6
CONTINUOUS
 10
6.461840
 20
1.998040
  0
VERTEX
  8
0
  6
CONTINUOUS
 10
6.488680
 20
1.994080
  0
VERTEX
  8
0
  6
CONTINUOUS
 10
6.512880
 20
1.987920
  0
VERTEX
  8
0
  6
CONTINUOUS
 10
6.543680
 20
1.973400
  0
VERTEX
  8
0
  6
CONTINUOUS
 10
6.567880
 20
1.954480
  0
VERTEX
  8
0
  6
CONTINUOUS
 10
6.579760
 20
1.939960
  0
VERTEX
  8
0
  6
CONTINUOUS
 10
6.591200
 20
1.915760
  0
VERTEX
  8
0
  6
CONTINUOUS
 10
6.594280
 20
1.898600
  0
VERTEX
  8
0
  6
CONTINUOUS
 10
6.593400
 20
1.881000
  0
VERTEX
  8
0
  6
CONTINUOUS
 10
6.592080
 20
1.871760
  0
VERTEX
  8
0
  6
CONTINUOUS
 10
6.585480
 20
1.853720
  0
VERTEX
  8
0
  6
CONTINUOUS
 10
6.568320
 20
1.827320
  0
VERTEX
  8
0
  6
CONTINUOUS
 10
6.541920
 20
1.802240
  0
VERTEX
  8
0
  6
CONTINUOUS
 10
6.505400
 20
1.779800
  0
VERTEX
  8
0
  6
CONTINUOUS
 10
6.477680
 20
1.766160
  0
VERTEX
  8
0
  6
CONTINUOUS
 10
6.456560
 20
1.748560
  0
VERTEX
  8
0
  6
CONTINUOUS
 10
6.448640
 20
1.738440
  0
VERTEX
  8
0
  6
CONTINUOUS
 10
6.438520
 20
1.716440
  0
VERTEX
  8
0
  6
CONTINUOUS
 10
6.435880
 20
1.705000
  0
VERTEX
  8
0
  6
CONTINUOUS
 10
6.435000
 20
1.681240
  0
VERTEX
  8
0
  6
CONTINUOUS
 10
6.439840
 20
1.658800
  0
VERTEX
  8
0
  6
CONTINUOUS
 10
6.449960
 20
1.638560
  0
VERTEX
  8
0
  6
CONTINUOUS
 10
6.464920
 20
1.621840
  0
VERTEX
  8
0
  6
CONTINUOUS
 10
6.485160
 20
1.608640
  0
VERTEX
  8
0
  6
CONTINUOUS
 10
6.551600
 20
1.576080
  0
VERTEX
  8
0
  6
CONTINUOUS
 10
6.796680
 20
1.469160
  0
VERTEX
  8
0
  6
CONTINUOUS
 10
6.831880
 20
1.449800
  0
VERTEX
  8
0
  6
CONTINUOUS
 10
6.861800
 20
1.426040
  0
VERTEX
  8
0
  6
CONTINUOUS
 10
6.875000
 20
1.412840
  0
VERTEX
  8
0
  6
CONTINUOUS
 10
6.897000
 20
1.384240
  0
VERTEX
  8
0
  6
CONTINUOUS
 10
6.913280
 20
1.353000
  0
VERTEX
  8
0
  6
CONTINUOUS
 10
6.924280
 20
1.320880
  0
VERTEX
  8
0
  6
CONTINUOUS
 10
6.929120
 20
1.287440
  0
VERTEX
  8
0
  6
CONTINUOUS
 10
6.929560
 20
1.270720
  0
VERTEX
  8
0
  6
CONTINUOUS
 10
6.928680
 20
1.254000
  0
VERTEX
  8
0
  6
CONTINUOUS
 10
6.922080
 20
1.221440
  0
VERTEX
  8
0
  6
CONTINUOUS
 10
6.909320
 20
1.190200
  0
VERTEX
  8
0
  6
CONTINUOUS
 10
6.890400
 20
1.161160
  0
VERTEX
  8
0
  6
CONTINUOUS
 10
6.865320
 20
1.134760
  0
VERTEX
  8
0
  6
CONTINUOUS
 10
6.834080
 20
1.112760
  0
VERTEX
  8
0
  6
CONTINUOUS
 10
6.816040
 20
1.103080
  0
VERTEX
  8
0
  6
CONTINUOUS
 10
6.796240
 20
1.094720
  0
VERTEX
  8
0
  6
CONTINUOUS
 10
6.774680
 20
1.087680
  0
VERTEX
  8
0
  6
CONTINUOUS
 10
6.751800
 20
1.081960
  0
VERTEX
  8
0
  6
CONTINUOUS
 10
6.727160
 20
1.078000
  0
VERTEX
  8
0
  6
CONTINUOUS
 10
6.700760
 20
1.075360
  0
VERTEX
  8
0
  6
CONTINUOUS
 10
6.672600
 20
1.074480
  0
VERTEX
  8
0
  6
CONTINUOUS
 10
6.263400
 20
1.074480
  0
VERTEX
  8
0
  6
CONTINUOUS
 10
6.263400
 20
2.186800
  0
VERTEX
  8
0
  6
CONTINUOUS
 10
6.461840
 20
2.186800
  0
VERTEX
  8
0
  6
CONTINUOUS
 10
6.461840
 20
1.998040
  0
SEQEND
  8
0
  0
SOLID
  8
0
 62
    15
 10
4.614720
 20
1.290960
 11
5.246120
 21
1.657920
 12
4.640240
 22
1.276880
 13
5.271640
 23
1.643840
  0
POLYLINE
  8
0
  6
CONTINUOUS
 66
     1
 40
0.000000
 41
0.000000
  0
VERTEX
  8
0
  6
CONTINUOUS
 10
4.614720
 20
1.290960
  0
VERTEX
  8
0
  6
CONTINUOUS
 10
5.246120
 20
1.657920
  0
VERTEX
  8
0
  6
CONTINUOUS
 10
5.271640
 20
1.643840
  0
VERTEX
  8
0
  6
CONTINUOUS
 10
4.640240
 20
1.276880
  0
VERTEX
  8
0
  6
CONTINUOUS
 10
4.614720
 20
1.290960
  0
SEQEND
  8
0
  0
SOLID
  8
0
 62
    15
 10
4.629680
 20
1.670240
 11
5.261080
 21
2.036760
 12
4.653880
 22
1.663640
 13
5.285280
 23
2.030160
  0
POLYLINE
  8
0
  6
CONTINUOUS
 66
     1
 40
0.000000
 41
0.000000
  0
VERTEX
  8
0
  6
CONTINUOUS
 10
4.629680
 20
1.670240
  0
VERTEX
  8
0
  6
CONTINUOUS
 10
5.261080
 20
2.036760
  0
VERTEX
  8
0
  6
CONTINUOUS
 10
5.285280
 20
2.030160
  0
VERTEX
  8
0
  6
CONTINUOUS
 10
4.653880
 20
1.663640
  0
VERTEX
  8
0
  6
CONTINUOUS
 10
4.629680
 20
1.670240
  0
SEQEND
  8
0
  0
SOLID
  8
0
 62
    15
 10
4.653880
 20
1.663640
 11
5.285280
 21
2.030160
 12
4.675000
 22
1.654840
 13
5.306400
 23
2.021360
  0
POLYLINE
  8
0
  6
CONTINUOUS
 66
     1
 40
0.000000
 41
0.000000
  0
VERTEX
  8
0
  6
CONTINUOUS
 10
4.653880
 20
1.663640
  0
VERTEX
  8
0
  6
CONTINUOUS
 10
5.285280
 20
2.030160
  0
VERTEX
  8
0
  6
CONTINUOUS
 10
5.306400
 20
2.021360
  0
VERTEX
  8
0
  6
CONTINUOUS
 10
4.675000
 20
1.654840
  0
VERTEX
  8
0
  6
CONTINUOUS
 10
4.653880
 20
1.663640
  0
SEQEND
  8
0
  0
SOLID
  8
0
 62
    15
 10
4.675000
 20
1.654840
 11
5.306400
 21
2.021360
 12
4.693480
 22
1.643400
 13
5.324880
 23
2.010360
  0
POLYLINE
  8
0
  6
CONTINUOUS
 66
     1
 40
0.000000
 41
0.000000
  0
VERTEX
  8
0
  6
CONTINUOUS
 10
4.675000
 20
1.654840
  0
VERTEX
  8
0
  6
CONTINUOUS
 10
5.306400
 20
2.021360
  0
VERTEX
  8
0
  6
CONTINUOUS
 10
5.324880
 20
2.010360
  0
VERTEX
  8
0
  6
CONTINUOUS
 10
4.693480
 20
1.643400
  0
VERTEX
  8
0
  6
CONTINUOUS
 10
4.675000
 20
1.654840
  0
SEQEND
  8
0
  0
SOLID
  8
0
 62
    15
 10
4.693480
 20
1.643400
 11
5.324880
 21
2.010360
 12
4.708440
 22
1.630640
 13
5.339840
 23
1.997160
  0
POLYLINE
  8
0
  6
CONTINUOUS
 66
     1
 40
0.000000
 41
0.000000
  0
VERTEX
  8
0
  6
CONTINUOUS
 10
4.693480
 20
1.643400
  0
VERTEX
  8
0
  6
CONTINUOUS
 10
5.324880
 20
2.010360
  0
VERTEX
  8
0
  6
CONTINUOUS
 10
5.339840
 20
1.997160
  0
VERTEX
  8
0
  6
CONTINUOUS
 10
4.708440
 20
1.630640
  0
VERTEX
  8
0
  6
CONTINUOUS
 10
4.693480
 20
1.643400
  0
SEQEND
  8
0
  0
SOLID
  8
0
 62
    15
 10
4.708440
 20
1.630640
 11
5.339840
 21
1.997160
 12
4.720320
 22
1.616120
 13
5.351720
 23
1.982640
  0
POLYLINE
  8
0
  6
CONTINUOUS
 66
     1
 40
0.000000
 41
0.000000
  0
VERTEX
  8
0
  6
CONTINUOUS
 10
4.708440
 20
1.630640
  0
VERTEX
  8
0
  6
CONTINUOUS
 10
5.339840
 20
1.997160
  0
VERTEX
  8
0
  6
CONTINUOUS
 10
5.351720
 20
1.982640
  0
VERTEX
  8
0
  6
CONTINUOUS
 10
4.720320
 20
1.616120
  0
VERTEX
  8
0
  6
CONTINUOUS
 10
4.708440
 20
1.630640
  0
SEQEND
  8
0
  0
SOLID
  8
0
 62
    15
 10
4.720320
 20
1.616120
 11
5.351720
 21
1.982640
 12
4.728680
 22
1.599840
 13
5.360080
 23
1.966800
  0
POLYLINE
  8
0
  6
CONTINUOUS
 66
     1
 40
0.000000
 41
0.000000
  0
VERTEX
  8
0
  6
CONTINUOUS
 10
4.720320
 20
1.616120
  0
VERTEX
  8
0
  6
CONTINUOUS
 10
5.351720
 20
1.982640
  0
VERTEX
  8
0
  6
CONTINUOUS
 10
5.360080
 20
1.966800
  0
VERTEX
  8
0
  6
CONTINUOUS
 10
4.728680
 20
1.599840
  0
VERTEX
  8
0
  6
CONTINUOUS
 10
4.720320
 20
1.616120
  0
SEQEND
  8
0
  0
SOLID
  8
0
 62
    15
 10
4.728680
 20
1.599840
 11
5.360080
 21
1.966800
 12
4.733960
 22
1.583120
 13
5.365360
 23
1.950080
  0
POLYLINE
  8
0
  6
CONTINUOUS
 66
     1
 40
0.000000
 41
0.000000
  0
VERTEX
  8
0
  6
CONTINUOUS
 10
4.728680
 20
1.599840
  0
VERTEX
  8
0
  6
CONTINUOUS
 10
5.360080
 20
1.966800
  0
VERTEX
  8
0
  6
CONTINUOUS
 10
5.365360
 20
1.950080
  0
VERTEX
  8
0
  6
CONTINUOUS
 10
4.733960
 20
1.583120
  0
VERTEX
  8
0
  6
CONTINUOUS
 10
4.728680
 20
1.599840
  0
SEQEND
  8
0
  0
SOLID
  8
0
 62
    15
 10
4.733960
 20
1.583120
 11
5.365360
 21
1.950080
 12
4.734840
 22
1.565520
 13
5.366680
 23
1.932480
  0
POLYLINE
  8
0
  6
CONTINUOUS
 66
     1
 40
0.000000
 41
0.000000
  0
VERTEX
  8
0
  6
CONTINUOUS
 10
4.733960
 20
1.583120
  0
VERTEX
  8
0
  6
CONTINUOUS
 10
5.365360
 20
1.950080
  0
VERTEX
  8
0
  6
CONTINUOUS
 10
5.366680
 20
1.932480
  0
VERTEX
  8
0
  6
CONTINUOUS
 10
4.734840
 20
1.565520
  0
VERTEX
  8
0
  6
CONTINUOUS
 10
4.733960
 20
1.583120
  0
SEQEND
  8
0
  0
SOLID
  8
0
 62
    15
 10
4.734840
 20
1.565520
 11
5.366680
 21
1.932480
 12
4.732640
 22
1.547920
 13
5.364040
 23
1.914440
  0
POLYLINE
  8
0
  6
CONTINUOUS
 66
     1
 40
0.000000
 41
0.000000
  0
VERTEX
  8
0
  6
CONTINUOUS
 10
4.734840
 20
1.565520
  0
VERTEX
  8
0
  6
CONTINUOUS
 10
5.366680
 20
1.932480
  0
VERTEX
  8
0
  6
CONTINUOUS
 10
5.364040
 20
1.914440
  0
VERTEX
  8
0
  6
CONTINUOUS
 10
4.732640
 20
1.547920
  0
VERTEX
  8
0
  6
CONTINUOUS
 10
4.734840
 20
1.565520
  0
SEQEND
  8
0
  0
SOLID
  8
0
 62
    15
 10
4.732640
 20
1.547920
 11
5.364040
 21
1.914440
 12
4.726040
 22
1.529880
 13
5.357880
 23
1.896400
  0
POLYLINE
  8
0
  6
CONTINUOUS
 66
     1
 40
0.000000
 41
0.000000
  0
VERTEX
  8
0
  6
CONTINUOUS
 10
4.732640
 20
1.547920
  0
VERTEX
  8
0
  6
CONTINUOUS
 10
5.364040
 20
1.914440
  0
VERTEX
  8
0
  6
CONTINUOUS
 10
5.357880
 20
1.896400
  0
VERTEX
  8
0
  6
CONTINUOUS
 10
4.726040
 20
1.529880
  0
VERTEX
  8
0
  6
CONTINUOUS
 10
4.732640
 20
1.547920
  0
SEQEND
  8
0
  0
SOLID
  8
0
 62
    15
 10
4.726040
 20
1.529880
 11
5.357880
 21
1.896400
 12
4.715920
 22
1.511840
 13
5.347320
 23
1.878800
  0
POLYLINE
  8
0
  6
CONTINUOUS
 66
     1
 40
0.000000
 41
0.000000
  0
VERTEX
  8
0
  6
CONTINUOUS
 10
4.726040
 20
1.529880
  0
VERTEX
  8
0
  6
CONTINUOUS
 10
5.357880
 20
1.896400
  0
VERTEX
  8
0
  6
CONTINUOUS
 10
5.347320
 20
1.878800
  0
VERTEX
  8
0
  6
CONTINUOUS
 10
4.715920
 20
1.511840
  0
VERTEX
  8
0
  6
CONTINUOUS
 10
4.726040
 20
1.529880
  0
SEQEND
  8
0
  0
SOLID
  8
0
 62
    15
 10
4.715920
 20
1.511840
 11
5.347320
 21
1.878800
 12
4.701400
 22
1.494680
 13
5.332800
 23
1.861640
  0
POLYLINE
  8
0
  6
CONTINUOUS
 66
     1
 40
0.000000
 41
0.000000
  0
VERTEX
  8
0
  6
CONTINUOUS
 10
4.715920
 20
1.511840
  0
VERTEX
  8
0
  6
CONTINUOUS
 10
5.347320
 20
1.878800
  0
VERTEX
  8
0
  6
CONTINUOUS
 10
5.332800
 20
1.861640
  0
VERTEX
  8
0
  6
CONTINUOUS
 10
4.701400
 20
1.494680
  0
VERTEX
  8
0
  6
CONTINUOUS
 10
4.715920
 20
1.511840
  0
SEQEND
  8
0
  0
SOLID
  8
0
 62
    15
 10
4.631440
 20
1.448920
 11
5.262840
 21
1.815880
 12
4.606800
 22
1.433960
 13
5.238200
 23
1.800480
  0
POLYLINE
  8
0
  6
CONTINUOUS
 66
     1
 40
0.000000
 41
0.000000
  0
VERTEX
  8
0
  6
CONTINUOUS
 10
4.631440
 20
1.448920
  0
VERTEX
  8
0
  6
CONTINUOUS
 10
5.262840
 20
1.815880
  0
VERTEX
  8
0
  6
CONTINUOUS
 10
5.238200
 20
1.800480
  0
VERTEX
  8
0
  6
CONTINUOUS
 10
4.606800
 20
1.433960
  0
VERTEX
  8
0
  6
CONTINUOUS
 10
4.631440
 20
1.448920
  0
SEQEND
  8
0
  0
SOLID
  8
0
 62
    15
 10
4.606800
 20
1.433960
 11
5.238200
 21
1.800480
 12
4.589640
 22
1.414600
 13
5.221040
 23
1.781120
  0
POLYLINE
  8
0
  6
CONTINUOUS
 66
     1
 40
0.000000
 41
0.000000
  0
VERTEX
  8
0
  6
CONTINUOUS
 10
4.606800
 20
1.433960
  0
VERTEX
  8
0
  6
CONTINUOUS
 10
5.238200
 20
1.800480
  0
VERTEX
  8
0
  6
CONTINUOUS
 10
5.221040
 20
1.781120
  0
VERTEX
  8
0
  6
CONTINUOUS
 10
4.589640
 20
1.414600
  0
VERTEX
  8
0
  6
CONTINUOUS
 10
4.606800
 20
1.433960
  0
SEQEND
  8
0
  0
SOLID
  8
0
 62
    15
 10
4.701400
 20
1.494680
 11
5.332800
 21
1.861640
 12
4.682480
 22
1.478400
 13
5.313880
 23
1.844920
  0
POLYLINE
  8
0
  6
CONTINUOUS
 66
     1
 40
0.000000
 41
0.000000
  0
VERTEX
  8
0
  6
CONTINUOUS
 10
4.701400
 20
1.494680
  0
VERTEX
  8
0
  6
CONTINUOUS
 10
5.332800
 20
1.861640
  0
VERTEX
  8
0
  6
CONTINUOUS
 10
5.313880
 20
1.844920
  0
VERTEX
  8
0
  6
CONTINUOUS
 10
4.682480
 20
1.478400
  0
VERTEX
  8
0
  6
CONTINUOUS
 10
4.701400
 20
1.494680
  0
SEQEND
  8
0
  0
SOLID
  8
0
 62
    15
 10
4.682480
 20
1.478400
 11
5.313880
 21
1.844920
 12
4.659160
 22
1.463000
 13
5.290560
 23
1.829520
  0
POLYLINE
  8
0
  6
CONTINUOUS
 66
     1
 40
0.000000
 41
0.000000
  0
VERTEX
  8
0
  6
CONTINUOUS
 10
4.682480
 20
1.478400
  0
VERTEX
  8
0
  6
CONTINUOUS
 10
5.313880
 20
1.844920
  0
VERTEX
  8
0
  6
CONTINUOUS
 10
5.290560
 20
1.829520
  0
VERTEX
  8
0
  6
CONTINUOUS
 10
4.659160
 20
1.463000
  0
VERTEX
  8
0
  6
CONTINUOUS
 10
4.682480
 20
1.478400
  0
SEQEND
  8
0
  0
SOLID
  8
0
 62
    15
 10
4.589640
 20
1.414600
 11
5.221040
 21
1.781120
 12
4.579520
 22
1.392600
 13
5.210920
 23
1.759120
  0
POLYLINE
  8
0
  6
CONTINUOUS
 66
     1
 40
0.000000
 41
0.000000
  0
VERTEX
  8
0
  6
CONTINUOUS
 10
4.589640
 20
1.414600
  0
VERTEX
  8
0
  6
CONTINUOUS
 10
5.221040
 20
1.781120
  0
VERTEX
  8
0
  6
CONTINUOUS
 10
5.210920
 20
1.759120
  0
VERTEX
  8
0
  6
CONTINUOUS
 10
4.579520
 20
1.392600
  0
VERTEX
  8
0
  6
CONTINUOUS
 10
4.589640
 20
1.414600
  0
SEQEND
  8
0
  0
SOLID
  8
0
 62
    15
 10
4.579520
 20
1.392600
 11
5.210920
 21
1.759120
 12
4.575560
 22
1.369280
 13
5.206960
 23
1.735800
  0
POLYLINE
  8
0
  6
CONTINUOUS
 66
     1
 40
0.000000
 41
0.000000
  0
VERTEX
  8
0
  6
CONTINUOUS
 10
4.579520
 20
1.392600
  0
VERTEX
  8
0
  6
CONTINUOUS
 10
5.210920
 20
1.759120
  0
VERTEX
  8
0
  6
CONTINUOUS
 10
5.206960
 20
1.735800
  0
VERTEX
  8
0
  6
CONTINUOUS
 10
4.575560
 20
1.369280
  0
VERTEX
  8
0
  6
CONTINUOUS
 10
4.579520
 20
1.392600
  0
SEQEND
  8
0
  0
SOLID
  8
0
 62
    15
 10
4.575560
 20
1.369280
 11
5.206960
 21
1.735800
 12
4.577760
 22
1.345960
 13
5.209160
 23
1.712480
  0
POLYLINE
  8
0
  6
CONTINUOUS
 66
     1
 40
0.000000
 41
0.000000
  0
VERTEX
  8
0
  6
CONTINUOUS
 10
4.575560
 20
1.369280
  0
VERTEX
  8
0
  6
CONTINUOUS
 10
5.206960
 20
1.735800
  0
VERTEX
  8
0
  6
CONTINUOUS
 10
5.209160
 20
1.712480
  0
VERTEX
  8
0
  6
CONTINUOUS
 10
4.577760
 20
1.345960
  0
VERTEX
  8
0
  6
CONTINUOUS
 10
4.575560
 20
1.369280
  0
SEQEND
  8
0
  0
SOLID
  8
0
 62
    15
 10
4.577760
 20
1.345960
 11
5.209160
 21
1.712480
 12
4.585240
 22
1.324400
 13
5.217080
 23
1.690920
  0
POLYLINE
  8
0
  6
CONTINUOUS
 66
     1
 40
0.000000
 41
0.000000
  0
VERTEX
  8
0
  6
CONTINUOUS
 10
4.577760
 20
1.345960
  0
VERTEX
  8
0
  6
CONTINUOUS
 10
5.209160
 20
1.712480
  0
VERTEX
  8
0
  6
CONTINUOUS
 10
5.217080
 20
1.690920
  0
VERTEX
  8
0
  6
CONTINUOUS
 10
4.585240
 20
1.324400
  0
VERTEX
  8
0
  6
CONTINUOUS
 10
4.577760
 20
1.345960
  0
SEQEND
  8
0
  0
SOLID
  8
0
 62
    15
 10
4.585240
 20
1.324400
 11
5.217080
 21
1.690920
 12
4.598000
 22
1.305480
 13
5.229400
 23
1.672000
  0
POLYLINE
  8
0
  6
CONTINUOUS
 66
     1
 40
0.000000
 41
0.000000
  0
VERTEX
  8
0
  6
CONTINUOUS
 10
4.585240
 20
1.324400
  0
VERTEX
  8
0
  6
CONTINUOUS
 10
5.217080
 20
1.690920
  0
VERTEX
  8
0
  6
CONTINUOUS
 10
5.229400
 20
1.672000
  0
VERTEX
  8
0
  6
CONTINUOUS
 10
4.598000
 20
1.305480
  0
VERTEX
  8
0
  6
CONTINUOUS
 10
4.585240
 20
1.324400
  0
SEQEND
  8
0
  0
SOLID
  8
0
 62
    15
 10
4.598000
 20
1.305480
 11
5.229400
 21
1.672000
 12
4.614720
 22
1.290960
 13
5.246120
 23
1.657920
  0
POLYLINE
  8
0
  6
CONTINUOUS
 66
     1
 40
0.000000
 41
0.000000
  0
VERTEX
  8
0
  6
CONTINUOUS
 10
4.598000
 20
1.305480
  0
VERTEX
  8
0
  6
CONTINUOUS
 10
5.229400
 20
1.672000
  0
VERTEX
  8
0
  6
CONTINUOUS
 10
5.246120
 20
1.657920
  0
VERTEX
  8
0
  6
CONTINUOUS
 10
4.614720
 20
1.290960
  0
VERTEX
  8
0
  6
CONTINUOUS
 10
4.598000
 20
1.305480
  0
SEQEND
  8
0
  0
SOLID
  8
0
 62
    15
 10
4.602840
 20
1.673760
 11
5.234240
 21
2.040720
 12
4.629680
 22
1.670240
 13
5.261080
 23
2.036760
  0
POLYLINE
  8
0
  6
CONTINUOUS
 66
     1
 40
0.000000
 41
0.000000
  0
VERTEX
  8
0
  6
CONTINUOUS
 10
4.602840
 20
1.673760
  0
VERTEX
  8
0
  6
CONTINUOUS
 10
5.234240
 20
2.040720
  0
VERTEX
  8
0
  6
CONTINUOUS
 10
5.261080
 20
2.036760
  0
VERTEX
  8
0
  6
CONTINUOUS
 10
4.629680
 20
1.670240
  0
VERTEX
  8
0
  6
CONTINUOUS
 10
4.602840
 20
1.673760
  0
SEQEND
  8
0
  0
SOLID
  8
0
 62
    15
 10
4.640240
 20
1.276880
 11
5.271640
 21
1.643840
 12
4.673680
 22
1.260600
 13
5.305080
 23
1.627560
  0
POLYLINE
  8
0
  6
CONTINUOUS
 66
     1
 40
0.000000
 41
0.000000
  0
VERTEX
  8
0
  6
CONTINUOUS
 10
4.640240
 20
1.276880
  0
VERTEX
  8
0
  6
CONTINUOUS
 10
5.271640
 20
1.643840
  0
VERTEX
  8
0
  6
CONTINUOUS
 10
5.305080
 20
1.627560
  0
VERTEX
  8
0
  6
CONTINUOUS
 10
4.673680
 20
1.260600
  0
VERTEX
  8
0
  6
CONTINUOUS
 10
4.640240
 20
1.276880
  0
SEQEND
  8
0
  0
SOLID
  8
0
 62
    15
 10
4.673680
 20
1.260600
 11
5.305080
 21
1.627560
 12
4.713280
 22
1.242560
 13
5.344680
 23
1.609520
  0
POLYLINE
  8
0
  6
CONTINUOUS
 66
     1
 40
0.000000
 41
0.000000
  0
VERTEX
  8
0
  6
CONTINUOUS
 10
4.673680
 20
1.260600
  0
VERTEX
  8
0
  6
CONTINUOUS
 10
5.305080
 20
1.627560
  0
VERTEX
  8
0
  6
CONTINUOUS
 10
5.344680
 20
1.609520
  0
VERTEX
  8
0
  6
CONTINUOUS
 10
4.713280
 20
1.242560
  0
VERTEX
  8
0
  6
CONTINUOUS
 10
4.673680
 20
1.260600
  0
SEQEND
  8
0
  0
SOLID
  8
0
 62
    15
 10
4.713280
 20
1.242560
 11
5.344680
 21
1.609520
 12
4.757280
 22
1.223200
 13
5.388680
 23
1.590160
  0
POLYLINE
  8
0
  6
CONTINUOUS
 66
     1
 40
0.000000
 41
0.000000
  0
VERTEX
  8
0
  6
CONTINUOUS
 10
4.713280
 20
1.242560
  0
VERTEX
  8
0
  6
CONTINUOUS
 10
5.344680
 20
1.609520
  0
VERTEX
  8
0
  6
CONTINUOUS
 10
5.388680
 20
1.590160
  0
VERTEX
  8
0
  6
CONTINUOUS
 10
4.757280
 20
1.223200
  0
VERTEX
  8
0
  6
CONTINUOUS
 10
4.713280
 20
1.242560
  0
SEQEND
  8
0
  0
SOLID
  8
0
 62
    15
 10
4.757280
 20
1.223200
 11
5.388680
 21
1.590160
 12
4.827240
 22
1.193280
 13
5.458640
 23
1.560240
  0
POLYLINE
  8
0
  6
CONTINUOUS
 66
     1
 40
0.000000
 41
0.000000
  0
VERTEX
  8
0
  6
CONTINUOUS
 10
4.757280
 20
1.223200
  0
VERTEX
  8
0
  6
CONTINUOUS
 10
5.388680
 20
1.590160
  0
VERTEX
  8
0
  6
CONTINUOUS
 10
5.458640
 20
1.560240
  0
VERTEX
  8
0
  6
CONTINUOUS
 10
4.827240
 20
1.193280
  0
VERTEX
  8
0
  6
CONTINUOUS
 10
4.757280
 20
1.223200
  0
SEQEND
  8
0
  0
SOLID
  8
0
 62
    15
 10
4.827240
 20
1.193280
 11
5.458640
 21
1.560240
 12
4.850560
 22
1.183600
 13
5.481960
 23
1.550120
  0
POLYLINE
  8
0
  6
CONTINUOUS
 66
     1
 40
0.000000
 41
0.000000
  0
VERTEX
  8
0
  6
CONTINUOUS
 10
4.827240
 20
1.193280
  0
VERTEX
  8
0
  6
CONTINUOUS
 10
5.458640
 20
1.560240
  0
VERTEX
  8
0
  6
CONTINUOUS
 10
5.481960
 20
1.550120
  0
VERTEX
  8
0
  6
CONTINUOUS
 10
4.850560
 20
1.183600
  0
VERTEX
  8
0
  6
CONTINUOUS
 10
4.827240
 20
1.193280
  0
SEQEND
  8
0
  0
SOLID
  8
0
 62
    15
 10
4.850560
 20
1.183600
 11
5.481960
 21
1.550120
 12
4.895880
 22
1.163800
 13
5.527280
 23
1.530760
  0
POLYLINE
  8
0
  6
CONTINUOUS
 66
     1
 40
0.000000
 41
0.000000
  0
VERTEX
  8
0
  6
CONTINUOUS
 10
4.850560
 20
1.183600
  0
VERTEX
  8
0
  6
CONTINUOUS
 10
5.481960
 20
1.550120
  0
VERTEX
  8
0
  6
CONTINUOUS
 10
5.527280
 20
1.530760
  0
VERTEX
  8
0
  6
CONTINUOUS
 10
4.895880
 20
1.163800
  0
VERTEX
  8
0
  6
CONTINUOUS
 10
4.850560
 20
1.183600
  0
SEQEND
  8
0
  0
SOLID
  8
0
 62
    15
 10
4.895880
 20
1.163800
 11
5.527280
 21
1.530760
 12
4.937680
 22
1.145320
 13
5.569080
 23
1.511840
  0
POLYLINE
  8
0
  6
CONTINUOUS
 66
     1
 40
0.000000
 41
0.000000
  0
VERTEX
  8
0
  6
CONTINUOUS
 10
4.895880
 20
1.163800
  0
VERTEX
  8
0
  6
CONTINUOUS
 10
5.527280
 20
1.530760
  0
VERTEX
  8
0
  6
CONTINUOUS
 10
5.569080
 20
1.511840
  0
VERTEX
  8
0
  6
CONTINUOUS
 10
4.937680
 20
1.145320
  0
VERTEX
  8
0
  6
CONTINUOUS
 10
4.895880
 20
1.163800
  0
SEQEND
  8
0
  0
SOLID
  8
0
 62
    15
 10
4.937680
 20
1.145320
 11
5.569080
 21
1.511840
 12
4.972880
 22
1.125960
 13
5.604280
 23
1.492480
  0
POLYLINE
  8
0
  6
CONTINUOUS
 66
     1
 40
0.000000
 41
0.000000
  0
VERTEX
  8
0
  6
CONTINUOUS
 10
4.937680
 20
1.145320
  0
VERTEX
  8
0
  6
CONTINUOUS
 10
5.569080
 20
1.511840
  0
VERTEX
  8
0
  6
CONTINUOUS
 10
5.604280
 20
1.492480
  0
VERTEX
  8
0
  6
CONTINUOUS
 10
4.972880
 20
1.125960
  0
VERTEX
  8
0
  6
CONTINUOUS
 10
4.937680
 20
1.145320
  0
SEQEND
  8
0
  0
SOLID
  8
0
 62
    15
 10
4.972880
 20
1.125960
 11
5.604280
 21
1.492480
 12
5.002800
 22
1.102200
 13
5.634200
 23
1.468720
  0
POLYLINE
  8
0
  6
CONTINUOUS
 66
     1
 40
0.000000
 41
0.000000
  0
VERTEX
  8
0
  6
CONTINUOUS
 10
4.972880
 20
1.125960
  0
VERTEX
  8
0
  6
CONTINUOUS
 10
5.604280
 20
1.492480
  0
VERTEX
  8
0
  6
CONTINUOUS
 10
5.634200
 20
1.468720
  0
VERTEX
  8
0
  6
CONTINUOUS
 10
5.002800
 20
1.102200
  0
VERTEX
  8
0
  6
CONTINUOUS
 10
4.972880
 20
1.125960
  0
SEQEND
  8
0
  0
SOLID
  8
0
 62
    15
 10
5.002800
 20
1.102200
 11
5.634200
 21
1.468720
 12
5.027440
 22
1.074920
 13
5.658840
 23
1.441440
  0
POLYLINE
  8
0
  6
CONTINUOUS
 66
     1
 40
0.000000
 41
0.000000
  0
VERTEX
  8
0
  6
CONTINUOUS
 10
5.002800
 20
1.102200
  0
VERTEX
  8
0
  6
CONTINUOUS
 10
5.634200
 20
1.468720
  0
VERTEX
  8
0
  6
CONTINUOUS
 10
5.658840
 20
1.441440
  0
VERTEX
  8
0
  6
CONTINUOUS
 10
5.027440
 20
1.074920
  0
VERTEX
  8
0
  6
CONTINUOUS
 10
5.002800
 20
1.102200
  0
SEQEND
  8
0
  0
SOLID
  8
0
 62
    15
 10
5.027440
 20
1.074920
 11
5.658840
 21
1.441440
 12
5.046800
 22
1.045000
 13
5.678200
 23
1.411520
  0
POLYLINE
  8
0
  6
CONTINUOUS
 66
     1
 40
0.000000
 41
0.000000
  0
VERTEX
  8
0
  6
CONTINUOUS
 10
5.027440
 20
1.074920
  0
VERTEX
  8
0
  6
CONTINUOUS
 10
5.658840
 20
1.441440
  0
VERTEX
  8
0
  6
CONTINUOUS
 10
5.678200
 20
1.411520
  0
VERTEX
  8
0
  6
CONTINUOUS
 10
5.046800
 20
1.045000
  0
VERTEX
  8
0
  6
CONTINUOUS
 10
5.027440
 20
1.074920
  0
SEQEND
  8
0
  0
SOLID
  8
0
 62
    15
 10
5.046800
 20
1.045000
 11
5.678200
 21
1.411520
 12
5.060440
 22
1.013320
 13
5.691840
 23
1.379840
  0
POLYLINE
  8
0
  6
CONTINUOUS
 66
     1
 40
0.000000
 41
0.000000
  0
VERTEX
  8
0
  6
CONTINUOUS
 10
5.046800
 20
1.045000
  0
VERTEX
  8
0
  6
CONTINUOUS
 10
5.678200
 20
1.411520
  0
VERTEX
  8
0
  6
CONTINUOUS
 10
5.691840
 20
1.379840
  0
VERTEX
  8
0
  6
CONTINUOUS
 10
5.060440
 20
1.013320
  0
VERTEX
  8
0
  6
CONTINUOUS
 10
5.046800
 20
1.045000
  0
SEQEND
  8
0
  0
SOLID
  8
0
 62
    15
 10
5.060440
 20
1.013320
 11
5.691840
 21
1.379840
 12
5.068360
 22
0.980320
 13
5.699760
 23
1.346840
  0
POLYLINE
  8
0
  6
CONTINUOUS
 66
     1
 40
0.000000
 41
0.000000
  0
VERTEX
  8
0
  6
CONTINUOUS
 10
5.060440
 20
1.013320
  0
VERTEX
  8
0
  6
CONTINUOUS
 10
5.691840
 20
1.379840
  0
VERTEX
  8
0
  6
CONTINUOUS
 10
5.699760
 20
1.346840
  0
VERTEX
  8
0
  6
CONTINUOUS
 10
5.068360
 20
0.980320
  0
VERTEX
  8
0
  6
CONTINUOUS
 10
5.060440
 20
1.013320
  0
SEQEND
  8
0
  0
SOLID
  8
0
 62
    15
 10
5.068360
 20
0.980320
 11
5.699760
 21
1.346840
 12
5.070560
 22
0.946880
 13
5.701960
 23
1.313400
  0
POLYLINE
  8
0
  6
CONTINUOUS
 66
     1
 40
0.000000
 41
0.000000
  0
VERTEX
  8
0
  6
CONTINUOUS
 10
5.068360
 20
0.980320
  0
VERTEX
  8
0
  6
CONTINUOUS
 10
5.699760
 20
1.346840
  0
VERTEX
  8
0
  6
CONTINUOUS
 10
5.701960
 20
1.313400
  0
VERTEX
  8
0
  6
CONTINUOUS
 10
5.070560
 20
0.946880
  0
VERTEX
  8
0
  6
CONTINUOUS
 10
5.068360
 20
0.980320
  0
SEQEND
  8
0
  0
SOLID
  8
0
 62
    15
 10
5.070560
 20
0.946880
 11
5.701960
 21
1.313400
 12
5.066600
 22
0.913440
 13
5.698440
 23
1.280400
  0
POLYLINE
  8
0
  6
CONTINUOUS
 66
     1
 40
0.000000
 41
0.000000
  0
VERTEX
  8
0
  6
CONTINUOUS
 10
5.070560
 20
0.946880
  0
VERTEX
  8
0
  6
CONTINUOUS
 10
5.701960
 20
1.313400
  0
VERTEX
  8
0
  6
CONTINUOUS
 10
5.698440
 20
1.280400
  0
VERTEX
  8
0
  6
CONTINUOUS
 10
5.066600
 20
0.913440
  0
VERTEX
  8
0
  6
CONTINUOUS
 10
5.070560
 20
0.946880
  0
SEQEND
  8
0
  0
SOLID
  8
0
 62
    15
 10
5.066600
 20
0.913440
 11
5.698440
 21
1.280400
 12
5.056920
 22
0.881760
 13
5.688760
 23
1.248280
  0
POLYLINE
  8
0
  6
CONTINUOUS
 66
     1
 40
0.000000
 41
0.000000
  0
VERTEX
  8
0
  6
CONTINUOUS
 10
5.066600
 20
0.913440
  0
VERTEX
  8
0
  6
CONTINUOUS
 10
5.698440
 20
1.280400
  0
VERTEX
  8
0
  6
CONTINUOUS
 10
5.688760
 20
1.248280
  0
VERTEX
  8
0
  6
CONTINUOUS
 10
5.056920
 20
0.881760
  0
VERTEX
  8
0
  6
CONTINUOUS
 10
5.066600
 20
0.913440
  0
SEQEND
  8
0
  0
SOLID
  8
0
 62
    15
 10
5.056920
 20
0.881760
 11
5.688760
 21
1.248280
 12
5.041520
 22
0.851400
 13
5.672920
 23
1.217920
  0
POLYLINE
  8
0
  6
CONTINUOUS
 66
     1
 40
0.000000
 41
0.000000
  0
VERTEX
  8
0
  6
CONTINUOUS
 10
5.056920
 20
0.881760
  0
VERTEX
  8
0
  6
CONTINUOUS
 10
5.688760
 20
1.248280
  0
VERTEX
  8
0
  6
CONTINUOUS
 10
5.672920
 20
1.217920
  0
VERTEX
  8
0
  6
CONTINUOUS
 10
5.041520
 20
0.851400
  0
VERTEX
  8
0
  6
CONTINUOUS
 10
5.056920
 20
0.881760
  0
SEQEND
  8
0
  0
SOLID
  8
0
 62
    15
 10
5.041520
 20
0.851400
 11
5.672920
 21
1.217920
 12
5.019520
 22
0.823680
 13
5.650920
 23
1.190640
  0
POLYLINE
  8
0
  6
CONTINUOUS
 66
     1
 40
0.000000
 41
0.000000
  0
VERTEX
  8
0
  6
CONTINUOUS
 10
5.041520
 20
0.851400
  0
VERTEX
  8
0
  6
CONTINUOUS
 10
5.672920
 20
1.217920
  0
VERTEX
  8
0
  6
CONTINUOUS
 10
5.650920
 20
1.190640
  0
VERTEX
  8
0
  6
CONTINUOUS
 10
5.019520
 20
0.823680
  0
VERTEX
  8
0
  6
CONTINUOUS
 10
5.041520
 20
0.851400
  0
SEQEND
  8
0
  0
SOLID
  8
0
 62
    15
 10
4.991360
 20
0.799480
 11
5.622760
 21
1.166000
 12
4.956600
 22
0.779240
 13
5.588000
 23
1.145760
  0
POLYLINE
  8
0
  6
CONTINUOUS
 66
     1
 40
0.000000
 41
0.000000
  0
VERTEX
  8
0
  6
CONTINUOUS
 10
4.991360
 20
0.799480
  0
VERTEX
  8
0
  6
CONTINUOUS
 10
5.622760
 20
1.166000
  0
VERTEX
  8
0
  6
CONTINUOUS
 10
5.588000
 20
1.145760
  0
VERTEX
  8
0
  6
CONTINUOUS
 10
4.956600
 20
0.779240
  0
VERTEX
  8
0
  6
CONTINUOUS
 10
4.991360
 20
0.799480
  0
SEQEND
  8
0
  0
SOLID
  8
0
 62
    15
 10
5.019520
 20
0.823680
 11
5.650920
 21
1.190640
 12
4.991360
 22
0.799480
 13
5.622760
 23
1.166000
  0
POLYLINE
  8
0
  6
CONTINUOUS
 66
     1
 40
0.000000
 41
0.000000
  0
VERTEX
  8
0
  6
CONTINUOUS
 10
5.019520
 20
0.823680
  0
VERTEX
  8
0
  6
CONTINUOUS
 10
5.650920
 20
1.190640
  0
VERTEX
  8
0
  6
CONTINUOUS
 10
5.622760
 20
1.166000
  0
VERTEX
  8
0
  6
CONTINUOUS
 10
4.991360
 20
0.799480
  0
VERTEX
  8
0
  6
CONTINUOUS
 10
5.019520
 20
0.823680
  0
SEQEND
  8
0
  0
SOLID
  8
0
 62
    15
 10
4.404400
 20
1.862520
 11
5.035800
 21
2.229480
 12
4.602400
 22
1.862520
 13
5.234240
 23
2.229480
  0
POLYLINE
  8
0
  6
CONTINUOUS
 66
     1
 40
0.000000
 41
0.000000
  0
VERTEX
  8
0
  6
CONTINUOUS
 10
4.404400
 20
1.862520
  0
VERTEX
  8
0
  6
CONTINUOUS
 10
5.035800
 20
2.229480
  0
VERTEX
  8
0
  6
CONTINUOUS
 10
5.234240
 20
2.229480
  0
VERTEX
  8
0
  6
CONTINUOUS
 10
4.602400
 20
1.862520
  0
VERTEX
  8
0
  6
CONTINUOUS
 10
4.404400
 20
1.862520
  0
SEQEND
  8
0
  0
SOLID
  8
0
 62
    15
 10
4.602400
 20
1.862520
 11
5.234240
 21
2.229480
 12
4.602400
 22
1.673760
 13
5.234240
 23
2.040720
  0
POLYLINE
  8
0
  6
CONTINUOUS
 66
     1
 40
0.000000
 41
0.000000
  0
VERTEX
  8
0
  6
CONTINUOUS
 10
4.602400
 20
1.862520
  0
VERTEX
  8
0
  6
CONTINUOUS
 10
5.234240
 20
2.229480
  0
VERTEX
  8
0
  6
CONTINUOUS
 10
5.234240
 20
2.040720
  0
VERTEX
  8
0
  6
CONTINUOUS
 10
4.602400
 20
1.673760
  0
VERTEX
  8
0
  6
CONTINUOUS
 10
4.602400
 20
1.862520
  0
SEQEND
  8
0
  0
SOLID
  8
0
 62
    15
 10
4.602400
 20
1.673760
 11
5.234240
 21
2.040720
 12
4.602400
 22
1.673760
 13
4.602840
 23
1.673760
  0
POLYLINE
  8
0
  6
CONTINUOUS
 66
     1
 40
0.000000
 41
0.000000
  0
VERTEX
  8
0
  6
CONTINUOUS
 10
4.602400
 20
1.673760
  0
VERTEX
  8
0
  6
CONTINUOUS
 10
5.234240
 20
2.040720
  0
VERTEX
  8
0
  6
CONTINUOUS
 10
4.602840
 20
1.673760
  0
VERTEX
  8
0
  6
CONTINUOUS
 10
4.602400
 20
1.673760
  0
SEQEND
  8
0
  0
POLYLINE
  8
0
  6
CONTINUOUS
 66
     1
 40
0.000000
 41
0.000000
  0
VERTEX
  8
0
  6
CONTINUOUS
 10
4.602840
 20
1.673760
  0
VERTEX
  8
0
  6
CONTINUOUS
 10
4.629680
 20
1.670240
  0
VERTEX
  8
0
  6
CONTINUOUS
 10
4.653880
 20
1.663640
  0
VERTEX
  8
0
  6
CONTINUOUS
 10
4.675000
 20
1.654840
  0
VERTEX
  8
0
  6
CONTINUOUS
 10
4.693480
 20
1.643400
  0
VERTEX
  8
0
  6
CONTINUOUS
 10
4.708440
 20
1.630640
  0
VERTEX
  8
0
  6
CONTINUOUS
 10
4.720320
 20
1.616120
  0
VERTEX
  8
0
  6
CONTINUOUS
 10
4.728680
 20
1.599840
  0
VERTEX
  8
0
  6
CONTINUOUS
 10
4.733960
 20
1.583120
  0
VERTEX
  8
0
  6
CONTINUOUS
 10
4.734840
 20
1.565520
  0
VERTEX
  8
0
  6
CONTINUOUS
 10
4.732640
 20
1.547920
  0
VERTEX
  8
0
  6
CONTINUOUS
 10
4.726040
 20
1.529880
  0
VERTEX
  8
0
  6
CONTINUOUS
 10
4.715920
 20
1.511840
  0
VERTEX
  8
0
  6
CONTINUOUS
 10
4.701400
 20
1.494680
  0
VERTEX
  8
0
  6
CONTINUOUS
 10
4.682480
 20
1.478400
  0
VERTEX
  8
0
  6
CONTINUOUS
 10
4.659160
 20
1.463000
  0
VERTEX
  8
0
  6
CONTINUOUS
 10
4.631440
 20
1.448920
  0
VERTEX
  8
0
  6
CONTINUOUS
 10
4.606800
 20
1.433960
  0
VERTEX
  8
0
  6
CONTINUOUS
 10
4.589640
 20
1.414600
  0
VERTEX
  8
0
  6
CONTINUOUS
 10
4.579520
 20
1.392600
  0
VERTEX
  8
0
  6
CONTINUOUS
 10
4.575560
 20
1.369280
  0
VERTEX
  8
0
  6
CONTINUOUS
 10
4.577760
 20
1.345960
  0
VERTEX
  8
0
  6
CONTINUOUS
 10
4.585240
 20
1.324400
  0
VERTEX
  8
0
  6
CONTINUOUS
 10
4.598000
 20
1.305480
  0
VERTEX
  8
0
  6
CONTINUOUS
 10
4.614720
 20
1.290960
  0
VERTEX
  8
0
  6
CONTINUOUS
 10
4.673680
 20
1.260600
  0
VERTEX
  8
0
  6
CONTINUOUS
 10
4.937680
 20
1.145320
  0
VERTEX
  8
0
  6
CONTINUOUS
 10
4.972880
 20
1.125960
  0
VERTEX
  8
0
  6
CONTINUOUS
 10
5.002800
 20
1.102200
  0
VERTEX
  8
0
  6
CONTINUOUS
 10
5.027440
 20
1.074920
  0
VERTEX
  8
0
  6
CONTINUOUS
 10
5.046800
 20
1.045000
  0
VERTEX
  8
0
  6
CONTINUOUS
 10
5.060440
 20
1.013320
  0
VERTEX
  8
0
  6
CONTINUOUS
 10
5.068360
 20
0.980320
  0
VERTEX
  8
0
  6
CONTINUOUS
 10
5.070560
 20
0.946880
  0
VERTEX
  8
0
  6
CONTINUOUS
 10
5.066600
 20
0.913440
  0
VERTEX
  8
0
  6
CONTINUOUS
 10
5.056920
 20
0.881760
  0
VERTEX
  8
0
  6
CONTINUOUS
 10
5.041520
 20
0.851400
  0
VERTEX
  8
0
  6
CONTINUOUS
 10
5.019520
 20
0.823680
  0
VERTEX
  8
0
  6
CONTINUOUS
 10
4.991360
 20
0.799480
  0
VERTEX
  8
0
  6
CONTINUOUS
 10
4.956600
 20
0.779240
  0
VERTEX
  8
0
  6
CONTINUOUS
 10
4.915680
 20
0.763840
  0
VERTEX
  8
0
  6
CONTINUOUS
 10
4.867720
 20
0.754160
  0
VERTEX
  8
0
  6
CONTINUOUS
 10
4.813160
 20
0.750640
  0
VERTEX
  8
0
  6
CONTINUOUS
 10
4.404400
 20
0.750640
  0
VERTEX
  8
0
  6
CONTINUOUS
 10
4.404400
 20
1.862520
  0
VERTEX
  8
0
  6
CONTINUOUS
 10
4.602400
 20
1.862520
  0
VERTEX
  8
0
  6
CONTINUOUS
 10
4.602840
 20
1.673760
  0
SEQEND
  8
0
  0
TEXT
  8
0
 10
4.757280
 20
0.579920
 40
0.138151
  1
BA  586
 41
1.000000
  7
SN0
 71
     0
 72
     5
 11
5.347339
 21
0.579920
  0
TEXT
  8
0
 10
4.601520
 20
0.388080
 40
0.138151
  1
5/8" x 1-1/8"
 41
1.000000
  7
SN0
 71
     0
 72
     5
 11
5.501831
 21
0.388080
  0
ENDSEC
  0
EOF
