  0
SECTION
  2
HEADER
  9
$ACADVER
  1
AC1006
  9
$EXTMIN
 10
2.083400
 20
0.616000
  9
$EXTMAX
 10
7.272320
 20
4.355560
  9
$LTSCALE
 40
0.044000
  9
$PDMODE
 70
    35
  9
$PDSIZE
 40
0.035200
  0
ENDSEC
  0
SECTION
  2
TABLES
  0
TABLE
  2
LTYPE
 70
     9
  0
LTYPE
  2
CONTINUOUS
 70
    64
  3
Solid line
 72
    65
 73
     0
 40
0.000000
  0
LTYPE
  2
DASHED
 70
    64
  3
__ __ __ __ __ __ __ __ __ __ __ __ __ __ __
 72
    65
 73
     2
 40
0.000330
 49
0.000220
 49
-0.000110
  0
LTYPE
  2
HIDDEN
 70
    64
  3
 _ _ _ _ _ _ _ _ _ _ _ _ _ _ _ _ _ _ _ _ _ _
 72
    65
 73
     2
 40
0.000165
 49
0.000110
 49
-0.000055
  0
LTYPE
  2
CENTER
 70
    64
  3
____ _ ____ _ ____ _ ____ _ ____ _ ____ _ ____
 72
    65
 73
     4
 40
0.000880
 49
0.000550
 49
-0.000110
 49
0.000110
 49
-0.000110
  0
LTYPE
  2
PHANTOM
 70
    64
  3
_____ _ _ _____ _ _ _____ _ _ _____ _ _ ____
 72
    65
 73
     6
 40
0.001100
 49
0.000550
 49
-0.000110
 49
0.000110
 49
-0.000110
 49
0.000110
 49
-0.000110
  0
LTYPE
  2
DOT
 70
    64
  3
...............................................
 72
    65
 73
     2
 40
0.000110
 49
0.000000
 49
-0.000110
  0
LTYPE
  2
DASHDOT
 70
    64
  3
__ . __ . __ . __ . __ . __ . __ . __ . __ . __
 72
    65
 73
     4
 40
0.000440
 49
0.000220
 49
-0.000110
 49
0.000000
 49
-0.000110
  0
LTYPE
  2
BORDER
 70
    64
  3
__ __ . __ __ . __ __ . __ __ . __ __ . __ __
 72
    65
 73
     6
 40
0.000770
 49
0.000220
 49
-0.000110
 49
0.000220
 49
-0.000110
 49
0.000000
 49
-0.000110
  0
LTYPE
  2
DIVIDE
 70
    64
  3
__ . . __ . . __ . . __ . . __ . . __ . . __
 72
    65
 73
     6
 40
0.000550
 49
0.000220
 49
-0.000110
 49
0.000000
 49
-0.000110
 49
0.000000
 49
-0.000110
  0
LTYPE
  2
DOTDOT
 70
    64
  3
 . .  . .  . .  . .  . .  . . 
 72
    65
 73
     5
 40
0.000242
 49
-0.000110
 49
0.000000
 49
-0.000110
 49
0.000000
 49
-0.000110
  0
ENDTAB
  0
TABLE
  2
STYLE
 70
     2
  0
STYLE
 70
     0
  2
SN0
 40
0.000000
 41
0.000440
 50
0.000000
 71
     0
 42
0.000000
  3
ROMAND
  0
STYLE
 70
    68
  2
SV0
 40
0.000000
 41
0.000440
 50
0.000000
 71
     0
 42
0.000000
  3
ROMAND
  0
ENDTAB
  0
TABLE
  2
LAYER
 70
     3
  0
LAYER
  2
FOREGROUND
 70
    64
 62
     7
  6
CONTINUOUS
  0
LAYER
  2
BACKGROUND
 70
    65
 62
    -7
  6
CONTINUOUS
  0
LAYER
  2
0
 70
    64
 62
     7
  6
CONTINUOUS
  0
ENDTAB
  0
ENDSEC
  0
SECTION
  2
ENTITIES
  0
POLYLINE
  8
FOREGROUND
  6
CONTINUOUS
 66
     1
 40
0.000000
 41
0.000000
  0
VERTEX
  8
FOREGROUND
  6
CONTINUOUS
 10
0.000000
 20
4.971560
  0
VERTEX
  8
FOREGROUND
  6
CONTINUOUS
 10
8.499920
 20
4.971560
  0
VERTEX
  8
FOREGROUND
  6
CONTINUOUS
 10
8.499920
 20
-6.028440
  0
VERTEX
  8
FOREGROUND
  6
CONTINUOUS
 10
0.000000
 20
-6.028440
  0
VERTEX
  8
FOREGROUND
  6
CONTINUOUS
 10
0.000000
 20
4.971560
  0
SEQEND
  8
0
  0
POLYLINE
  8
FOREGROUND
  6
CONTINUOUS
 66
     1
 40
0.000000
 41
0.000000
  0
VERTEX
  8
FOREGROUND
  6
CONTINUOUS
 10
0.000000
 20
4.971560
  0
VERTEX
  8
FOREGROUND
  6
CONTINUOUS
 10
8.499920
 20
4.971560
  0
VERTEX
  8
FOREGROUND
  6
CONTINUOUS
 10
8.499920
 20
-6.028440
  0
VERTEX
  8
FOREGROUND
  6
CONTINUOUS
 10
0.000000
 20
-6.028440
  0
VERTEX
  8
FOREGROUND
  6
CONTINUOUS
 10
0.000000
 20
4.971560
  0
SEQEND
  8
0
  0
POLYLINE
  8
0
  6
CONTINUOUS
 66
     1
 40
0.014080
 41
0.014080
  0
VERTEX
  8
0
  6
CONTINUOUS
 10
7.264840
 20
3.540680
  0
VERTEX
  8
0
  6
CONTINUOUS
 10
7.235360
 20
3.541120
  0
VERTEX
  8
0
  6
CONTINUOUS
 10
7.205000
 20
3.543760
  0
VERTEX
  8
0
  6
CONTINUOUS
 10
7.174640
 20
3.548600
  0
VERTEX
  8
0
  6
CONTINUOUS
 10
7.131520
 20
3.559160
  0
VERTEX
  8
0
  6
CONTINUOUS
 10
7.094120
 20
3.573240
  0
VERTEX
  8
0
  6
CONTINUOUS
 10
7.065520
 20
3.589520
  0
VERTEX
  8
0
  6
CONTINUOUS
 10
7.052320
 20
3.601400
  0
VERTEX
  8
0
  6
CONTINUOUS
 10
7.017560
 20
3.644960
  0
VERTEX
  8
0
  6
CONTINUOUS
 10
7.001720
 20
3.658600
  0
VERTEX
  8
0
  6
CONTINUOUS
 10
6.981480
 20
3.670480
  0
VERTEX
  8
0
  6
CONTINUOUS
 10
6.954640
 20
3.678840
  0
VERTEX
  8
0
  6
CONTINUOUS
 10
6.929120
 20
3.682360
  0
VERTEX
  8
0
  6
CONTINUOUS
 10
6.898760
 20
3.682800
  0
VERTEX
  8
0
  6
CONTINUOUS
 10
6.891720
 20
3.715360
  0
VERTEX
  8
0
  6
CONTINUOUS
 10
6.880720
 20
3.742640
  0
VERTEX
  8
0
  6
CONTINUOUS
 10
6.866640
 20
3.765080
  0
VERTEX
  8
0
  6
CONTINUOUS
 10
6.849920
 20
3.782680
  0
VERTEX
  8
0
  6
CONTINUOUS
 10
6.831440
 20
3.795880
  0
VERTEX
  8
0
  6
CONTINUOUS
 10
6.811200
 20
3.804680
  0
VERTEX
  8
0
  6
CONTINUOUS
 10
6.790080
 20
3.809520
  0
VERTEX
  8
0
  6
CONTINUOUS
 10
6.768520
 20
3.810400
  0
VERTEX
  8
0
  6
CONTINUOUS
 10
6.746960
 20
3.808200
  0
VERTEX
  8
0
  6
CONTINUOUS
 10
6.716160
 20
3.798080
  0
VERTEX
  8
0
  6
CONTINUOUS
 10
6.688880
 20
3.781360
  0
VERTEX
  8
0
  6
CONTINUOUS
 10
6.667320
 20
3.758920
  0
VERTEX
  8
0
  6
CONTINUOUS
 10
6.656320
 20
3.740880
  0
VERTEX
  8
0
  6
CONTINUOUS
 10
6.649280
 20
3.720640
  0
VERTEX
  8
0
  6
CONTINUOUS
 10
6.647520
 20
3.710080
  0
VERTEX
  8
0
  6
CONTINUOUS
 10
6.627280
 20
3.709200
  0
VERTEX
  8
0
  6
CONTINUOUS
 10
6.601760
 20
3.712720
  0
VERTEX
  8
0
  6
CONTINUOUS
 10
6.563920
 20
3.721520
  0
VERTEX
  8
0
  6
CONTINUOUS
 10
6.481200
 20
3.748800
  0
VERTEX
  8
0
  6
CONTINUOUS
 10
6.372960
 20
3.789280
  0
VERTEX
  8
0
  6
CONTINUOUS
 10
6.258120
 20
3.838120
  0
VERTEX
  8
0
  6
CONTINUOUS
 10
6.139760
 20
3.897080
  0
VERTEX
  8
0
  6
CONTINUOUS
 10
6.029760
 20
3.958680
  0
VERTEX
  8
0
  6
CONTINUOUS
 10
5.826040
 20
4.076160
  0
VERTEX
  8
0
  6
CONTINUOUS
 10
5.746400
 20
4.117080
  0
VERTEX
  8
0
  6
CONTINUOUS
 10
5.691840
 20
4.140840
  0
VERTEX
  8
0
  6
CONTINUOUS
 10
5.607800
 20
4.170760
  0
VERTEX
  8
0
  6
CONTINUOUS
 10
5.550160
 20
4.187480
  0
VERTEX
  8
0
  6
CONTINUOUS
 10
5.491640
 20
4.201120
  0
VERTEX
  8
0
  6
CONTINUOUS
 10
5.431800
 20
4.211240
  0
VERTEX
  8
0
  6
CONTINUOUS
 10
5.370640
 20
4.218720
  0
VERTEX
  8
0
  6
CONTINUOUS
 10
5.308160
 20
4.222680
  0
VERTEX
  8
0
  6
CONTINUOUS
 10
5.244360
 20
4.223120
  0
VERTEX
  8
0
  6
CONTINUOUS
 10
5.179240
 20
4.220480
  0
VERTEX
  8
0
  6
CONTINUOUS
 10
5.112360
 20
4.214320
  0
VERTEX
  8
0
  6
CONTINUOUS
 10
5.044160
 20
4.204640
  0
VERTEX
  8
0
  6
CONTINUOUS
 10
4.939000
 20
4.183520
  0
VERTEX
  8
0
  6
CONTINUOUS
 10
4.866840
 20
4.165040
  0
VERTEX
  8
0
  6
CONTINUOUS
 10
4.830320
 20
4.154040
  0
VERTEX
  8
0
  6
CONTINUOUS
 10
4.795120
 20
4.296600
  0
VERTEX
  8
0
  6
CONTINUOUS
 10
4.265800
 20
4.295720
  0
VERTEX
  8
0
  6
CONTINUOUS
 10
4.265360
 20
4.264040
  0
VERTEX
  8
0
  6
CONTINUOUS
 10
4.260960
 20
4.203760
  0
VERTEX
  8
0
  6
CONTINUOUS
 10
4.253040
 20
4.146120
  0
VERTEX
  8
0
  6
CONTINUOUS
 10
4.241160
 20
4.092000
  0
VERTEX
  8
0
  6
CONTINUOUS
 10
4.226640
 20
4.040520
  0
VERTEX
  8
0
  6
CONTINUOUS
 10
4.199360
 20
3.967920
  0
VERTEX
  8
0
  6
CONTINUOUS
 10
4.166800
 20
3.901480
  0
VERTEX
  8
0
  6
CONTINUOUS
 10
4.089800
 20
3.764200
  0
VERTEX
  8
0
  6
CONTINUOUS
 10
4.063840
 20
3.712280
  0
VERTEX
  8
0
  6
CONTINUOUS
 10
4.029960
 20
3.629120
  0
VERTEX
  8
0
  6
CONTINUOUS
 10
4.020280
 20
3.600520
  0
VERTEX
  8
0
  6
CONTINUOUS
 10
4.005760
 20
3.542440
  0
VERTEX
  8
0
  6
CONTINUOUS
 10
3.997400
 20
3.483040
  0
VERTEX
  8
0
  6
CONTINUOUS
 10
3.996520
 20
3.453560
  0
VERTEX
  8
0
  6
CONTINUOUS
 10
7.265280
 20
3.453560
  0
VERTEX
  8
0
  6
CONTINUOUS
 10
7.264840
 20
3.540680
  0
SEQEND
  8
0
  0
SOLID
  8
0
 62
    15
 10
2.488200
 20
2.132240
 11
3.225200
 21
2.134880
 12
2.449040
 22
2.047320
 13
3.186480
 23
2.049960
  0
POLYLINE
  8
0
  6
CONTINUOUS
 66
     1
 40
0.000000
 41
0.000000
  0
VERTEX
  8
0
  6
CONTINUOUS
 10
2.488200
 20
2.132240
  0
VERTEX
  8
0
  6
CONTINUOUS
 10
3.225200
 20
2.134880
  0
VERTEX
  8
0
  6
CONTINUOUS
 10
3.186480
 20
2.049960
  0
VERTEX
  8
0
  6
CONTINUOUS
 10
2.449040
 20
2.047320
  0
VERTEX
  8
0
  6
CONTINUOUS
 10
2.488200
 20
2.132240
  0
SEQEND
  8
0
  0
SOLID
  8
0
 62
    15
 10
2.143240
 20
4.348080
 11
2.880680
 21
4.350720
 12
2.201760
 22
4.336640
 13
2.939200
 23
4.339280
  0
POLYLINE
  8
0
  6
CONTINUOUS
 66
     1
 40
0.000000
 41
0.000000
  0
VERTEX
  8
0
  6
CONTINUOUS
 10
2.143240
 20
4.348080
  0
VERTEX
  8
0
  6
CONTINUOUS
 10
2.880680
 20
4.350720
  0
VERTEX
  8
0
  6
CONTINUOUS
 10
2.939200
 20
4.339280
  0
VERTEX
  8
0
  6
CONTINUOUS
 10
2.201760
 20
4.336640
  0
VERTEX
  8
0
  6
CONTINUOUS
 10
2.143240
 20
4.348080
  0
SEQEND
  8
0
  0
SOLID
  8
0
 62
    15
 10
2.201760
 20
4.336640
 11
2.939200
 21
4.339280
 12
2.259400
 22
4.319040
 13
2.996840
 23
4.321680
  0
POLYLINE
  8
0
  6
CONTINUOUS
 66
     1
 40
0.000000
 41
0.000000
  0
VERTEX
  8
0
  6
CONTINUOUS
 10
2.201760
 20
4.336640
  0
VERTEX
  8
0
  6
CONTINUOUS
 10
2.939200
 20
4.339280
  0
VERTEX
  8
0
  6
CONTINUOUS
 10
2.996840
 20
4.321680
  0
VERTEX
  8
0
  6
CONTINUOUS
 10
2.259400
 20
4.319040
  0
VERTEX
  8
0
  6
CONTINUOUS
 10
2.201760
 20
4.336640
  0
SEQEND
  8
0
  0
SOLID
  8
0
 62
    15
 10
2.259400
 20
4.319040
 11
2.996840
 21
4.321680
 12
2.315280
 22
4.297040
 13
3.052720
 23
4.299680
  0
POLYLINE
  8
0
  6
CONTINUOUS
 66
     1
 40
0.000000
 41
0.000000
  0
VERTEX
  8
0
  6
CONTINUOUS
 10
2.259400
 20
4.319040
  0
VERTEX
  8
0
  6
CONTINUOUS
 10
2.996840
 20
4.321680
  0
VERTEX
  8
0
  6
CONTINUOUS
 10
3.052720
 20
4.299680
  0
VERTEX
  8
0
  6
CONTINUOUS
 10
2.315280
 20
4.297040
  0
VERTEX
  8
0
  6
CONTINUOUS
 10
2.259400
 20
4.319040
  0
SEQEND
  8
0
  0
SOLID
  8
0
 62
    15
 10
2.315280
 20
4.297040
 11
3.052720
 21
4.299680
 12
2.419560
 22
4.246000
 13
3.157000
 23
4.248640
  0
POLYLINE
  8
0
  6
CONTINUOUS
 66
     1
 40
0.000000
 41
0.000000
  0
VERTEX
  8
0
  6
CONTINUOUS
 10
2.315280
 20
4.297040
  0
VERTEX
  8
0
  6
CONTINUOUS
 10
3.052720
 20
4.299680
  0
VERTEX
  8
0
  6
CONTINUOUS
 10
3.157000
 20
4.248640
  0
VERTEX
  8
0
  6
CONTINUOUS
 10
2.419560
 20
4.246000
  0
VERTEX
  8
0
  6
CONTINUOUS
 10
2.315280
 20
4.297040
  0
SEQEND
  8
0
  0
SOLID
  8
0
 62
    15
 10
2.419560
 20
4.246000
 11
3.157000
 21
4.248640
 12
2.467080
 22
4.219160
 13
3.204520
 23
4.221800
  0
POLYLINE
  8
0
  6
CONTINUOUS
 66
     1
 40
0.000000
 41
0.000000
  0
VERTEX
  8
0
  6
CONTINUOUS
 10
2.419560
 20
4.246000
  0
VERTEX
  8
0
  6
CONTINUOUS
 10
3.157000
 20
4.248640
  0
VERTEX
  8
0
  6
CONTINUOUS
 10
3.204520
 20
4.221800
  0
VERTEX
  8
0
  6
CONTINUOUS
 10
2.467080
 20
4.219160
  0
VERTEX
  8
0
  6
CONTINUOUS
 10
2.419560
 20
4.246000
  0
SEQEND
  8
0
  0
SOLID
  8
0
 62
    15
 10
2.467080
 20
4.219160
 11
3.204520
 21
4.221800
 12
2.511080
 22
4.194080
 13
3.248080
 23
4.196720
  0
POLYLINE
  8
0
  6
CONTINUOUS
 66
     1
 40
0.000000
 41
0.000000
  0
VERTEX
  8
0
  6
CONTINUOUS
 10
2.467080
 20
4.219160
  0
VERTEX
  8
0
  6
CONTINUOUS
 10
3.204520
 20
4.221800
  0
VERTEX
  8
0
  6
CONTINUOUS
 10
3.248080
 20
4.196720
  0
VERTEX
  8
0
  6
CONTINUOUS
 10
2.511080
 20
4.194080
  0
VERTEX
  8
0
  6
CONTINUOUS
 10
2.467080
 20
4.219160
  0
SEQEND
  8
0
  0
SOLID
  8
0
 62
    15
 10
2.511080
 20
4.194080
 11
3.248080
 21
4.196720
 12
2.598640
 22
4.150080
 13
3.335640
 23
4.152720
  0
POLYLINE
  8
0
  6
CONTINUOUS
 66
     1
 40
0.000000
 41
0.000000
  0
VERTEX
  8
0
  6
CONTINUOUS
 10
2.511080
 20
4.194080
  0
VERTEX
  8
0
  6
CONTINUOUS
 10
3.248080
 20
4.196720
  0
VERTEX
  8
0
  6
CONTINUOUS
 10
3.335640
 20
4.152720
  0
VERTEX
  8
0
  6
CONTINUOUS
 10
2.598640
 20
4.150080
  0
VERTEX
  8
0
  6
CONTINUOUS
 10
2.511080
 20
4.194080
  0
SEQEND
  8
0
  0
SOLID
  8
0
 62
    15
 10
2.598640
 20
4.150080
 11
3.335640
 21
4.152720
 12
2.696320
 22
4.114880
 13
3.433320
 23
4.117520
  0
POLYLINE
  8
0
  6
CONTINUOUS
 66
     1
 40
0.000000
 41
0.000000
  0
VERTEX
  8
0
  6
CONTINUOUS
 10
2.598640
 20
4.150080
  0
VERTEX
  8
0
  6
CONTINUOUS
 10
3.335640
 20
4.152720
  0
VERTEX
  8
0
  6
CONTINUOUS
 10
3.433320
 20
4.117520
  0
VERTEX
  8
0
  6
CONTINUOUS
 10
2.696320
 20
4.114880
  0
VERTEX
  8
0
  6
CONTINUOUS
 10
2.598640
 20
4.150080
  0
SEQEND
  8
0
  0
SOLID
  8
0
 62
    15
 10
2.696320
 20
4.114880
 11
3.433320
 21
4.117520
 12
2.749120
 22
4.101680
 13
3.486120
 23
4.104320
  0
POLYLINE
  8
0
  6
CONTINUOUS
 66
     1
 40
0.000000
 41
0.000000
  0
VERTEX
  8
0
  6
CONTINUOUS
 10
2.696320
 20
4.114880
  0
VERTEX
  8
0
  6
CONTINUOUS
 10
3.433320
 20
4.117520
  0
VERTEX
  8
0
  6
CONTINUOUS
 10
3.486120
 20
4.104320
  0
VERTEX
  8
0
  6
CONTINUOUS
 10
2.749120
 20
4.101680
  0
VERTEX
  8
0
  6
CONTINUOUS
 10
2.696320
 20
4.114880
  0
SEQEND
  8
0
  0
SOLID
  8
0
 62
    15
 10
2.749120
 20
4.101680
 11
3.486120
 21
4.104320
 12
2.805000
 22
4.091560
 13
3.542000
 23
4.094200
  0
POLYLINE
  8
0
  6
CONTINUOUS
 66
     1
 40
0.000000
 41
0.000000
  0
VERTEX
  8
0
  6
CONTINUOUS
 10
2.749120
 20
4.101680
  0
VERTEX
  8
0
  6
CONTINUOUS
 10
3.486120
 20
4.104320
  0
VERTEX
  8
0
  6
CONTINUOUS
 10
3.542000
 20
4.094200
  0
VERTEX
  8
0
  6
CONTINUOUS
 10
2.805000
 20
4.091560
  0
VERTEX
  8
0
  6
CONTINUOUS
 10
2.749120
 20
4.101680
  0
SEQEND
  8
0
  0
SOLID
  8
0
 62
    15
 10
2.805000
 20
4.091560
 11
3.542000
 21
4.094200
 12
2.863960
 22
4.085400
 13
3.600960
 23
4.088040
  0
POLYLINE
  8
0
  6
CONTINUOUS
 66
     1
 40
0.000000
 41
0.000000
  0
VERTEX
  8
0
  6
CONTINUOUS
 10
2.805000
 20
4.091560
  0
VERTEX
  8
0
  6
CONTINUOUS
 10
3.542000
 20
4.094200
  0
VERTEX
  8
0
  6
CONTINUOUS
 10
3.600960
 20
4.088040
  0
VERTEX
  8
0
  6
CONTINUOUS
 10
2.863960
 20
4.085400
  0
VERTEX
  8
0
  6
CONTINUOUS
 10
2.805000
 20
4.091560
  0
SEQEND
  8
0
  0
SOLID
  8
0
 62
    15
 10
2.863960
 20
4.085400
 11
3.600960
 21
4.088040
 12
2.926000
 22
4.083200
 13
3.663440
 23
4.085840
  0
POLYLINE
  8
0
  6
CONTINUOUS
 66
     1
 40
0.000000
 41
0.000000
  0
VERTEX
  8
0
  6
CONTINUOUS
 10
2.863960
 20
4.085400
  0
VERTEX
  8
0
  6
CONTINUOUS
 10
3.600960
 20
4.088040
  0
VERTEX
  8
0
  6
CONTINUOUS
 10
3.663440
 20
4.085840
  0
VERTEX
  8
0
  6
CONTINUOUS
 10
2.926000
 20
4.083200
  0
VERTEX
  8
0
  6
CONTINUOUS
 10
2.863960
 20
4.085400
  0
SEQEND
  8
0
  0
SOLID
  8
0
 62
    15
 10
2.926000
 20
4.083200
 11
3.663440
 21
4.085840
 12
2.927320
 22
3.553880
 13
3.664320
 23
3.556520
  0
POLYLINE
  8
0
  6
CONTINUOUS
 66
     1
 40
0.000000
 41
0.000000
  0
VERTEX
  8
0
  6
CONTINUOUS
 10
2.926000
 20
4.083200
  0
VERTEX
  8
0
  6
CONTINUOUS
 10
3.663440
 20
4.085840
  0
VERTEX
  8
0
  6
CONTINUOUS
 10
3.664320
 20
3.556520
  0
VERTEX
  8
0
  6
CONTINUOUS
 10
2.927320
 20
3.553880
  0
VERTEX
  8
0
  6
CONTINUOUS
 10
2.926000
 20
4.083200
  0
SEQEND
  8
0
  0
SOLID
  8
0
 62
    15
 10
2.927320
 20
3.553880
 11
3.664320
 21
3.556520
 12
2.784320
 22
3.518680
 13
3.521320
 23
3.521320
  0
POLYLINE
  8
0
  6
CONTINUOUS
 66
     1
 40
0.000000
 41
0.000000
  0
VERTEX
  8
0
  6
CONTINUOUS
 10
2.927320
 20
3.553880
  0
VERTEX
  8
0
  6
CONTINUOUS
 10
3.664320
 20
3.556520
  0
VERTEX
  8
0
  6
CONTINUOUS
 10
3.521320
 20
3.521320
  0
VERTEX
  8
0
  6
CONTINUOUS
 10
2.784320
 20
3.518680
  0
VERTEX
  8
0
  6
CONTINUOUS
 10
2.927320
 20
3.553880
  0
SEQEND
  8
0
  0
SOLID
  8
0
 62
    15
 10
2.784320
 20
3.518680
 11
3.521320
 21
3.521320
 12
2.805000
 22
3.445640
 13
3.542440
 23
3.448280
  0
POLYLINE
  8
0
  6
CONTINUOUS
 66
     1
 40
0.000000
 41
0.000000
  0
VERTEX
  8
0
  6
CONTINUOUS
 10
2.784320
 20
3.518680
  0
VERTEX
  8
0
  6
CONTINUOUS
 10
3.521320
 20
3.521320
  0
VERTEX
  8
0
  6
CONTINUOUS
 10
3.542440
 20
3.448280
  0
VERTEX
  8
0
  6
CONTINUOUS
 10
2.805000
 20
3.445640
  0
VERTEX
  8
0
  6
CONTINUOUS
 10
2.784320
 20
3.518680
  0
SEQEND
  8
0
  0
SOLID
  8
0
 62
    15
 10
2.805000
 20
3.445640
 11
3.542440
 21
3.448280
 12
2.821720
 22
3.374360
 13
3.559160
 23
3.377000
  0
POLYLINE
  8
0
  6
CONTINUOUS
 66
     1
 40
0.000000
 41
0.000000
  0
VERTEX
  8
0
  6
CONTINUOUS
 10
2.805000
 20
3.445640
  0
VERTEX
  8
0
  6
CONTINUOUS
 10
3.542440
 20
3.448280
  0
VERTEX
  8
0
  6
CONTINUOUS
 10
3.559160
 20
3.377000
  0
VERTEX
  8
0
  6
CONTINUOUS
 10
2.821720
 20
3.374360
  0
VERTEX
  8
0
  6
CONTINUOUS
 10
2.805000
 20
3.445640
  0
SEQEND
  8
0
  0
SOLID
  8
0
 62
    15
 10
2.821720
 20
3.374360
 11
3.559160
 21
3.377000
 12
2.835360
 22
3.304840
 13
3.572360
 23
3.307480
  0
POLYLINE
  8
0
  6
CONTINUOUS
 66
     1
 40
0.000000
 41
0.000000
  0
VERTEX
  8
0
  6
CONTINUOUS
 10
2.821720
 20
3.374360
  0
VERTEX
  8
0
  6
CONTINUOUS
 10
3.559160
 20
3.377000
  0
VERTEX
  8
0
  6
CONTINUOUS
 10
3.572360
 20
3.307480
  0
VERTEX
  8
0
  6
CONTINUOUS
 10
2.835360
 20
3.304840
  0
VERTEX
  8
0
  6
CONTINUOUS
 10
2.821720
 20
3.374360
  0
SEQEND
  8
0
  0
SOLID
  8
0
 62
    15
 10
2.835360
 20
3.304840
 11
3.572360
 21
3.307480
 12
2.844600
 22
3.236640
 13
3.582040
 23
3.239280
  0
POLYLINE
  8
0
  6
CONTINUOUS
 66
     1
 40
0.000000
 41
0.000000
  0
VERTEX
  8
0
  6
CONTINUOUS
 10
2.835360
 20
3.304840
  0
VERTEX
  8
0
  6
CONTINUOUS
 10
3.572360
 20
3.307480
  0
VERTEX
  8
0
  6
CONTINUOUS
 10
3.582040
 20
3.239280
  0
VERTEX
  8
0
  6
CONTINUOUS
 10
2.844600
 20
3.236640
  0
VERTEX
  8
0
  6
CONTINUOUS
 10
2.835360
 20
3.304840
  0
SEQEND
  8
0
  0
SOLID
  8
0
 62
    15
 10
2.844600
 20
3.236640
 11
3.582040
 21
3.239280
 12
2.853840
 22
3.104640
 13
3.590840
 23
3.107280
  0
POLYLINE
  8
0
  6
CONTINUOUS
 66
     1
 40
0.000000
 41
0.000000
  0
VERTEX
  8
0
  6
CONTINUOUS
 10
2.844600
 20
3.236640
  0
VERTEX
  8
0
  6
CONTINUOUS
 10
3.582040
 20
3.239280
  0
VERTEX
  8
0
  6
CONTINUOUS
 10
3.590840
 20
3.107280
  0
VERTEX
  8
0
  6
CONTINUOUS
 10
2.853840
 20
3.104640
  0
VERTEX
  8
0
  6
CONTINUOUS
 10
2.844600
 20
3.236640
  0
SEQEND
  8
0
  0
SOLID
  8
0
 62
    15
 10
2.853840
 20
3.104640
 11
3.590840
 21
3.107280
 12
2.849000
 22
2.978360
 13
3.586440
 23
2.981000
  0
POLYLINE
  8
0
  6
CONTINUOUS
 66
     1
 40
0.000000
 41
0.000000
  0
VERTEX
  8
0
  6
CONTINUOUS
 10
2.853840
 20
3.104640
  0
VERTEX
  8
0
  6
CONTINUOUS
 10
3.590840
 20
3.107280
  0
VERTEX
  8
0
  6
CONTINUOUS
 10
3.586440
 20
2.981000
  0
VERTEX
  8
0
  6
CONTINUOUS
 10
2.849000
 20
2.978360
  0
VERTEX
  8
0
  6
CONTINUOUS
 10
2.853840
 20
3.104640
  0
SEQEND
  8
0
  0
SOLID
  8
0
 62
    15
 10
2.849000
 20
2.978360
 11
3.586440
 21
2.981000
 12
2.831400
 22
2.857360
 13
3.568400
 23
2.860000
  0
POLYLINE
  8
0
  6
CONTINUOUS
 66
     1
 40
0.000000
 41
0.000000
  0
VERTEX
  8
0
  6
CONTINUOUS
 10
2.849000
 20
2.978360
  0
VERTEX
  8
0
  6
CONTINUOUS
 10
3.586440
 20
2.981000
  0
VERTEX
  8
0
  6
CONTINUOUS
 10
3.568400
 20
2.860000
  0
VERTEX
  8
0
  6
CONTINUOUS
 10
2.831400
 20
2.857360
  0
VERTEX
  8
0
  6
CONTINUOUS
 10
2.849000
 20
2.978360
  0
SEQEND
  8
0
  0
SOLID
  8
0
 62
    15
 10
2.831400
 20
2.857360
 11
3.568400
 21
2.860000
 12
2.801040
 22
2.741200
 13
3.538480
 23
2.744280
  0
POLYLINE
  8
0
  6
CONTINUOUS
 66
     1
 40
0.000000
 41
0.000000
  0
VERTEX
  8
0
  6
CONTINUOUS
 10
2.831400
 20
2.857360
  0
VERTEX
  8
0
  6
CONTINUOUS
 10
3.568400
 20
2.860000
  0
VERTEX
  8
0
  6
CONTINUOUS
 10
3.538480
 20
2.744280
  0
VERTEX
  8
0
  6
CONTINUOUS
 10
2.801040
 20
2.741200
  0
VERTEX
  8
0
  6
CONTINUOUS
 10
2.831400
 20
2.857360
  0
SEQEND
  8
0
  0
SOLID
  8
0
 62
    15
 10
2.801040
 20
2.741200
 11
3.538480
 21
2.744280
 12
2.759240
 22
2.629880
 13
3.496680
 23
2.632960
  0
POLYLINE
  8
0
  6
CONTINUOUS
 66
     1
 40
0.000000
 41
0.000000
  0
VERTEX
  8
0
  6
CONTINUOUS
 10
2.801040
 20
2.741200
  0
VERTEX
  8
0
  6
CONTINUOUS
 10
3.538480
 20
2.744280
  0
VERTEX
  8
0
  6
CONTINUOUS
 10
3.496680
 20
2.632960
  0
VERTEX
  8
0
  6
CONTINUOUS
 10
2.759240
 20
2.629880
  0
VERTEX
  8
0
  6
CONTINUOUS
 10
2.801040
 20
2.741200
  0
SEQEND
  8
0
  0
SOLID
  8
0
 62
    15
 10
2.759240
 20
2.629880
 11
3.496680
 21
2.632960
 12
2.706440
 22
2.522960
 13
3.443440
 23
2.525600
  0
POLYLINE
  8
0
  6
CONTINUOUS
 66
     1
 40
0.000000
 41
0.000000
  0
VERTEX
  8
0
  6
CONTINUOUS
 10
2.759240
 20
2.629880
  0
VERTEX
  8
0
  6
CONTINUOUS
 10
3.496680
 20
2.632960
  0
VERTEX
  8
0
  6
CONTINUOUS
 10
3.443440
 20
2.525600
  0
VERTEX
  8
0
  6
CONTINUOUS
 10
2.706440
 20
2.522960
  0
VERTEX
  8
0
  6
CONTINUOUS
 10
2.759240
 20
2.629880
  0
SEQEND
  8
0
  0
SOLID
  8
0
 62
    15
 10
2.706440
 20
2.522960
 11
3.443440
 21
2.525600
 12
2.656720
 22
2.435400
 13
3.393720
 23
2.438040
  0
POLYLINE
  8
0
  6
CONTINUOUS
 66
     1
 40
0.000000
 41
0.000000
  0
VERTEX
  8
0
  6
CONTINUOUS
 10
2.706440
 20
2.522960
  0
VERTEX
  8
0
  6
CONTINUOUS
 10
3.443440
 20
2.525600
  0
VERTEX
  8
0
  6
CONTINUOUS
 10
3.393720
 20
2.438040
  0
VERTEX
  8
0
  6
CONTINUOUS
 10
2.656720
 20
2.435400
  0
VERTEX
  8
0
  6
CONTINUOUS
 10
2.706440
 20
2.522960
  0
SEQEND
  8
0
  0
SOLID
  8
0
 62
    15
 10
2.656720
 20
2.435400
 11
3.393720
 21
2.438040
 12
2.633400
 22
2.395360
 13
3.370400
 23
2.398000
  0
POLYLINE
  8
0
  6
CONTINUOUS
 66
     1
 40
0.000000
 41
0.000000
  0
VERTEX
  8
0
  6
CONTINUOUS
 10
2.656720
 20
2.435400
  0
VERTEX
  8
0
  6
CONTINUOUS
 10
3.393720
 20
2.438040
  0
VERTEX
  8
0
  6
CONTINUOUS
 10
3.370400
 20
2.398000
  0
VERTEX
  8
0
  6
CONTINUOUS
 10
2.633400
 20
2.395360
  0
VERTEX
  8
0
  6
CONTINUOUS
 10
2.656720
 20
2.435400
  0
SEQEND
  8
0
  0
SOLID
  8
0
 62
    15
 10
2.633400
 20
2.395360
 11
3.370400
 21
2.398000
 12
2.610960
 22
2.356640
 13
3.347960
 23
2.359280
  0
POLYLINE
  8
0
  6
CONTINUOUS
 66
     1
 40
0.000000
 41
0.000000
  0
VERTEX
  8
0
  6
CONTINUOUS
 10
2.633400
 20
2.395360
  0
VERTEX
  8
0
  6
CONTINUOUS
 10
3.370400
 20
2.398000
  0
VERTEX
  8
0
  6
CONTINUOUS
 10
3.347960
 20
2.359280
  0
VERTEX
  8
0
  6
CONTINUOUS
 10
2.610960
 20
2.356640
  0
VERTEX
  8
0
  6
CONTINUOUS
 10
2.633400
 20
2.395360
  0
SEQEND
  8
0
  0
SOLID
  8
0
 62
    15
 10
2.610960
 20
2.356640
 11
3.347960
 21
2.359280
 12
2.527360
 22
2.209240
 13
3.264800
 23
2.211880
  0
POLYLINE
  8
0
  6
CONTINUOUS
 66
     1
 40
0.000000
 41
0.000000
  0
VERTEX
  8
0
  6
CONTINUOUS
 10
2.610960
 20
2.356640
  0
VERTEX
  8
0
  6
CONTINUOUS
 10
3.347960
 20
2.359280
  0
VERTEX
  8
0
  6
CONTINUOUS
 10
3.264800
 20
2.211880
  0
VERTEX
  8
0
  6
CONTINUOUS
 10
2.527360
 20
2.209240
  0
VERTEX
  8
0
  6
CONTINUOUS
 10
2.610960
 20
2.356640
  0
SEQEND
  8
0
  0
SOLID
  8
0
 62
    15
 10
2.527360
 20
2.209240
 11
3.264800
 21
2.211880
 12
2.488200
 22
2.132240
 13
3.225200
 23
2.134880
  0
POLYLINE
  8
0
  6
CONTINUOUS
 66
     1
 40
0.000000
 41
0.000000
  0
VERTEX
  8
0
  6
CONTINUOUS
 10
2.527360
 20
2.209240
  0
VERTEX
  8
0
  6
CONTINUOUS
 10
3.264800
 20
2.211880
  0
VERTEX
  8
0
  6
CONTINUOUS
 10
3.225200
 20
2.134880
  0
VERTEX
  8
0
  6
CONTINUOUS
 10
2.488200
 20
2.132240
  0
VERTEX
  8
0
  6
CONTINUOUS
 10
2.527360
 20
2.209240
  0
SEQEND
  8
0
  0
SOLID
  8
0
 62
    15
 10
2.084280
 20
4.352040
 11
2.821280
 21
4.354680
 12
2.143240
 22
4.348080
 13
2.880680
 23
4.350720
  0
POLYLINE
  8
0
  6
CONTINUOUS
 66
     1
 40
0.000000
 41
0.000000
  0
VERTEX
  8
0
  6
CONTINUOUS
 10
2.084280
 20
4.352040
  0
VERTEX
  8
0
  6
CONTINUOUS
 10
2.821280
 20
4.354680
  0
VERTEX
  8
0
  6
CONTINUOUS
 10
2.880680
 20
4.350720
  0
VERTEX
  8
0
  6
CONTINUOUS
 10
2.143240
 20
4.348080
  0
VERTEX
  8
0
  6
CONTINUOUS
 10
2.084280
 20
4.352040
  0
SEQEND
  8
0
  0
SOLID
  8
0
 62
    15
 10
2.449040
 20
2.047320
 11
3.186480
 21
2.049960
 12
2.409440
 22
1.950520
 13
3.146880
 23
1.953160
  0
POLYLINE
  8
0
  6
CONTINUOUS
 66
     1
 40
0.000000
 41
0.000000
  0
VERTEX
  8
0
  6
CONTINUOUS
 10
2.449040
 20
2.047320
  0
VERTEX
  8
0
  6
CONTINUOUS
 10
3.186480
 20
2.049960
  0
VERTEX
  8
0
  6
CONTINUOUS
 10
3.146880
 20
1.953160
  0
VERTEX
  8
0
  6
CONTINUOUS
 10
2.409440
 20
1.950520
  0
VERTEX
  8
0
  6
CONTINUOUS
 10
2.449040
 20
2.047320
  0
SEQEND
  8
0
  0
SOLID
  8
0
 62
    15
 10
2.409440
 20
1.950520
 11
3.146880
 21
1.953160
 12
2.389200
 22
1.896400
 13
3.126640
 23
1.899040
  0
POLYLINE
  8
0
  6
CONTINUOUS
 66
     1
 40
0.000000
 41
0.000000
  0
VERTEX
  8
0
  6
CONTINUOUS
 10
2.409440
 20
1.950520
  0
VERTEX
  8
0
  6
CONTINUOUS
 10
3.146880
 20
1.953160
  0
VERTEX
  8
0
  6
CONTINUOUS
 10
3.126640
 20
1.899040
  0
VERTEX
  8
0
  6
CONTINUOUS
 10
2.389200
 20
1.896400
  0
VERTEX
  8
0
  6
CONTINUOUS
 10
2.409440
 20
1.950520
  0
SEQEND
  8
0
  0
SOLID
  8
0
 62
    15
 10
2.389200
 20
1.896400
 11
3.126640
 21
1.899040
 12
2.368520
 22
1.837880
 13
3.105960
 23
1.840520
  0
POLYLINE
  8
0
  6
CONTINUOUS
 66
     1
 40
0.000000
 41
0.000000
  0
VERTEX
  8
0
  6
CONTINUOUS
 10
2.389200
 20
1.896400
  0
VERTEX
  8
0
  6
CONTINUOUS
 10
3.126640
 20
1.899040
  0
VERTEX
  8
0
  6
CONTINUOUS
 10
3.105960
 20
1.840520
  0
VERTEX
  8
0
  6
CONTINUOUS
 10
2.368520
 20
1.837880
  0
VERTEX
  8
0
  6
CONTINUOUS
 10
2.389200
 20
1.896400
  0
SEQEND
  8
0
  0
SOLID
  8
0
 62
    15
 10
2.368520
 20
1.837880
 11
3.105960
 21
1.840520
 12
2.357520
 22
1.803560
 13
3.094520
 23
1.806200
  0
POLYLINE
  8
0
  6
CONTINUOUS
 66
     1
 40
0.000000
 41
0.000000
  0
VERTEX
  8
0
  6
CONTINUOUS
 10
2.368520
 20
1.837880
  0
VERTEX
  8
0
  6
CONTINUOUS
 10
3.105960
 20
1.840520
  0
VERTEX
  8
0
  6
CONTINUOUS
 10
3.094520
 20
1.806200
  0
VERTEX
  8
0
  6
CONTINUOUS
 10
2.357520
 20
1.803560
  0
VERTEX
  8
0
  6
CONTINUOUS
 10
2.368520
 20
1.837880
  0
SEQEND
  8
0
  0
SOLID
  8
0
 62
    15
 10
2.357520
 20
1.803560
 11
3.094520
 21
1.806200
 12
2.346960
 22
1.765720
 13
3.084400
 23
1.768360
  0
POLYLINE
  8
0
  6
CONTINUOUS
 66
     1
 40
0.000000
 41
0.000000
  0
VERTEX
  8
0
  6
CONTINUOUS
 10
2.357520
 20
1.803560
  0
VERTEX
  8
0
  6
CONTINUOUS
 10
3.094520
 20
1.806200
  0
VERTEX
  8
0
  6
CONTINUOUS
 10
3.084400
 20
1.768360
  0
VERTEX
  8
0
  6
CONTINUOUS
 10
2.346960
 20
1.765720
  0
VERTEX
  8
0
  6
CONTINUOUS
 10
2.357520
 20
1.803560
  0
SEQEND
  8
0
  0
SOLID
  8
0
 62
    15
 10
2.346960
 20
1.765720
 11
3.084400
 21
1.768360
 12
2.340360
 22
1.729640
 13
3.077800
 23
1.732280
  0
POLYLINE
  8
0
  6
CONTINUOUS
 66
     1
 40
0.000000
 41
0.000000
  0
VERTEX
  8
0
  6
CONTINUOUS
 10
2.346960
 20
1.765720
  0
VERTEX
  8
0
  6
CONTINUOUS
 10
3.084400
 20
1.768360
  0
VERTEX
  8
0
  6
CONTINUOUS
 10
3.077800
 20
1.732280
  0
VERTEX
  8
0
  6
CONTINUOUS
 10
2.340360
 20
1.729640
  0
VERTEX
  8
0
  6
CONTINUOUS
 10
2.346960
 20
1.765720
  0
SEQEND
  8
0
  0
SOLID
  8
0
 62
    15
 10
2.340360
 20
1.729640
 11
3.077800
 21
1.732280
 12
2.340800
 22
1.701040
 13
3.077800
 23
1.703680
  0
POLYLINE
  8
0
  6
CONTINUOUS
 66
     1
 40
0.000000
 41
0.000000
  0
VERTEX
  8
0
  6
CONTINUOUS
 10
2.340360
 20
1.729640
  0
VERTEX
  8
0
  6
CONTINUOUS
 10
3.077800
 20
1.732280
  0
VERTEX
  8
0
  6
CONTINUOUS
 10
3.077800
 20
1.703680
  0
VERTEX
  8
0
  6
CONTINUOUS
 10
2.340800
 20
1.701040
  0
VERTEX
  8
0
  6
CONTINUOUS
 10
2.340360
 20
1.729640
  0
SEQEND
  8
0
  0
SOLID
  8
0
 62
    15
 10
2.340800
 20
1.701040
 11
3.077800
 21
1.703680
 12
2.361480
 22
1.696200
 13
3.098920
 23
1.698840
  0
POLYLINE
  8
0
  6
CONTINUOUS
 66
     1
 40
0.000000
 41
0.000000
  0
VERTEX
  8
0
  6
CONTINUOUS
 10
2.340800
 20
1.701040
  0
VERTEX
  8
0
  6
CONTINUOUS
 10
3.077800
 20
1.703680
  0
VERTEX
  8
0
  6
CONTINUOUS
 10
3.098920
 20
1.698840
  0
VERTEX
  8
0
  6
CONTINUOUS
 10
2.361480
 20
1.696200
  0
VERTEX
  8
0
  6
CONTINUOUS
 10
2.340800
 20
1.701040
  0
SEQEND
  8
0
  0
SOLID
  8
0
 62
    15
 10
2.361480
 20
1.696200
 11
3.098920
 21
1.698840
 12
2.380400
 22
1.687400
 13
3.117840
 23
1.690040
  0
POLYLINE
  8
0
  6
CONTINUOUS
 66
     1
 40
0.000000
 41
0.000000
  0
VERTEX
  8
0
  6
CONTINUOUS
 10
2.361480
 20
1.696200
  0
VERTEX
  8
0
  6
CONTINUOUS
 10
3.098920
 20
1.698840
  0
VERTEX
  8
0
  6
CONTINUOUS
 10
3.117840
 20
1.690040
  0
VERTEX
  8
0
  6
CONTINUOUS
 10
2.380400
 20
1.687400
  0
VERTEX
  8
0
  6
CONTINUOUS
 10
2.361480
 20
1.696200
  0
SEQEND
  8
0
  0
SOLID
  8
0
 62
    15
 10
2.380400
 20
1.687400
 11
3.117840
 21
1.690040
 12
2.411640
 22
1.659680
 13
3.149080
 23
1.662320
  0
POLYLINE
  8
0
  6
CONTINUOUS
 66
     1
 40
0.000000
 41
0.000000
  0
VERTEX
  8
0
  6
CONTINUOUS
 10
2.380400
 20
1.687400
  0
VERTEX
  8
0
  6
CONTINUOUS
 10
3.117840
 20
1.690040
  0
VERTEX
  8
0
  6
CONTINUOUS
 10
3.149080
 20
1.662320
  0
VERTEX
  8
0
  6
CONTINUOUS
 10
2.411640
 20
1.659680
  0
VERTEX
  8
0
  6
CONTINUOUS
 10
2.380400
 20
1.687400
  0
SEQEND
  8
0
  0
SOLID
  8
0
 62
    15
 10
2.411640
 20
1.659680
 11
3.149080
 21
1.662320
 12
2.432760
 22
1.622720
 13
3.169760
 23
1.625360
  0
POLYLINE
  8
0
  6
CONTINUOUS
 66
     1
 40
0.000000
 41
0.000000
  0
VERTEX
  8
0
  6
CONTINUOUS
 10
2.411640
 20
1.659680
  0
VERTEX
  8
0
  6
CONTINUOUS
 10
3.149080
 20
1.662320
  0
VERTEX
  8
0
  6
CONTINUOUS
 10
3.169760
 20
1.625360
  0
VERTEX
  8
0
  6
CONTINUOUS
 10
2.432760
 20
1.622720
  0
VERTEX
  8
0
  6
CONTINUOUS
 10
2.411640
 20
1.659680
  0
SEQEND
  8
0
  0
SOLID
  8
0
 62
    15
 10
2.432760
 20
1.622720
 11
3.169760
 21
1.625360
 12
2.441120
 22
1.580480
 13
3.178120
 23
1.583120
  0
POLYLINE
  8
0
  6
CONTINUOUS
 66
     1
 40
0.000000
 41
0.000000
  0
VERTEX
  8
0
  6
CONTINUOUS
 10
2.432760
 20
1.622720
  0
VERTEX
  8
0
  6
CONTINUOUS
 10
3.169760
 20
1.625360
  0
VERTEX
  8
0
  6
CONTINUOUS
 10
3.178120
 20
1.583120
  0
VERTEX
  8
0
  6
CONTINUOUS
 10
2.441120
 20
1.580480
  0
VERTEX
  8
0
  6
CONTINUOUS
 10
2.432760
 20
1.622720
  0
SEQEND
  8
0
  0
SOLID
  8
0
 62
    15
 10
2.441120
 20
1.580480
 11
3.178120
 21
1.583120
 12
2.434960
 22
1.537800
 13
3.172400
 23
1.540440
  0
POLYLINE
  8
0
  6
CONTINUOUS
 66
     1
 40
0.000000
 41
0.000000
  0
VERTEX
  8
0
  6
CONTINUOUS
 10
2.441120
 20
1.580480
  0
VERTEX
  8
0
  6
CONTINUOUS
 10
3.178120
 20
1.583120
  0
VERTEX
  8
0
  6
CONTINUOUS
 10
3.172400
 20
1.540440
  0
VERTEX
  8
0
  6
CONTINUOUS
 10
2.434960
 20
1.537800
  0
VERTEX
  8
0
  6
CONTINUOUS
 10
2.441120
 20
1.580480
  0
SEQEND
  8
0
  0
SOLID
  8
0
 62
    15
 10
2.434960
 20
1.537800
 11
3.172400
 21
1.540440
 12
2.426160
 22
1.517560
 13
3.163600
 23
1.520200
  0
POLYLINE
  8
0
  6
CONTINUOUS
 66
     1
 40
0.000000
 41
0.000000
  0
VERTEX
  8
0
  6
CONTINUOUS
 10
2.434960
 20
1.537800
  0
VERTEX
  8
0
  6
CONTINUOUS
 10
3.172400
 20
1.540440
  0
VERTEX
  8
0
  6
CONTINUOUS
 10
3.163600
 20
1.520200
  0
VERTEX
  8
0
  6
CONTINUOUS
 10
2.426160
 20
1.517560
  0
VERTEX
  8
0
  6
CONTINUOUS
 10
2.434960
 20
1.537800
  0
SEQEND
  8
0
  0
SOLID
  8
0
 62
    15
 10
2.426160
 20
1.517560
 11
3.163600
 21
1.520200
 12
2.412960
 22
1.499080
 13
3.150400
 23
1.501720
  0
POLYLINE
  8
0
  6
CONTINUOUS
 66
     1
 40
0.000000
 41
0.000000
  0
VERTEX
  8
0
  6
CONTINUOUS
 10
2.426160
 20
1.517560
  0
VERTEX
  8
0
  6
CONTINUOUS
 10
3.163600
 20
1.520200
  0
VERTEX
  8
0
  6
CONTINUOUS
 10
3.150400
 20
1.501720
  0
VERTEX
  8
0
  6
CONTINUOUS
 10
2.412960
 20
1.499080
  0
VERTEX
  8
0
  6
CONTINUOUS
 10
2.426160
 20
1.517560
  0
SEQEND
  8
0
  0
SOLID
  8
0
 62
    15
 10
2.412960
 20
1.499080
 11
3.150400
 21
1.501720
 12
2.395360
 22
1.482360
 13
3.132800
 23
1.485000
  0
POLYLINE
  8
0
  6
CONTINUOUS
 66
     1
 40
0.000000
 41
0.000000
  0
VERTEX
  8
0
  6
CONTINUOUS
 10
2.412960
 20
1.499080
  0
VERTEX
  8
0
  6
CONTINUOUS
 10
3.150400
 20
1.501720
  0
VERTEX
  8
0
  6
CONTINUOUS
 10
3.132800
 20
1.485000
  0
VERTEX
  8
0
  6
CONTINUOUS
 10
2.395360
 20
1.482360
  0
VERTEX
  8
0
  6
CONTINUOUS
 10
2.412960
 20
1.499080
  0
SEQEND
  8
0
  0
SOLID
  8
0
 62
    15
 10
2.395360
 20
1.482360
 11
3.132800
 21
1.485000
 12
2.372920
 22
1.468280
 13
3.110360
 23
1.470920
  0
POLYLINE
  8
0
  6
CONTINUOUS
 66
     1
 40
0.000000
 41
0.000000
  0
VERTEX
  8
0
  6
CONTINUOUS
 10
2.395360
 20
1.482360
  0
VERTEX
  8
0
  6
CONTINUOUS
 10
3.132800
 20
1.485000
  0
VERTEX
  8
0
  6
CONTINUOUS
 10
3.110360
 20
1.470920
  0
VERTEX
  8
0
  6
CONTINUOUS
 10
2.372920
 20
1.468280
  0
VERTEX
  8
0
  6
CONTINUOUS
 10
2.395360
 20
1.482360
  0
SEQEND
  8
0
  0
SOLID
  8
0
 62
    15
 10
2.372920
 20
1.468280
 11
3.110360
 21
1.470920
 12
2.345640
 22
1.457280
 13
3.083080
 23
1.459920
  0
POLYLINE
  8
0
  6
CONTINUOUS
 66
     1
 40
0.000000
 41
0.000000
  0
VERTEX
  8
0
  6
CONTINUOUS
 10
2.372920
 20
1.468280
  0
VERTEX
  8
0
  6
CONTINUOUS
 10
3.110360
 20
1.470920
  0
VERTEX
  8
0
  6
CONTINUOUS
 10
3.083080
 20
1.459920
  0
VERTEX
  8
0
  6
CONTINUOUS
 10
2.345640
 20
1.457280
  0
VERTEX
  8
0
  6
CONTINUOUS
 10
2.372920
 20
1.468280
  0
SEQEND
  8
0
  0
SOLID
  8
0
 62
    15
 10
2.345640
 20
1.457280
 11
3.083080
 21
1.459920
 12
2.313080
 22
1.450240
 13
3.050520
 23
1.452880
  0
POLYLINE
  8
0
  6
CONTINUOUS
 66
     1
 40
0.000000
 41
0.000000
  0
VERTEX
  8
0
  6
CONTINUOUS
 10
2.345640
 20
1.457280
  0
VERTEX
  8
0
  6
CONTINUOUS
 10
3.083080
 20
1.459920
  0
VERTEX
  8
0
  6
CONTINUOUS
 10
3.050520
 20
1.452880
  0
VERTEX
  8
0
  6
CONTINUOUS
 10
2.313080
 20
1.450240
  0
VERTEX
  8
0
  6
CONTINUOUS
 10
2.345640
 20
1.457280
  0
SEQEND
  8
0
  0
SOLID
  8
0
 62
    15
 10
2.313080
 20
1.450240
 11
3.050520
 21
1.452880
 12
2.311760
 22
1.410640
 13
3.048760
 23
1.413280
  0
POLYLINE
  8
0
  6
CONTINUOUS
 66
     1
 40
0.000000
 41
0.000000
  0
VERTEX
  8
0
  6
CONTINUOUS
 10
2.313080
 20
1.450240
  0
VERTEX
  8
0
  6
CONTINUOUS
 10
3.050520
 20
1.452880
  0
VERTEX
  8
0
  6
CONTINUOUS
 10
3.048760
 20
1.413280
  0
VERTEX
  8
0
  6
CONTINUOUS
 10
2.311760
 20
1.410640
  0
VERTEX
  8
0
  6
CONTINUOUS
 10
2.313080
 20
1.450240
  0
SEQEND
  8
0
  0
SOLID
  8
0
 62
    15
 10
2.311760
 20
1.410640
 11
3.048760
 21
1.413280
 12
2.305160
 22
1.380280
 13
3.042600
 23
1.382920
  0
POLYLINE
  8
0
  6
CONTINUOUS
 66
     1
 40
0.000000
 41
0.000000
  0
VERTEX
  8
0
  6
CONTINUOUS
 10
2.311760
 20
1.410640
  0
VERTEX
  8
0
  6
CONTINUOUS
 10
3.048760
 20
1.413280
  0
VERTEX
  8
0
  6
CONTINUOUS
 10
3.042600
 20
1.382920
  0
VERTEX
  8
0
  6
CONTINUOUS
 10
2.305160
 20
1.380280
  0
VERTEX
  8
0
  6
CONTINUOUS
 10
2.311760
 20
1.410640
  0
SEQEND
  8
0
  0
SOLID
  8
0
 62
    15
 10
2.305160
 20
1.380280
 11
3.042600
 21
1.382920
 12
2.295040
 22
1.356520
 13
3.032480
 23
1.359160
  0
POLYLINE
  8
0
  6
CONTINUOUS
 66
     1
 40
0.000000
 41
0.000000
  0
VERTEX
  8
0
  6
CONTINUOUS
 10
2.305160
 20
1.380280
  0
VERTEX
  8
0
  6
CONTINUOUS
 10
3.042600
 20
1.382920
  0
VERTEX
  8
0
  6
CONTINUOUS
 10
3.032480
 20
1.359160
  0
VERTEX
  8
0
  6
CONTINUOUS
 10
2.295040
 20
1.356520
  0
VERTEX
  8
0
  6
CONTINUOUS
 10
2.305160
 20
1.380280
  0
SEQEND
  8
0
  0
SOLID
  8
0
 62
    15
 10
2.295040
 20
1.356520
 11
3.032480
 21
1.359160
 12
2.282280
 22
1.338480
 13
3.019720
 23
1.341120
  0
POLYLINE
  8
0
  6
CONTINUOUS
 66
     1
 40
0.000000
 41
0.000000
  0
VERTEX
  8
0
  6
CONTINUOUS
 10
2.295040
 20
1.356520
  0
VERTEX
  8
0
  6
CONTINUOUS
 10
3.032480
 20
1.359160
  0
VERTEX
  8
0
  6
CONTINUOUS
 10
3.019720
 20
1.341120
  0
VERTEX
  8
0
  6
CONTINUOUS
 10
2.282280
 20
1.338480
  0
VERTEX
  8
0
  6
CONTINUOUS
 10
2.295040
 20
1.356520
  0
SEQEND
  8
0
  0
SOLID
  8
0
 62
    15
 10
2.282280
 20
1.338480
 11
3.019720
 21
1.341120
 12
2.225520
 22
1.290520
 13
2.962960
 23
1.293160
  0
POLYLINE
  8
0
  6
CONTINUOUS
 66
     1
 40
0.000000
 41
0.000000
  0
VERTEX
  8
0
  6
CONTINUOUS
 10
2.282280
 20
1.338480
  0
VERTEX
  8
0
  6
CONTINUOUS
 10
3.019720
 20
1.341120
  0
VERTEX
  8
0
  6
CONTINUOUS
 10
2.962960
 20
1.293160
  0
VERTEX
  8
0
  6
CONTINUOUS
 10
2.225520
 20
1.290520
  0
VERTEX
  8
0
  6
CONTINUOUS
 10
2.282280
 20
1.338480
  0
SEQEND
  8
0
  0
SOLID
  8
0
 62
    15
 10
2.225520
 20
1.290520
 11
2.962960
 21
1.293160
 12
2.214080
 22
1.275120
 13
2.951520
 23
1.277760
  0
POLYLINE
  8
0
  6
CONTINUOUS
 66
     1
 40
0.000000
 41
0.000000
  0
VERTEX
  8
0
  6
CONTINUOUS
 10
2.225520
 20
1.290520
  0
VERTEX
  8
0
  6
CONTINUOUS
 10
2.962960
 20
1.293160
  0
VERTEX
  8
0
  6
CONTINUOUS
 10
2.951520
 20
1.277760
  0
VERTEX
  8
0
  6
CONTINUOUS
 10
2.214080
 20
1.275120
  0
VERTEX
  8
0
  6
CONTINUOUS
 10
2.225520
 20
1.290520
  0
SEQEND
  8
0
  0
SOLID
  8
0
 62
    15
 10
2.214080
 20
1.275120
 11
2.951520
 21
1.277760
 12
2.203520
 22
1.254880
 13
2.940960
 23
1.257520
  0
POLYLINE
  8
0
  6
CONTINUOUS
 66
     1
 40
0.000000
 41
0.000000
  0
VERTEX
  8
0
  6
CONTINUOUS
 10
2.214080
 20
1.275120
  0
VERTEX
  8
0
  6
CONTINUOUS
 10
2.951520
 20
1.277760
  0
VERTEX
  8
0
  6
CONTINUOUS
 10
2.940960
 20
1.257520
  0
VERTEX
  8
0
  6
CONTINUOUS
 10
2.203520
 20
1.254880
  0
VERTEX
  8
0
  6
CONTINUOUS
 10
2.214080
 20
1.275120
  0
SEQEND
  8
0
  0
SOLID
  8
0
 62
    15
 10
2.203520
 20
1.254880
 11
2.940960
 21
1.257520
 12
2.185920
 22
1.203400
 13
2.922920
 23
1.206040
  0
POLYLINE
  8
0
  6
CONTINUOUS
 66
     1
 40
0.000000
 41
0.000000
  0
VERTEX
  8
0
  6
CONTINUOUS
 10
2.203520
 20
1.254880
  0
VERTEX
  8
0
  6
CONTINUOUS
 10
2.940960
 20
1.257520
  0
VERTEX
  8
0
  6
CONTINUOUS
 10
2.922920
 20
1.206040
  0
VERTEX
  8
0
  6
CONTINUOUS
 10
2.185920
 20
1.203400
  0
VERTEX
  8
0
  6
CONTINUOUS
 10
2.203520
 20
1.254880
  0
SEQEND
  8
0
  0
SOLID
  8
0
 62
    15
 10
2.185920
 20
1.203400
 11
2.922920
 21
1.206040
 12
2.174040
 22
1.144000
 13
2.911480
 23
1.146640
  0
POLYLINE
  8
0
  6
CONTINUOUS
 66
     1
 40
0.000000
 41
0.000000
  0
VERTEX
  8
0
  6
CONTINUOUS
 10
2.185920
 20
1.203400
  0
VERTEX
  8
0
  6
CONTINUOUS
 10
2.922920
 20
1.206040
  0
VERTEX
  8
0
  6
CONTINUOUS
 10
2.911480
 20
1.146640
  0
VERTEX
  8
0
  6
CONTINUOUS
 10
2.174040
 20
1.144000
  0
VERTEX
  8
0
  6
CONTINUOUS
 10
2.185920
 20
1.203400
  0
SEQEND
  8
0
  0
SOLID
  8
0
 62
    15
 10
2.174040
 20
1.144000
 11
2.911480
 21
1.146640
 12
2.170960
 22
1.084160
 13
2.907960
 23
1.086800
  0
POLYLINE
  8
0
  6
CONTINUOUS
 66
     1
 40
0.000000
 41
0.000000
  0
VERTEX
  8
0
  6
CONTINUOUS
 10
2.174040
 20
1.144000
  0
VERTEX
  8
0
  6
CONTINUOUS
 10
2.911480
 20
1.146640
  0
VERTEX
  8
0
  6
CONTINUOUS
 10
2.907960
 20
1.086800
  0
VERTEX
  8
0
  6
CONTINUOUS
 10
2.170960
 20
1.084160
  0
VERTEX
  8
0
  6
CONTINUOUS
 10
2.174040
 20
1.144000
  0
SEQEND
  8
0
  0
SOLID
  8
0
 62
    15
 10
2.170960
 20
1.084160
 11
2.907960
 21
1.086800
 12
2.170960
 22
1.083720
 13
2.907960
 23
1.086360
  0
POLYLINE
  8
0
  6
CONTINUOUS
 66
     1
 40
0.000000
 41
0.000000
  0
VERTEX
  8
0
  6
CONTINUOUS
 10
2.170960
 20
1.084160
  0
VERTEX
  8
0
  6
CONTINUOUS
 10
2.907960
 20
1.086800
  0
VERTEX
  8
0
  6
CONTINUOUS
 10
2.907960
 20
1.086360
  0
VERTEX
  8
0
  6
CONTINUOUS
 10
2.170960
 20
1.083720
  0
VERTEX
  8
0
  6
CONTINUOUS
 10
2.170960
 20
1.084160
  0
SEQEND
  8
0
  0
POLYLINE
  8
0
  6
CONTINUOUS
 66
     1
 40
0.000000
 41
0.000000
  0
VERTEX
  8
0
  6
CONTINUOUS
 10
2.170960
 20
1.083720
  0
VERTEX
  8
0
  6
CONTINUOUS
 10
2.084280
 20
1.083720
  0
VERTEX
  8
0
  6
CONTINUOUS
 10
2.084280
 20
4.352040
  0
VERTEX
  8
0
  6
CONTINUOUS
 10
2.143240
 20
4.348080
  0
VERTEX
  8
0
  6
CONTINUOUS
 10
2.201760
 20
4.336640
  0
VERTEX
  8
0
  6
CONTINUOUS
 10
2.259400
 20
4.319040
  0
VERTEX
  8
0
  6
CONTINUOUS
 10
2.315280
 20
4.297040
  0
VERTEX
  8
0
  6
CONTINUOUS
 10
2.419560
 20
4.246000
  0
VERTEX
  8
0
  6
CONTINUOUS
 10
2.511080
 20
4.194080
  0
VERTEX
  8
0
  6
CONTINUOUS
 10
2.598640
 20
4.150080
  0
VERTEX
  8
0
  6
CONTINUOUS
 10
2.696320
 20
4.114880
  0
VERTEX
  8
0
  6
CONTINUOUS
 10
2.749120
 20
4.101680
  0
VERTEX
  8
0
  6
CONTINUOUS
 10
2.805000
 20
4.091560
  0
VERTEX
  8
0
  6
CONTINUOUS
 10
2.863960
 20
4.085400
  0
VERTEX
  8
0
  6
CONTINUOUS
 10
2.926000
 20
4.083200
  0
VERTEX
  8
0
  6
CONTINUOUS
 10
2.927320
 20
3.553880
  0
VERTEX
  8
0
  6
CONTINUOUS
 10
2.784320
 20
3.518680
  0
VERTEX
  8
0
  6
CONTINUOUS
 10
2.805000
 20
3.445640
  0
VERTEX
  8
0
  6
CONTINUOUS
 10
2.821720
 20
3.374360
  0
VERTEX
  8
0
  6
CONTINUOUS
 10
2.835360
 20
3.304840
  0
VERTEX
  8
0
  6
CONTINUOUS
 10
2.844600
 20
3.236640
  0
VERTEX
  8
0
  6
CONTINUOUS
 10
2.853840
 20
3.104640
  0
VERTEX
  8
0
  6
CONTINUOUS
 10
2.849000
 20
2.978360
  0
VERTEX
  8
0
  6
CONTINUOUS
 10
2.831400
 20
2.857360
  0
VERTEX
  8
0
  6
CONTINUOUS
 10
2.801040
 20
2.741200
  0
VERTEX
  8
0
  6
CONTINUOUS
 10
2.759240
 20
2.629880
  0
VERTEX
  8
0
  6
CONTINUOUS
 10
2.706440
 20
2.522960
  0
VERTEX
  8
0
  6
CONTINUOUS
 10
2.527360
 20
2.209240
  0
VERTEX
  8
0
  6
CONTINUOUS
 10
2.488200
 20
2.132240
  0
VERTEX
  8
0
  6
CONTINUOUS
 10
2.449040
 20
2.047320
  0
VERTEX
  8
0
  6
CONTINUOUS
 10
2.409440
 20
1.950520
  0
VERTEX
  8
0
  6
CONTINUOUS
 10
2.368520
 20
1.837880
  0
VERTEX
  8
0
  6
CONTINUOUS
 10
2.346960
 20
1.765720
  0
VERTEX
  8
0
  6
CONTINUOUS
 10
2.340360
 20
1.729640
  0
VERTEX
  8
0
  6
CONTINUOUS
 10
2.340800
 20
1.701040
  0
VERTEX
  8
0
  6
CONTINUOUS
 10
2.361480
 20
1.696200
  0
VERTEX
  8
0
  6
CONTINUOUS
 10
2.380400
 20
1.687400
  0
VERTEX
  8
0
  6
CONTINUOUS
 10
2.411640
 20
1.659680
  0
VERTEX
  8
0
  6
CONTINUOUS
 10
2.432760
 20
1.622720
  0
VERTEX
  8
0
  6
CONTINUOUS
 10
2.441120
 20
1.580480
  0
VERTEX
  8
0
  6
CONTINUOUS
 10
2.434960
 20
1.537800
  0
VERTEX
  8
0
  6
CONTINUOUS
 10
2.426160
 20
1.517560
  0
VERTEX
  8
0
  6
CONTINUOUS
 10
2.412960
 20
1.499080
  0
VERTEX
  8
0
  6
CONTINUOUS
 10
2.395360
 20
1.482360
  0
VERTEX
  8
0
  6
CONTINUOUS
 10
2.372920
 20
1.468280
  0
VERTEX
  8
0
  6
CONTINUOUS
 10
2.345640
 20
1.457280
  0
VERTEX
  8
0
  6
CONTINUOUS
 10
2.313080
 20
1.450240
  0
VERTEX
  8
0
  6
CONTINUOUS
 10
2.311760
 20
1.410640
  0
VERTEX
  8
0
  6
CONTINUOUS
 10
2.305160
 20
1.380280
  0
VERTEX
  8
0
  6
CONTINUOUS
 10
2.295040
 20
1.356520
  0
VERTEX
  8
0
  6
CONTINUOUS
 10
2.282280
 20
1.338480
  0
VERTEX
  8
0
  6
CONTINUOUS
 10
2.225520
 20
1.290520
  0
VERTEX
  8
0
  6
CONTINUOUS
 10
2.214080
 20
1.275120
  0
VERTEX
  8
0
  6
CONTINUOUS
 10
2.203520
 20
1.254880
  0
VERTEX
  8
0
  6
CONTINUOUS
 10
2.185920
 20
1.203400
  0
VERTEX
  8
0
  6
CONTINUOUS
 10
2.174040
 20
1.144000
  0
VERTEX
  8
0
  6
CONTINUOUS
 10
2.170960
 20
1.083720
  0
SEQEND
  8
0
  0
TEXT
  8
0
 10
2.578400
 20
0.851840
 40
0.138182
  1
BA  582
 41
1.000000
  7
SN0
 71
     0
 72
     5
 11
3.169159
 21
0.851840
  0
TEXT
  8
0
 10
2.330240
 20
0.660440
 40
0.138182
  1
13/16" x 3-1/4"
 41
1.000000
  7
SN0
 71
     0
 72
     5
 11
3.416800
 21
0.660440
  0
ENDSEC
  0
EOF
