  0
SECTION
  2
HEADER
  9
$ACADVER
  1
AC1006
  9
$EXTMIN
 10
1.000560
 20
0.284680
  9
$EXTMAX
 10
8.052880
 20
9.483760
  9
$LTSCALE
 40
0.044000
  9
$PDMODE
 70
    35
  9
$PDSIZE
 40
0.035200
  0
ENDSEC
  0
SECTION
  2
TABLES
  0
TABLE
  2
LTYPE
 70
     9
  0
LTYPE
  2
CONTINUOUS
 70
    64
  3
Solid line
 72
    65
 73
     0
 40
0.000000
  0
LTYPE
  2
DASHED
 70
    64
  3
__ __ __ __ __ __ __ __ __ __ __ __ __ __ __
 72
    65
 73
     2
 40
0.000330
 49
0.000220
 49
-0.000110
  0
LTYPE
  2
HIDDEN
 70
    64
  3
 _ _ _ _ _ _ _ _ _ _ _ _ _ _ _ _ _ _ _ _ _ _
 72
    65
 73
     2
 40
0.000165
 49
0.000110
 49
-0.000055
  0
LTYPE
  2
CENTER
 70
    64
  3
____ _ ____ _ ____ _ ____ _ ____ _ ____ _ ____
 72
    65
 73
     4
 40
0.000880
 49
0.000550
 49
-0.000110
 49
0.000110
 49
-0.000110
  0
LTYPE
  2
PHANTOM
 70
    64
  3
_____ _ _ _____ _ _ _____ _ _ _____ _ _ ____
 72
    65
 73
     6
 40
0.001100
 49
0.000550
 49
-0.000110
 49
0.000110
 49
-0.000110
 49
0.000110
 49
-0.000110
  0
LTYPE
  2
DOT
 70
    64
  3
...............................................
 72
    65
 73
     2
 40
0.000110
 49
0.000000
 49
-0.000110
  0
LTYPE
  2
DASHDOT
 70
    64
  3
__ . __ . __ . __ . __ . __ . __ . __ . __ . __
 72
    65
 73
     4
 40
0.000440
 49
0.000220
 49
-0.000110
 49
0.000000
 49
-0.000110
  0
LTYPE
  2
BORDER
 70
    64
  3
__ __ . __ __ . __ __ . __ __ . __ __ . __ __
 72
    65
 73
     6
 40
0.000770
 49
0.000220
 49
-0.000110
 49
0.000220
 49
-0.000110
 49
0.000000
 49
-0.000110
  0
LTYPE
  2
DIVIDE
 70
    64
  3
__ . . __ . . __ . . __ . . __ . . __ . . __
 72
    65
 73
     6
 40
0.000550
 49
0.000220
 49
-0.000110
 49
0.000000
 49
-0.000110
 49
0.000000
 49
-0.000110
  0
LTYPE
  2
DOTDOT
 70
    64
  3
 . .  . .  . .  . .  . .  . . 
 72
    65
 73
     5
 40
0.000242
 49
-0.000110
 49
0.000000
 49
-0.000110
 49
0.000000
 49
-0.000110
  0
ENDTAB
  0
TABLE
  2
STYLE
 70
     2
  0
STYLE
 70
     0
  2
SN0
 40
0.000000
 41
0.000440
 50
0.000000
 71
     0
 42
0.000000
  3
ROMAND
  0
STYLE
 70
    68
  2
SV0
 40
0.000000
 41
0.000440
 50
0.000000
 71
     0
 42
0.000000
  3
ROMAND
  0
ENDTAB
  0
TABLE
  2
LAYER
 70
     3
  0
LAYER
  2
FOREGROUND
 70
    64
 62
     7
  6
CONTINUOUS
  0
LAYER
  2
BACKGROUND
 70
    65
 62
    -7
  6
CONTINUOUS
  0
LAYER
  2
0
 70
    64
 62
     7
  6
CONTINUOUS
  0
ENDTAB
  0
ENDSEC
  0
SECTION
  2
ENTITIES
  0
POLYLINE
  8
FOREGROUND
  6
CONTINUOUS
 66
     1
 40
0.000000
 41
0.000000
  0
VERTEX
  8
FOREGROUND
  6
CONTINUOUS
 10
0.000000
 20
9.768440
  0
VERTEX
  8
FOREGROUND
  6
CONTINUOUS
 10
8.499920
 20
9.768440
  0
VERTEX
  8
FOREGROUND
  6
CONTINUOUS
 10
8.499920
 20
-1.231560
  0
VERTEX
  8
FOREGROUND
  6
CONTINUOUS
 10
0.000000
 20
-1.231560
  0
VERTEX
  8
FOREGROUND
  6
CONTINUOUS
 10
0.000000
 20
9.768440
  0
SEQEND
  8
0
  0
POLYLINE
  8
FOREGROUND
  6
CONTINUOUS
 66
     1
 40
0.000000
 41
0.000000
  0
VERTEX
  8
FOREGROUND
  6
CONTINUOUS
 10
0.000000
 20
9.768440
  0
VERTEX
  8
FOREGROUND
  6
CONTINUOUS
 10
8.499920
 20
9.768440
  0
VERTEX
  8
FOREGROUND
  6
CONTINUOUS
 10
8.499920
 20
-1.231560
  0
VERTEX
  8
FOREGROUND
  6
CONTINUOUS
 10
0.000000
 20
-1.231560
  0
VERTEX
  8
FOREGROUND
  6
CONTINUOUS
 10
0.000000
 20
9.768440
  0
SEQEND
  8
0
  0
POLYLINE
  8
0
  6
CONTINUOUS
 66
     1
 40
0.014080
 41
0.014080
  0
VERTEX
  8
0
  6
CONTINUOUS
 10
7.765120
 20
7.259120
  0
VERTEX
  8
0
  6
CONTINUOUS
 10
7.718040
 20
7.224360
  0
VERTEX
  8
0
  6
CONTINUOUS
 10
7.695160
 20
7.202800
  0
VERTEX
  8
0
  6
CONTINUOUS
 10
7.673600
 20
7.176400
  0
VERTEX
  8
0
  6
CONTINUOUS
 10
7.653800
 20
7.144720
  0
VERTEX
  8
0
  6
CONTINUOUS
 10
7.644560
 20
7.126680
  0
VERTEX
  8
0
  6
CONTINUOUS
 10
7.629160
 20
7.085320
  0
VERTEX
  8
0
  6
CONTINUOUS
 10
7.616840
 20
7.035600
  0
VERTEX
  8
0
  6
CONTINUOUS
 10
7.612440
 20
7.007440
  0
VERTEX
  8
0
  6
CONTINUOUS
 10
7.612440
 20
6.750040
  0
VERTEX
  8
0
  6
CONTINUOUS
 10
7.483520
 20
6.750040
  0
VERTEX
  8
0
  6
CONTINUOUS
 10
7.483520
 20
6.660280
  0
VERTEX
  8
0
  6
CONTINUOUS
 10
7.531480
 20
6.637400
  0
VERTEX
  8
0
  6
CONTINUOUS
 10
7.571520
 20
6.613200
  0
VERTEX
  8
0
  6
CONTINUOUS
 10
7.604520
 20
6.587680
  0
VERTEX
  8
0
  6
CONTINUOUS
 10
7.630480
 20
6.561720
  0
VERTEX
  8
0
  6
CONTINUOUS
 10
7.644560
 20
6.544120
  0
VERTEX
  8
0
  6
CONTINUOUS
 10
7.656000
 20
6.526080
  0
VERTEX
  8
0
  6
CONTINUOUS
 10
7.664800
 20
6.508040
  0
VERTEX
  8
0
  6
CONTINUOUS
 10
7.676240
 20
6.471520
  0
VERTEX
  8
0
  6
CONTINUOUS
 10
7.678440
 20
6.453040
  0
VERTEX
  8
0
  6
CONTINUOUS
 10
7.678880
 20
6.435000
  0
VERTEX
  8
0
  6
CONTINUOUS
 10
7.674920
 20
6.398920
  0
VERTEX
  8
0
  6
CONTINUOUS
 10
7.664800
 20
6.364160
  0
VERTEX
  8
0
  6
CONTINUOUS
 10
7.650280
 20
6.330720
  0
VERTEX
  8
0
  6
CONTINUOUS
 10
7.621680
 20
6.284520
  0
VERTEX
  8
0
  6
CONTINUOUS
 10
7.589120
 20
6.244920
  0
VERTEX
  8
0
  6
CONTINUOUS
 10
7.556120
 20
6.212800
  0
VERTEX
  8
0
  6
CONTINUOUS
 10
7.526640
 20
6.189920
  0
VERTEX
  8
0
  6
CONTINUOUS
 10
7.481760
 20
6.166600
  0
VERTEX
  8
0
  6
CONTINUOUS
 10
7.390680
 20
6.127000
  0
VERTEX
  8
0
  6
CONTINUOUS
 10
7.342720
 20
6.100600
  0
VERTEX
  8
0
  6
CONTINUOUS
 10
7.297400
 20
6.068040
  0
VERTEX
  8
0
  6
CONTINUOUS
 10
7.267480
 20
6.037680
  0
VERTEX
  8
0
  6
CONTINUOUS
 10
7.249880
 20
6.014360
  0
VERTEX
  8
0
  6
CONTINUOUS
 10
7.234920
 20
5.988400
  0
VERTEX
  8
0
  6
CONTINUOUS
 10
7.223040
 20
5.958920
  0
VERTEX
  8
0
  6
CONTINUOUS
 10
7.214680
 20
5.926360
  0
VERTEX
  8
0
  6
CONTINUOUS
 10
7.211600
 20
5.908760
  0
VERTEX
  8
0
  6
CONTINUOUS
 10
7.217320
 20
5.892480
  0
VERTEX
  8
0
  6
CONTINUOUS
 10
7.226120
 20
5.879280
  0
VERTEX
  8
0
  6
CONTINUOUS
 10
7.244600
 20
5.864320
  0
VERTEX
  8
0
  6
CONTINUOUS
 10
7.305320
 20
5.834840
  0
VERTEX
  8
0
  6
CONTINUOUS
 10
7.329960
 20
5.820320
  0
VERTEX
  8
0
  6
CONTINUOUS
 10
7.344040
 20
5.803160
  0
VERTEX
  8
0
  6
CONTINUOUS
 10
7.355040
 20
5.777640
  0
VERTEX
  8
0
  6
CONTINUOUS
 10
7.360760
 20
5.757400
  0
VERTEX
  8
0
  6
CONTINUOUS
 10
7.365160
 20
5.723520
  0
VERTEX
  8
0
  6
CONTINUOUS
 10
7.364720
 20
5.699320
  0
VERTEX
  8
0
  6
CONTINUOUS
 10
7.359000
 20
5.661920
  0
VERTEX
  8
0
  6
CONTINUOUS
 10
7.350640
 20
5.637280
  0
VERTEX
  8
0
  6
CONTINUOUS
 10
7.338760
 20
5.613960
  0
VERTEX
  8
0
  6
CONTINUOUS
 10
7.322920
 20
5.591960
  0
VERTEX
  8
0
  6
CONTINUOUS
 10
7.302680
 20
5.572160
  0
VERTEX
  8
0
  6
CONTINUOUS
 10
7.277160
 20
5.555440
  0
VERTEX
  8
0
  6
CONTINUOUS
 10
7.246800
 20
5.541800
  0
VERTEX
  8
0
  6
CONTINUOUS
 10
7.229640
 20
5.536520
  0
VERTEX
  8
0
  6
CONTINUOUS
 10
7.190920
 20
5.529480
  0
VERTEX
  8
0
  6
CONTINUOUS
 10
7.190920
 20
5.396600
  0
VERTEX
  8
0
  6
CONTINUOUS
 10
6.967840
 20
5.396600
  0
VERTEX
  8
0
  6
CONTINUOUS
 10
6.967840
 20
9.072360
  0
VERTEX
  8
0
  6
CONTINUOUS
 10
7.765560
 20
9.072360
  0
VERTEX
  8
0
  6
CONTINUOUS
 10
7.765120
 20
7.259120
  0
SEQEND
  8
0
  0
SOLID
  8
0
 62
    15
 10
5.337640
 20
5.675120
 11
5.975640
 21
6.045600
 12
5.298480
 22
5.633320
 13
5.936480
 23
6.003800
  0
POLYLINE
  8
0
  6
CONTINUOUS
 66
     1
 40
0.000000
 41
0.000000
  0
VERTEX
  8
0
  6
CONTINUOUS
 10
5.337640
 20
5.675120
  0
VERTEX
  8
0
  6
CONTINUOUS
 10
5.975640
 20
6.045600
  0
VERTEX
  8
0
  6
CONTINUOUS
 10
5.936480
 20
6.003800
  0
VERTEX
  8
0
  6
CONTINUOUS
 10
5.298480
 20
5.633320
  0
VERTEX
  8
0
  6
CONTINUOUS
 10
5.337640
 20
5.675120
  0
SEQEND
  8
0
  0
SOLID
  8
0
 62
    15
 10
5.757840
 20
6.831440
 11
6.396280
 21
7.201920
 12
5.734960
 22
6.809440
 13
6.373400
 23
7.180360
  0
POLYLINE
  8
0
  6
CONTINUOUS
 66
     1
 40
0.000000
 41
0.000000
  0
VERTEX
  8
0
  6
CONTINUOUS
 10
5.757840
 20
6.831440
  0
VERTEX
  8
0
  6
CONTINUOUS
 10
6.396280
 20
7.201920
  0
VERTEX
  8
0
  6
CONTINUOUS
 10
6.373400
 20
7.180360
  0
VERTEX
  8
0
  6
CONTINUOUS
 10
5.734960
 20
6.809440
  0
VERTEX
  8
0
  6
CONTINUOUS
 10
5.757840
 20
6.831440
  0
SEQEND
  8
0
  0
SOLID
  8
0
 62
    15
 10
5.734960
 20
6.809440
 11
6.373400
 21
7.180360
 12
5.713400
 22
6.783480
 13
6.351400
 23
7.153960
  0
POLYLINE
  8
0
  6
CONTINUOUS
 66
     1
 40
0.000000
 41
0.000000
  0
VERTEX
  8
0
  6
CONTINUOUS
 10
5.734960
 20
6.809440
  0
VERTEX
  8
0
  6
CONTINUOUS
 10
6.373400
 20
7.180360
  0
VERTEX
  8
0
  6
CONTINUOUS
 10
6.351400
 20
7.153960
  0
VERTEX
  8
0
  6
CONTINUOUS
 10
5.713400
 20
6.783480
  0
VERTEX
  8
0
  6
CONTINUOUS
 10
5.734960
 20
6.809440
  0
SEQEND
  8
0
  0
SOLID
  8
0
 62
    15
 10
5.713400
 20
6.783480
 11
6.351400
 21
7.153960
 12
5.693600
 22
6.751800
 13
6.332040
 23
7.122280
  0
POLYLINE
  8
0
  6
CONTINUOUS
 66
     1
 40
0.000000
 41
0.000000
  0
VERTEX
  8
0
  6
CONTINUOUS
 10
5.713400
 20
6.783480
  0
VERTEX
  8
0
  6
CONTINUOUS
 10
6.351400
 20
7.153960
  0
VERTEX
  8
0
  6
CONTINUOUS
 10
6.332040
 20
7.122280
  0
VERTEX
  8
0
  6
CONTINUOUS
 10
5.693600
 20
6.751800
  0
VERTEX
  8
0
  6
CONTINUOUS
 10
5.713400
 20
6.783480
  0
SEQEND
  8
0
  0
SOLID
  8
0
 62
    15
 10
5.693600
 20
6.751800
 11
6.332040
 21
7.122280
 12
5.676440
 22
6.713960
 13
6.314880
 23
7.084440
  0
POLYLINE
  8
0
  6
CONTINUOUS
 66
     1
 40
0.000000
 41
0.000000
  0
VERTEX
  8
0
  6
CONTINUOUS
 10
5.693600
 20
6.751800
  0
VERTEX
  8
0
  6
CONTINUOUS
 10
6.332040
 20
7.122280
  0
VERTEX
  8
0
  6
CONTINUOUS
 10
6.314880
 20
7.084440
  0
VERTEX
  8
0
  6
CONTINUOUS
 10
5.676440
 20
6.713960
  0
VERTEX
  8
0
  6
CONTINUOUS
 10
5.693600
 20
6.751800
  0
SEQEND
  8
0
  0
SOLID
  8
0
 62
    15
 10
5.676440
 20
6.713960
 11
6.314880
 21
7.084440
 12
5.662360
 22
6.668200
 13
6.300800
 23
7.039120
  0
POLYLINE
  8
0
  6
CONTINUOUS
 66
     1
 40
0.000000
 41
0.000000
  0
VERTEX
  8
0
  6
CONTINUOUS
 10
5.676440
 20
6.713960
  0
VERTEX
  8
0
  6
CONTINUOUS
 10
6.314880
 20
7.084440
  0
VERTEX
  8
0
  6
CONTINUOUS
 10
6.300800
 20
7.039120
  0
VERTEX
  8
0
  6
CONTINUOUS
 10
5.662360
 20
6.668200
  0
VERTEX
  8
0
  6
CONTINUOUS
 10
5.676440
 20
6.713960
  0
SEQEND
  8
0
  0
SOLID
  8
0
 62
    15
 10
5.662360
 20
6.668200
 11
6.300800
 21
7.039120
 12
5.652240
 22
6.614080
 13
6.290680
 23
6.985000
  0
POLYLINE
  8
0
  6
CONTINUOUS
 66
     1
 40
0.000000
 41
0.000000
  0
VERTEX
  8
0
  6
CONTINUOUS
 10
5.662360
 20
6.668200
  0
VERTEX
  8
0
  6
CONTINUOUS
 10
6.300800
 20
7.039120
  0
VERTEX
  8
0
  6
CONTINUOUS
 10
6.290680
 20
6.985000
  0
VERTEX
  8
0
  6
CONTINUOUS
 10
5.652240
 20
6.614080
  0
VERTEX
  8
0
  6
CONTINUOUS
 10
5.662360
 20
6.668200
  0
SEQEND
  8
0
  0
SOLID
  8
0
 62
    15
 10
5.523320
 20
6.357120
 11
6.161760
 21
6.727600
 12
5.523320
 22
6.266920
 13
6.161760
 23
6.637840
  0
POLYLINE
  8
0
  6
CONTINUOUS
 66
     1
 40
0.000000
 41
0.000000
  0
VERTEX
  8
0
  6
CONTINUOUS
 10
5.523320
 20
6.357120
  0
VERTEX
  8
0
  6
CONTINUOUS
 10
6.161760
 20
6.727600
  0
VERTEX
  8
0
  6
CONTINUOUS
 10
6.161760
 20
6.637840
  0
VERTEX
  8
0
  6
CONTINUOUS
 10
5.523320
 20
6.266920
  0
VERTEX
  8
0
  6
CONTINUOUS
 10
5.523320
 20
6.357120
  0
SEQEND
  8
0
  0
SOLID
  8
0
 62
    15
 10
5.652240
 20
6.614080
 11
6.290680
 21
6.985000
 12
5.652240
 22
6.357120
 13
6.290680
 23
6.727600
  0
POLYLINE
  8
0
  6
CONTINUOUS
 66
     1
 40
0.000000
 41
0.000000
  0
VERTEX
  8
0
  6
CONTINUOUS
 10
5.652240
 20
6.614080
  0
VERTEX
  8
0
  6
CONTINUOUS
 10
6.290680
 20
6.985000
  0
VERTEX
  8
0
  6
CONTINUOUS
 10
6.290680
 20
6.727600
  0
VERTEX
  8
0
  6
CONTINUOUS
 10
5.652240
 20
6.357120
  0
VERTEX
  8
0
  6
CONTINUOUS
 10
5.652240
 20
6.614080
  0
SEQEND
  8
0
  0
SOLID
  8
0
 62
    15
 10
5.523320
 20
6.266920
 11
6.161760
 21
6.637840
 12
5.585360
 22
6.236120
 13
6.223800
 23
6.607040
  0
POLYLINE
  8
0
  6
CONTINUOUS
 66
     1
 40
0.000000
 41
0.000000
  0
VERTEX
  8
0
  6
CONTINUOUS
 10
5.523320
 20
6.266920
  0
VERTEX
  8
0
  6
CONTINUOUS
 10
6.161760
 20
6.637840
  0
VERTEX
  8
0
  6
CONTINUOUS
 10
6.223800
 20
6.607040
  0
VERTEX
  8
0
  6
CONTINUOUS
 10
5.585360
 20
6.236120
  0
VERTEX
  8
0
  6
CONTINUOUS
 10
5.523320
 20
6.266920
  0
SEQEND
  8
0
  0
SOLID
  8
0
 62
    15
 10
5.585360
 20
6.236120
 11
6.223800
 21
6.607040
 12
5.633760
 22
6.203120
 13
6.272200
 23
6.574040
  0
POLYLINE
  8
0
  6
CONTINUOUS
 66
     1
 40
0.000000
 41
0.000000
  0
VERTEX
  8
0
  6
CONTINUOUS
 10
5.585360
 20
6.236120
  0
VERTEX
  8
0
  6
CONTINUOUS
 10
6.223800
 20
6.607040
  0
VERTEX
  8
0
  6
CONTINUOUS
 10
6.272200
 20
6.574040
  0
VERTEX
  8
0
  6
CONTINUOUS
 10
5.633760
 20
6.203120
  0
VERTEX
  8
0
  6
CONTINUOUS
 10
5.585360
 20
6.236120
  0
SEQEND
  8
0
  0
SOLID
  8
0
 62
    15
 10
5.633760
 20
6.203120
 11
6.272200
 21
6.574040
 12
5.670280
 22
6.168800
 13
6.308720
 23
6.539280
  0
POLYLINE
  8
0
  6
CONTINUOUS
 66
     1
 40
0.000000
 41
0.000000
  0
VERTEX
  8
0
  6
CONTINUOUS
 10
5.633760
 20
6.203120
  0
VERTEX
  8
0
  6
CONTINUOUS
 10
6.272200
 20
6.574040
  0
VERTEX
  8
0
  6
CONTINUOUS
 10
6.308720
 20
6.539280
  0
VERTEX
  8
0
  6
CONTINUOUS
 10
5.670280
 20
6.168800
  0
VERTEX
  8
0
  6
CONTINUOUS
 10
5.633760
 20
6.203120
  0
SEQEND
  8
0
  0
SOLID
  8
0
 62
    15
 10
5.670280
 20
6.168800
 11
6.308720
 21
6.539280
 12
5.695800
 22
6.132720
 13
6.334240
 23
6.503640
  0
POLYLINE
  8
0
  6
CONTINUOUS
 66
     1
 40
0.000000
 41
0.000000
  0
VERTEX
  8
0
  6
CONTINUOUS
 10
5.670280
 20
6.168800
  0
VERTEX
  8
0
  6
CONTINUOUS
 10
6.308720
 20
6.539280
  0
VERTEX
  8
0
  6
CONTINUOUS
 10
6.334240
 20
6.503640
  0
VERTEX
  8
0
  6
CONTINUOUS
 10
5.695800
 20
6.132720
  0
VERTEX
  8
0
  6
CONTINUOUS
 10
5.670280
 20
6.168800
  0
SEQEND
  8
0
  0
SOLID
  8
0
 62
    15
 10
5.695800
 20
6.132720
 11
6.334240
 21
6.503640
 12
5.711640
 22
6.096640
 13
6.350080
 23
6.467120
  0
POLYLINE
  8
0
  6
CONTINUOUS
 66
     1
 40
0.000000
 41
0.000000
  0
VERTEX
  8
0
  6
CONTINUOUS
 10
5.695800
 20
6.132720
  0
VERTEX
  8
0
  6
CONTINUOUS
 10
6.334240
 20
6.503640
  0
VERTEX
  8
0
  6
CONTINUOUS
 10
6.350080
 20
6.467120
  0
VERTEX
  8
0
  6
CONTINUOUS
 10
5.711640
 20
6.096640
  0
VERTEX
  8
0
  6
CONTINUOUS
 10
5.695800
 20
6.132720
  0
SEQEND
  8
0
  0
SOLID
  8
0
 62
    15
 10
5.711640
 20
6.096640
 11
6.350080
 21
6.467120
 12
5.718240
 22
6.060120
 13
6.356680
 23
6.430600
  0
POLYLINE
  8
0
  6
CONTINUOUS
 66
     1
 40
0.000000
 41
0.000000
  0
VERTEX
  8
0
  6
CONTINUOUS
 10
5.711640
 20
6.096640
  0
VERTEX
  8
0
  6
CONTINUOUS
 10
6.350080
 20
6.467120
  0
VERTEX
  8
0
  6
CONTINUOUS
 10
6.356680
 20
6.430600
  0
VERTEX
  8
0
  6
CONTINUOUS
 10
5.718240
 20
6.060120
  0
VERTEX
  8
0
  6
CONTINUOUS
 10
5.711640
 20
6.096640
  0
SEQEND
  8
0
  0
SOLID
  8
0
 62
    15
 10
5.718240
 20
6.060120
 11
6.356680
 21
6.430600
 12
5.717800
 22
6.023600
 13
6.356240
 23
6.394520
  0
POLYLINE
  8
0
  6
CONTINUOUS
 66
     1
 40
0.000000
 41
0.000000
  0
VERTEX
  8
0
  6
CONTINUOUS
 10
5.718240
 20
6.060120
  0
VERTEX
  8
0
  6
CONTINUOUS
 10
6.356680
 20
6.430600
  0
VERTEX
  8
0
  6
CONTINUOUS
 10
6.356240
 20
6.394520
  0
VERTEX
  8
0
  6
CONTINUOUS
 10
5.717800
 20
6.023600
  0
VERTEX
  8
0
  6
CONTINUOUS
 10
5.718240
 20
6.060120
  0
SEQEND
  8
0
  0
SOLID
  8
0
 62
    15
 10
5.717800
 20
6.023600
 11
6.356240
 21
6.394520
 12
5.710760
 22
5.988400
 13
6.348760
 23
6.358880
  0
POLYLINE
  8
0
  6
CONTINUOUS
 66
     1
 40
0.000000
 41
0.000000
  0
VERTEX
  8
0
  6
CONTINUOUS
 10
5.717800
 20
6.023600
  0
VERTEX
  8
0
  6
CONTINUOUS
 10
6.356240
 20
6.394520
  0
VERTEX
  8
0
  6
CONTINUOUS
 10
6.348760
 20
6.358880
  0
VERTEX
  8
0
  6
CONTINUOUS
 10
5.710760
 20
5.988400
  0
VERTEX
  8
0
  6
CONTINUOUS
 10
5.717800
 20
6.023600
  0
SEQEND
  8
0
  0
SOLID
  8
0
 62
    15
 10
5.710760
 20
5.988400
 11
6.348760
 21
6.358880
 12
5.698000
 22
5.954080
 13
6.336440
 23
6.325000
  0
POLYLINE
  8
0
  6
CONTINUOUS
 66
     1
 40
0.000000
 41
0.000000
  0
VERTEX
  8
0
  6
CONTINUOUS
 10
5.710760
 20
5.988400
  0
VERTEX
  8
0
  6
CONTINUOUS
 10
6.348760
 20
6.358880
  0
VERTEX
  8
0
  6
CONTINUOUS
 10
6.336440
 20
6.325000
  0
VERTEX
  8
0
  6
CONTINUOUS
 10
5.698000
 20
5.954080
  0
VERTEX
  8
0
  6
CONTINUOUS
 10
5.710760
 20
5.988400
  0
SEQEND
  8
0
  0
SOLID
  8
0
 62
    15
 10
5.698000
 20
5.954080
 11
6.336440
 21
6.325000
 12
5.681280
 22
5.921960
 13
6.319720
 23
6.292440
  0
POLYLINE
  8
0
  6
CONTINUOUS
 66
     1
 40
0.000000
 41
0.000000
  0
VERTEX
  8
0
  6
CONTINUOUS
 10
5.698000
 20
5.954080
  0
VERTEX
  8
0
  6
CONTINUOUS
 10
6.336440
 20
6.325000
  0
VERTEX
  8
0
  6
CONTINUOUS
 10
6.319720
 20
6.292440
  0
VERTEX
  8
0
  6
CONTINUOUS
 10
5.681280
 20
5.921960
  0
VERTEX
  8
0
  6
CONTINUOUS
 10
5.698000
 20
5.954080
  0
SEQEND
  8
0
  0
SOLID
  8
0
 62
    15
 10
5.681280
 20
5.921960
 11
6.319720
 21
6.292440
 12
5.640360
 22
5.864320
 13
6.278360
 23
6.234800
  0
POLYLINE
  8
0
  6
CONTINUOUS
 66
     1
 40
0.000000
 41
0.000000
  0
VERTEX
  8
0
  6
CONTINUOUS
 10
5.681280
 20
5.921960
  0
VERTEX
  8
0
  6
CONTINUOUS
 10
6.319720
 20
6.292440
  0
VERTEX
  8
0
  6
CONTINUOUS
 10
6.278360
 20
6.234800
  0
VERTEX
  8
0
  6
CONTINUOUS
 10
5.640360
 20
5.864320
  0
VERTEX
  8
0
  6
CONTINUOUS
 10
5.681280
 20
5.921960
  0
SEQEND
  8
0
  0
SOLID
  8
0
 62
    15
 10
5.640360
 20
5.864320
 11
6.278360
 21
6.234800
 12
5.596360
 22
5.819880
 13
6.234360
 23
6.190360
  0
POLYLINE
  8
0
  6
CONTINUOUS
 66
     1
 40
0.000000
 41
0.000000
  0
VERTEX
  8
0
  6
CONTINUOUS
 10
5.640360
 20
5.864320
  0
VERTEX
  8
0
  6
CONTINUOUS
 10
6.278360
 20
6.234800
  0
VERTEX
  8
0
  6
CONTINUOUS
 10
6.234360
 20
6.190360
  0
VERTEX
  8
0
  6
CONTINUOUS
 10
5.596360
 20
5.819880
  0
VERTEX
  8
0
  6
CONTINUOUS
 10
5.640360
 20
5.864320
  0
SEQEND
  8
0
  0
SOLID
  8
0
 62
    15
 10
5.575680
 20
5.803160
 11
6.214120
 21
6.174080
 12
5.558080
 22
5.791720
 13
6.196520
 23
6.162200
  0
POLYLINE
  8
0
  6
CONTINUOUS
 66
     1
 40
0.000000
 41
0.000000
  0
VERTEX
  8
0
  6
CONTINUOUS
 10
5.575680
 20
5.803160
  0
VERTEX
  8
0
  6
CONTINUOUS
 10
6.214120
 20
6.174080
  0
VERTEX
  8
0
  6
CONTINUOUS
 10
6.196520
 20
6.162200
  0
VERTEX
  8
0
  6
CONTINUOUS
 10
5.558080
 20
5.791720
  0
VERTEX
  8
0
  6
CONTINUOUS
 10
5.575680
 20
5.803160
  0
SEQEND
  8
0
  0
SOLID
  8
0
 62
    15
 10
5.596360
 20
5.819880
 11
6.234360
 21
6.190360
 12
5.575680
 22
5.803160
 13
6.214120
 23
6.174080
  0
POLYLINE
  8
0
  6
CONTINUOUS
 66
     1
 40
0.000000
 41
0.000000
  0
VERTEX
  8
0
  6
CONTINUOUS
 10
5.596360
 20
5.819880
  0
VERTEX
  8
0
  6
CONTINUOUS
 10
6.234360
 20
6.190360
  0
VERTEX
  8
0
  6
CONTINUOUS
 10
6.214120
 20
6.174080
  0
VERTEX
  8
0
  6
CONTINUOUS
 10
5.575680
 20
5.803160
  0
VERTEX
  8
0
  6
CONTINUOUS
 10
5.596360
 20
5.819880
  0
SEQEND
  8
0
  0
SOLID
  8
0
 62
    15
 10
5.804920
 20
6.865760
 11
6.442920
 21
7.236680
 12
5.757840
 22
6.831440
 13
6.396280
 23
7.201920
  0
POLYLINE
  8
0
  6
CONTINUOUS
 66
     1
 40
0.000000
 41
0.000000
  0
VERTEX
  8
0
  6
CONTINUOUS
 10
5.804920
 20
6.865760
  0
VERTEX
  8
0
  6
CONTINUOUS
 10
6.442920
 20
7.236680
  0
VERTEX
  8
0
  6
CONTINUOUS
 10
6.396280
 20
7.201920
  0
VERTEX
  8
0
  6
CONTINUOUS
 10
5.757840
 20
6.831440
  0
VERTEX
  8
0
  6
CONTINUOUS
 10
5.804920
 20
6.865760
  0
SEQEND
  8
0
  0
SOLID
  8
0
 62
    15
 10
5.382960
 20
5.707680
 11
6.020960
 21
6.078600
 12
5.337640
 22
5.675120
 13
5.975640
 23
6.045600
  0
POLYLINE
  8
0
  6
CONTINUOUS
 66
     1
 40
0.000000
 41
0.000000
  0
VERTEX
  8
0
  6
CONTINUOUS
 10
5.382960
 20
5.707680
  0
VERTEX
  8
0
  6
CONTINUOUS
 10
6.020960
 20
6.078600
  0
VERTEX
  8
0
  6
CONTINUOUS
 10
5.975640
 20
6.045600
  0
VERTEX
  8
0
  6
CONTINUOUS
 10
5.337640
 20
5.675120
  0
VERTEX
  8
0
  6
CONTINUOUS
 10
5.382960
 20
5.707680
  0
SEQEND
  8
0
  0
SOLID
  8
0
 62
    15
 10
5.298480
 20
5.633320
 11
5.936480
 21
6.003800
 12
5.282200
 22
5.608680
 13
5.920200
 23
5.979160
  0
POLYLINE
  8
0
  6
CONTINUOUS
 66
     1
 40
0.000000
 41
0.000000
  0
VERTEX
  8
0
  6
CONTINUOUS
 10
5.298480
 20
5.633320
  0
VERTEX
  8
0
  6
CONTINUOUS
 10
5.936480
 20
6.003800
  0
VERTEX
  8
0
  6
CONTINUOUS
 10
5.920200
 20
5.979160
  0
VERTEX
  8
0
  6
CONTINUOUS
 10
5.282200
 20
5.608680
  0
VERTEX
  8
0
  6
CONTINUOUS
 10
5.298480
 20
5.633320
  0
SEQEND
  8
0
  0
SOLID
  8
0
 62
    15
 10
5.282200
 20
5.608680
 11
5.920200
 21
5.979160
 12
5.268560
 22
5.580960
 13
5.907000
 23
5.951440
  0
POLYLINE
  8
0
  6
CONTINUOUS
 66
     1
 40
0.000000
 41
0.000000
  0
VERTEX
  8
0
  6
CONTINUOUS
 10
5.282200
 20
5.608680
  0
VERTEX
  8
0
  6
CONTINUOUS
 10
5.920200
 20
5.979160
  0
VERTEX
  8
0
  6
CONTINUOUS
 10
5.907000
 20
5.951440
  0
VERTEX
  8
0
  6
CONTINUOUS
 10
5.268560
 20
5.580960
  0
VERTEX
  8
0
  6
CONTINUOUS
 10
5.282200
 20
5.608680
  0
SEQEND
  8
0
  0
SOLID
  8
0
 62
    15
 10
5.268560
 20
5.580960
 11
5.907000
 21
5.951440
 12
5.258440
 22
5.550160
 13
5.896440
 23
5.920640
  0
POLYLINE
  8
0
  6
CONTINUOUS
 66
     1
 40
0.000000
 41
0.000000
  0
VERTEX
  8
0
  6
CONTINUOUS
 10
5.268560
 20
5.580960
  0
VERTEX
  8
0
  6
CONTINUOUS
 10
5.907000
 20
5.951440
  0
VERTEX
  8
0
  6
CONTINUOUS
 10
5.896440
 20
5.920640
  0
VERTEX
  8
0
  6
CONTINUOUS
 10
5.258440
 20
5.550160
  0
VERTEX
  8
0
  6
CONTINUOUS
 10
5.268560
 20
5.580960
  0
SEQEND
  8
0
  0
SOLID
  8
0
 62
    15
 10
5.258440
 20
5.550160
 11
5.896440
 21
5.920640
 12
5.251400
 22
5.515840
 13
5.889840
 23
5.886320
  0
POLYLINE
  8
0
  6
CONTINUOUS
 66
     1
 40
0.000000
 41
0.000000
  0
VERTEX
  8
0
  6
CONTINUOUS
 10
5.258440
 20
5.550160
  0
VERTEX
  8
0
  6
CONTINUOUS
 10
5.896440
 20
5.920640
  0
VERTEX
  8
0
  6
CONTINUOUS
 10
5.889840
 20
5.886320
  0
VERTEX
  8
0
  6
CONTINUOUS
 10
5.251400
 20
5.515840
  0
VERTEX
  8
0
  6
CONTINUOUS
 10
5.258440
 20
5.550160
  0
SEQEND
  8
0
  0
SOLID
  8
0
 62
    15
 10
5.251400
 20
5.515840
 11
5.889840
 21
5.886320
 12
5.257120
 22
5.499120
 13
5.895560
 23
5.870040
  0
POLYLINE
  8
0
  6
CONTINUOUS
 66
     1
 40
0.000000
 41
0.000000
  0
VERTEX
  8
0
  6
CONTINUOUS
 10
5.251400
 20
5.515840
  0
VERTEX
  8
0
  6
CONTINUOUS
 10
5.889840
 20
5.886320
  0
VERTEX
  8
0
  6
CONTINUOUS
 10
5.895560
 20
5.870040
  0
VERTEX
  8
0
  6
CONTINUOUS
 10
5.257120
 20
5.499120
  0
VERTEX
  8
0
  6
CONTINUOUS
 10
5.251400
 20
5.515840
  0
SEQEND
  8
0
  0
SOLID
  8
0
 62
    15
 10
5.257120
 20
5.499120
 11
5.895560
 21
5.870040
 12
5.265920
 22
5.486360
 13
5.903920
 23
5.856840
  0
POLYLINE
  8
0
  6
CONTINUOUS
 66
     1
 40
0.000000
 41
0.000000
  0
VERTEX
  8
0
  6
CONTINUOUS
 10
5.257120
 20
5.499120
  0
VERTEX
  8
0
  6
CONTINUOUS
 10
5.895560
 20
5.870040
  0
VERTEX
  8
0
  6
CONTINUOUS
 10
5.903920
 20
5.856840
  0
VERTEX
  8
0
  6
CONTINUOUS
 10
5.265920
 20
5.486360
  0
VERTEX
  8
0
  6
CONTINUOUS
 10
5.257120
 20
5.499120
  0
SEQEND
  8
0
  0
SOLID
  8
0
 62
    15
 10
5.265920
 20
5.486360
 11
5.903920
 21
5.856840
 12
5.291880
 22
5.467000
 13
5.929880
 23
5.837480
  0
POLYLINE
  8
0
  6
CONTINUOUS
 66
     1
 40
0.000000
 41
0.000000
  0
VERTEX
  8
0
  6
CONTINUOUS
 10
5.265920
 20
5.486360
  0
VERTEX
  8
0
  6
CONTINUOUS
 10
5.903920
 20
5.856840
  0
VERTEX
  8
0
  6
CONTINUOUS
 10
5.929880
 20
5.837480
  0
VERTEX
  8
0
  6
CONTINUOUS
 10
5.291880
 20
5.467000
  0
VERTEX
  8
0
  6
CONTINUOUS
 10
5.265920
 20
5.486360
  0
SEQEND
  8
0
  0
SOLID
  8
0
 62
    15
 10
5.291880
 20
5.467000
 11
5.929880
 21
5.837480
 12
5.325760
 22
5.450720
 13
5.964200
 23
5.821640
  0
POLYLINE
  8
0
  6
CONTINUOUS
 66
     1
 40
0.000000
 41
0.000000
  0
VERTEX
  8
0
  6
CONTINUOUS
 10
5.291880
 20
5.467000
  0
VERTEX
  8
0
  6
CONTINUOUS
 10
5.929880
 20
5.837480
  0
VERTEX
  8
0
  6
CONTINUOUS
 10
5.964200
 20
5.821640
  0
VERTEX
  8
0
  6
CONTINUOUS
 10
5.325760
 20
5.450720
  0
VERTEX
  8
0
  6
CONTINUOUS
 10
5.291880
 20
5.467000
  0
SEQEND
  8
0
  0
SOLID
  8
0
 62
    15
 10
5.325760
 20
5.450720
 11
5.964200
 21
5.821640
 12
5.364920
 22
5.430920
 13
6.002920
 23
5.801400
  0
POLYLINE
  8
0
  6
CONTINUOUS
 66
     1
 40
0.000000
 41
0.000000
  0
VERTEX
  8
0
  6
CONTINUOUS
 10
5.325760
 20
5.450720
  0
VERTEX
  8
0
  6
CONTINUOUS
 10
5.964200
 20
5.821640
  0
VERTEX
  8
0
  6
CONTINUOUS
 10
6.002920
 20
5.801400
  0
VERTEX
  8
0
  6
CONTINUOUS
 10
5.364920
 20
5.430920
  0
VERTEX
  8
0
  6
CONTINUOUS
 10
5.325760
 20
5.450720
  0
SEQEND
  8
0
  0
SOLID
  8
0
 62
    15
 10
5.364920
 20
5.430920
 11
6.002920
 21
5.801400
 12
5.374600
 22
5.422560
 13
6.013040
 23
5.793040
  0
POLYLINE
  8
0
  6
CONTINUOUS
 66
     1
 40
0.000000
 41
0.000000
  0
VERTEX
  8
0
  6
CONTINUOUS
 10
5.364920
 20
5.430920
  0
VERTEX
  8
0
  6
CONTINUOUS
 10
6.002920
 20
5.801400
  0
VERTEX
  8
0
  6
CONTINUOUS
 10
6.013040
 20
5.793040
  0
VERTEX
  8
0
  6
CONTINUOUS
 10
5.374600
 20
5.422560
  0
VERTEX
  8
0
  6
CONTINUOUS
 10
5.364920
 20
5.430920
  0
SEQEND
  8
0
  0
SOLID
  8
0
 62
    15
 10
5.374600
 20
5.422560
 11
6.013040
 21
5.793040
 12
5.383400
 22
5.409800
 13
6.021840
 23
5.780720
  0
POLYLINE
  8
0
  6
CONTINUOUS
 66
     1
 40
0.000000
 41
0.000000
  0
VERTEX
  8
0
  6
CONTINUOUS
 10
5.374600
 20
5.422560
  0
VERTEX
  8
0
  6
CONTINUOUS
 10
6.013040
 20
5.793040
  0
VERTEX
  8
0
  6
CONTINUOUS
 10
6.021840
 20
5.780720
  0
VERTEX
  8
0
  6
CONTINUOUS
 10
5.383400
 20
5.409800
  0
VERTEX
  8
0
  6
CONTINUOUS
 10
5.374600
 20
5.422560
  0
SEQEND
  8
0
  0
SOLID
  8
0
 62
    15
 10
5.383400
 20
5.409800
 11
6.021840
 21
5.780720
 12
5.397920
 22
5.375040
 13
6.035920
 23
5.745520
  0
POLYLINE
  8
0
  6
CONTINUOUS
 66
     1
 40
0.000000
 41
0.000000
  0
VERTEX
  8
0
  6
CONTINUOUS
 10
5.383400
 20
5.409800
  0
VERTEX
  8
0
  6
CONTINUOUS
 10
6.021840
 20
5.780720
  0
VERTEX
  8
0
  6
CONTINUOUS
 10
6.035920
 20
5.745520
  0
VERTEX
  8
0
  6
CONTINUOUS
 10
5.397920
 20
5.375040
  0
VERTEX
  8
0
  6
CONTINUOUS
 10
5.383400
 20
5.409800
  0
SEQEND
  8
0
  0
SOLID
  8
0
 62
    15
 10
5.397920
 20
5.375040
 11
6.035920
 21
5.745520
 12
5.404520
 22
5.330160
 13
6.042960
 23
5.701080
  0
POLYLINE
  8
0
  6
CONTINUOUS
 66
     1
 40
0.000000
 41
0.000000
  0
VERTEX
  8
0
  6
CONTINUOUS
 10
5.397920
 20
5.375040
  0
VERTEX
  8
0
  6
CONTINUOUS
 10
6.035920
 20
5.745520
  0
VERTEX
  8
0
  6
CONTINUOUS
 10
6.042960
 20
5.701080
  0
VERTEX
  8
0
  6
CONTINUOUS
 10
5.404520
 20
5.330160
  0
VERTEX
  8
0
  6
CONTINUOUS
 10
5.397920
 20
5.375040
  0
SEQEND
  8
0
  0
SOLID
  8
0
 62
    15
 10
5.404520
 20
5.330160
 11
6.042960
 21
5.701080
 12
5.401440
 22
5.281320
 13
6.039880
 23
5.651800
  0
POLYLINE
  8
0
  6
CONTINUOUS
 66
     1
 40
0.000000
 41
0.000000
  0
VERTEX
  8
0
  6
CONTINUOUS
 10
5.404520
 20
5.330160
  0
VERTEX
  8
0
  6
CONTINUOUS
 10
6.042960
 20
5.701080
  0
VERTEX
  8
0
  6
CONTINUOUS
 10
6.039880
 20
5.651800
  0
VERTEX
  8
0
  6
CONTINUOUS
 10
5.401440
 20
5.281320
  0
VERTEX
  8
0
  6
CONTINUOUS
 10
5.404520
 20
5.330160
  0
SEQEND
  8
0
  0
SOLID
  8
0
 62
    15
 10
5.401440
 20
5.281320
 11
6.039880
 21
5.651800
 12
5.385160
 22
5.232480
 13
6.023600
 23
5.602960
  0
POLYLINE
  8
0
  6
CONTINUOUS
 66
     1
 40
0.000000
 41
0.000000
  0
VERTEX
  8
0
  6
CONTINUOUS
 10
5.401440
 20
5.281320
  0
VERTEX
  8
0
  6
CONTINUOUS
 10
6.039880
 20
5.651800
  0
VERTEX
  8
0
  6
CONTINUOUS
 10
6.023600
 20
5.602960
  0
VERTEX
  8
0
  6
CONTINUOUS
 10
5.385160
 20
5.232480
  0
VERTEX
  8
0
  6
CONTINUOUS
 10
5.401440
 20
5.281320
  0
SEQEND
  8
0
  0
SOLID
  8
0
 62
    15
 10
5.230720
 20
5.136560
 11
5.869160
 21
5.507040
 12
5.230720
 22
5.003680
 13
5.869160
 23
5.374160
  0
POLYLINE
  8
0
  6
CONTINUOUS
 66
     1
 40
0.000000
 41
0.000000
  0
VERTEX
  8
0
  6
CONTINUOUS
 10
5.230720
 20
5.136560
  0
VERTEX
  8
0
  6
CONTINUOUS
 10
5.869160
 20
5.507040
  0
VERTEX
  8
0
  6
CONTINUOUS
 10
5.869160
 20
5.374160
  0
VERTEX
  8
0
  6
CONTINUOUS
 10
5.230720
 20
5.003680
  0
VERTEX
  8
0
  6
CONTINUOUS
 10
5.230720
 20
5.136560
  0
SEQEND
  8
0
  0
SOLID
  8
0
 62
    15
 10
5.353040
 20
5.188920
 11
5.991480
 21
5.559400
 12
5.330600
 22
5.170440
 13
5.968600
 23
5.540920
  0
POLYLINE
  8
0
  6
CONTINUOUS
 66
     1
 40
0.000000
 41
0.000000
  0
VERTEX
  8
0
  6
CONTINUOUS
 10
5.353040
 20
5.188920
  0
VERTEX
  8
0
  6
CONTINUOUS
 10
5.991480
 20
5.559400
  0
VERTEX
  8
0
  6
CONTINUOUS
 10
5.968600
 20
5.540920
  0
VERTEX
  8
0
  6
CONTINUOUS
 10
5.330600
 20
5.170440
  0
VERTEX
  8
0
  6
CONTINUOUS
 10
5.353040
 20
5.188920
  0
SEQEND
  8
0
  0
SOLID
  8
0
 62
    15
 10
5.371080
 20
5.209600
 11
6.009520
 21
5.580520
 12
5.353040
 22
5.188920
 13
5.991480
 23
5.559400
  0
POLYLINE
  8
0
  6
CONTINUOUS
 66
     1
 40
0.000000
 41
0.000000
  0
VERTEX
  8
0
  6
CONTINUOUS
 10
5.371080
 20
5.209600
  0
VERTEX
  8
0
  6
CONTINUOUS
 10
6.009520
 20
5.580520
  0
VERTEX
  8
0
  6
CONTINUOUS
 10
5.991480
 20
5.559400
  0
VERTEX
  8
0
  6
CONTINUOUS
 10
5.353040
 20
5.188920
  0
VERTEX
  8
0
  6
CONTINUOUS
 10
5.371080
 20
5.209600
  0
SEQEND
  8
0
  0
SOLID
  8
0
 62
    15
 10
5.385160
 20
5.232480
 11
6.023600
 21
5.602960
 12
5.371080
 22
5.209600
 13
6.009520
 23
5.580520
  0
POLYLINE
  8
0
  6
CONTINUOUS
 66
     1
 40
0.000000
 41
0.000000
  0
VERTEX
  8
0
  6
CONTINUOUS
 10
5.385160
 20
5.232480
  0
VERTEX
  8
0
  6
CONTINUOUS
 10
6.023600
 20
5.602960
  0
VERTEX
  8
0
  6
CONTINUOUS
 10
6.009520
 20
5.580520
  0
VERTEX
  8
0
  6
CONTINUOUS
 10
5.371080
 20
5.209600
  0
VERTEX
  8
0
  6
CONTINUOUS
 10
5.385160
 20
5.232480
  0
SEQEND
  8
0
  0
SOLID
  8
0
 62
    15
 10
5.008080
 20
8.679440
 11
5.646080
 21
9.049920
 12
5.805360
 22
8.679440
 13
6.443800
 23
9.049920
  0
POLYLINE
  8
0
  6
CONTINUOUS
 66
     1
 40
0.000000
 41
0.000000
  0
VERTEX
  8
0
  6
CONTINUOUS
 10
5.008080
 20
8.679440
  0
VERTEX
  8
0
  6
CONTINUOUS
 10
5.646080
 20
9.049920
  0
VERTEX
  8
0
  6
CONTINUOUS
 10
6.443800
 20
9.049920
  0
VERTEX
  8
0
  6
CONTINUOUS
 10
5.805360
 20
8.679440
  0
VERTEX
  8
0
  6
CONTINUOUS
 10
5.008080
 20
8.679440
  0
SEQEND
  8
0
  0
SOLID
  8
0
 62
    15
 10
5.805360
 20
8.679440
 11
6.443800
 21
9.049920
 12
5.804920
 22
6.865760
 13
6.442920
 23
7.236680
  0
POLYLINE
  8
0
  6
CONTINUOUS
 66
     1
 40
0.000000
 41
0.000000
  0
VERTEX
  8
0
  6
CONTINUOUS
 10
5.805360
 20
8.679440
  0
VERTEX
  8
0
  6
CONTINUOUS
 10
6.443800
 20
9.049920
  0
VERTEX
  8
0
  6
CONTINUOUS
 10
6.442920
 20
7.236680
  0
VERTEX
  8
0
  6
CONTINUOUS
 10
5.804920
 20
6.865760
  0
VERTEX
  8
0
  6
CONTINUOUS
 10
5.805360
 20
8.679440
  0
SEQEND
  8
0
  0
POLYLINE
  8
0
  6
CONTINUOUS
 66
     1
 40
0.000000
 41
0.000000
  0
VERTEX
  8
0
  6
CONTINUOUS
 10
5.804920
 20
6.865760
  0
VERTEX
  8
0
  6
CONTINUOUS
 10
5.757840
 20
6.831440
  0
VERTEX
  8
0
  6
CONTINUOUS
 10
5.734960
 20
6.809440
  0
VERTEX
  8
0
  6
CONTINUOUS
 10
5.713400
 20
6.783480
  0
VERTEX
  8
0
  6
CONTINUOUS
 10
5.693600
 20
6.751800
  0
VERTEX
  8
0
  6
CONTINUOUS
 10
5.676440
 20
6.713960
  0
VERTEX
  8
0
  6
CONTINUOUS
 10
5.662360
 20
6.668200
  0
VERTEX
  8
0
  6
CONTINUOUS
 10
5.652240
 20
6.614080
  0
VERTEX
  8
0
  6
CONTINUOUS
 10
5.652240
 20
6.357120
  0
VERTEX
  8
0
  6
CONTINUOUS
 10
5.523320
 20
6.357120
  0
VERTEX
  8
0
  6
CONTINUOUS
 10
5.523320
 20
6.266920
  0
VERTEX
  8
0
  6
CONTINUOUS
 10
5.585360
 20
6.236120
  0
VERTEX
  8
0
  6
CONTINUOUS
 10
5.633760
 20
6.203120
  0
VERTEX
  8
0
  6
CONTINUOUS
 10
5.670280
 20
6.168800
  0
VERTEX
  8
0
  6
CONTINUOUS
 10
5.695800
 20
6.132720
  0
VERTEX
  8
0
  6
CONTINUOUS
 10
5.711640
 20
6.096640
  0
VERTEX
  8
0
  6
CONTINUOUS
 10
5.718240
 20
6.060120
  0
VERTEX
  8
0
  6
CONTINUOUS
 10
5.717800
 20
6.023600
  0
VERTEX
  8
0
  6
CONTINUOUS
 10
5.710760
 20
5.988400
  0
VERTEX
  8
0
  6
CONTINUOUS
 10
5.698000
 20
5.954080
  0
VERTEX
  8
0
  6
CONTINUOUS
 10
5.681280
 20
5.921960
  0
VERTEX
  8
0
  6
CONTINUOUS
 10
5.640360
 20
5.864320
  0
VERTEX
  8
0
  6
CONTINUOUS
 10
5.596360
 20
5.819880
  0
VERTEX
  8
0
  6
CONTINUOUS
 10
5.575680
 20
5.803160
  0
VERTEX
  8
0
  6
CONTINUOUS
 10
5.558080
 20
5.791720
  0
VERTEX
  8
0
  6
CONTINUOUS
 10
5.522000
 20
5.773680
  0
VERTEX
  8
0
  6
CONTINUOUS
 10
5.430920
 20
5.733640
  0
VERTEX
  8
0
  6
CONTINUOUS
 10
5.382960
 20
5.707680
  0
VERTEX
  8
0
  6
CONTINUOUS
 10
5.337640
 20
5.675120
  0
VERTEX
  8
0
  6
CONTINUOUS
 10
5.298480
 20
5.633320
  0
VERTEX
  8
0
  6
CONTINUOUS
 10
5.282200
 20
5.608680
  0
VERTEX
  8
0
  6
CONTINUOUS
 10
5.268560
 20
5.580960
  0
VERTEX
  8
0
  6
CONTINUOUS
 10
5.258440
 20
5.550160
  0
VERTEX
  8
0
  6
CONTINUOUS
 10
5.251400
 20
5.515840
  0
VERTEX
  8
0
  6
CONTINUOUS
 10
5.257120
 20
5.499120
  0
VERTEX
  8
0
  6
CONTINUOUS
 10
5.265920
 20
5.486360
  0
VERTEX
  8
0
  6
CONTINUOUS
 10
5.291880
 20
5.467000
  0
VERTEX
  8
0
  6
CONTINUOUS
 10
5.364920
 20
5.430920
  0
VERTEX
  8
0
  6
CONTINUOUS
 10
5.374600
 20
5.422560
  0
VERTEX
  8
0
  6
CONTINUOUS
 10
5.383400
 20
5.409800
  0
VERTEX
  8
0
  6
CONTINUOUS
 10
5.397920
 20
5.375040
  0
VERTEX
  8
0
  6
CONTINUOUS
 10
5.404520
 20
5.330160
  0
VERTEX
  8
0
  6
CONTINUOUS
 10
5.401440
 20
5.281320
  0
VERTEX
  8
0
  6
CONTINUOUS
 10
5.385160
 20
5.232480
  0
VERTEX
  8
0
  6
CONTINUOUS
 10
5.371080
 20
5.209600
  0
VERTEX
  8
0
  6
CONTINUOUS
 10
5.353040
 20
5.188920
  0
VERTEX
  8
0
  6
CONTINUOUS
 10
5.330600
 20
5.170440
  0
VERTEX
  8
0
  6
CONTINUOUS
 10
5.302440
 20
5.155040
  0
VERTEX
  8
0
  6
CONTINUOUS
 10
5.269440
 20
5.143600
  0
VERTEX
  8
0
  6
CONTINUOUS
 10
5.230720
 20
5.136560
  0
VERTEX
  8
0
  6
CONTINUOUS
 10
5.230720
 20
5.003680
  0
VERTEX
  8
0
  6
CONTINUOUS
 10
5.008080
 20
5.003680
  0
VERTEX
  8
0
  6
CONTINUOUS
 10
5.008080
 20
8.679440
  0
VERTEX
  8
0
  6
CONTINUOUS
 10
5.805360
 20
8.679440
  0
VERTEX
  8
0
  6
CONTINUOUS
 10
5.804920
 20
6.865760
  0
SEQEND
  8
0
  0
TEXT
  8
0
 10
5.430920
 20
4.753760
 40
0.138298
  1
BA  581
 41
1.000000
  7
SN0
 71
     0
 72
     5
 11
6.022881
 21
4.753760
  0
TEXT
  8
0
 10
5.090360
 20
4.562360
 40
0.138298
  1
13/16" x 3-11/16"
 41
1.000000
  7
SN0
 71
     0
 72
     5
 11
6.365812
 21
4.562360
  0
SOLID
  8
0
 62
    15
 10
1.333640
 20
0.956120
 11
1.972080
 21
1.327040
 12
1.294480
 22
0.914760
 13
1.932920
 23
1.285240
  0
POLYLINE
  8
0
  6
CONTINUOUS
 66
     1
 40
0.000000
 41
0.000000
  0
VERTEX
  8
0
  6
CONTINUOUS
 10
1.333640
 20
0.956120
  0
VERTEX
  8
0
  6
CONTINUOUS
 10
1.972080
 20
1.327040
  0
VERTEX
  8
0
  6
CONTINUOUS
 10
1.932920
 20
1.285240
  0
VERTEX
  8
0
  6
CONTINUOUS
 10
1.294480
 20
0.914760
  0
VERTEX
  8
0
  6
CONTINUOUS
 10
1.333640
 20
0.956120
  0
SEQEND
  8
0
  0
SOLID
  8
0
 62
    15
 10
1.753840
 20
2.112440
 11
2.392280
 21
2.483360
 12
1.730960
 22
2.090880
 13
2.369400
 23
2.461360
  0
POLYLINE
  8
0
  6
CONTINUOUS
 66
     1
 40
0.000000
 41
0.000000
  0
VERTEX
  8
0
  6
CONTINUOUS
 10
1.753840
 20
2.112440
  0
VERTEX
  8
0
  6
CONTINUOUS
 10
2.392280
 20
2.483360
  0
VERTEX
  8
0
  6
CONTINUOUS
 10
2.369400
 20
2.461360
  0
VERTEX
  8
0
  6
CONTINUOUS
 10
1.730960
 20
2.090880
  0
VERTEX
  8
0
  6
CONTINUOUS
 10
1.753840
 20
2.112440
  0
SEQEND
  8
0
  0
SOLID
  8
0
 62
    15
 10
1.730960
 20
2.090880
 11
2.369400
 21
2.461360
 12
1.709400
 22
2.064480
 13
2.347840
 23
2.435400
  0
POLYLINE
  8
0
  6
CONTINUOUS
 66
     1
 40
0.000000
 41
0.000000
  0
VERTEX
  8
0
  6
CONTINUOUS
 10
1.730960
 20
2.090880
  0
VERTEX
  8
0
  6
CONTINUOUS
 10
2.369400
 20
2.461360
  0
VERTEX
  8
0
  6
CONTINUOUS
 10
2.347840
 20
2.435400
  0
VERTEX
  8
0
  6
CONTINUOUS
 10
1.709400
 20
2.064480
  0
VERTEX
  8
0
  6
CONTINUOUS
 10
1.730960
 20
2.090880
  0
SEQEND
  8
0
  0
SOLID
  8
0
 62
    15
 10
1.709400
 20
2.064480
 11
2.347840
 21
2.435400
 12
1.689600
 22
2.033240
 13
2.328040
 23
2.403720
  0
POLYLINE
  8
0
  6
CONTINUOUS
 66
     1
 40
0.000000
 41
0.000000
  0
VERTEX
  8
0
  6
CONTINUOUS
 10
1.709400
 20
2.064480
  0
VERTEX
  8
0
  6
CONTINUOUS
 10
2.347840
 20
2.435400
  0
VERTEX
  8
0
  6
CONTINUOUS
 10
2.328040
 20
2.403720
  0
VERTEX
  8
0
  6
CONTINUOUS
 10
1.689600
 20
2.033240
  0
VERTEX
  8
0
  6
CONTINUOUS
 10
1.709400
 20
2.064480
  0
SEQEND
  8
0
  0
SOLID
  8
0
 62
    15
 10
1.689600
 20
2.033240
 11
2.328040
 21
2.403720
 12
1.672440
 22
1.994960
 13
2.310880
 23
2.365880
  0
POLYLINE
  8
0
  6
CONTINUOUS
 66
     1
 40
0.000000
 41
0.000000
  0
VERTEX
  8
0
  6
CONTINUOUS
 10
1.689600
 20
2.033240
  0
VERTEX
  8
0
  6
CONTINUOUS
 10
2.328040
 20
2.403720
  0
VERTEX
  8
0
  6
CONTINUOUS
 10
2.310880
 20
2.365880
  0
VERTEX
  8
0
  6
CONTINUOUS
 10
1.672440
 20
1.994960
  0
VERTEX
  8
0
  6
CONTINUOUS
 10
1.689600
 20
2.033240
  0
SEQEND
  8
0
  0
SOLID
  8
0
 62
    15
 10
1.672440
 20
1.994960
 11
2.310880
 21
2.365880
 12
1.658800
 22
1.949640
 13
2.296800
 23
2.320120
  0
POLYLINE
  8
0
  6
CONTINUOUS
 66
     1
 40
0.000000
 41
0.000000
  0
VERTEX
  8
0
  6
CONTINUOUS
 10
1.672440
 20
1.994960
  0
VERTEX
  8
0
  6
CONTINUOUS
 10
2.310880
 20
2.365880
  0
VERTEX
  8
0
  6
CONTINUOUS
 10
2.296800
 20
2.320120
  0
VERTEX
  8
0
  6
CONTINUOUS
 10
1.658800
 20
1.949640
  0
VERTEX
  8
0
  6
CONTINUOUS
 10
1.672440
 20
1.994960
  0
SEQEND
  8
0
  0
SOLID
  8
0
 62
    15
 10
1.658800
 20
1.949640
 11
2.296800
 21
2.320120
 12
1.648680
 22
1.895520
 13
2.286680
 23
2.266000
  0
POLYLINE
  8
0
  6
CONTINUOUS
 66
     1
 40
0.000000
 41
0.000000
  0
VERTEX
  8
0
  6
CONTINUOUS
 10
1.658800
 20
1.949640
  0
VERTEX
  8
0
  6
CONTINUOUS
 10
2.296800
 20
2.320120
  0
VERTEX
  8
0
  6
CONTINUOUS
 10
2.286680
 20
2.266000
  0
VERTEX
  8
0
  6
CONTINUOUS
 10
1.648680
 20
1.895520
  0
VERTEX
  8
0
  6
CONTINUOUS
 10
1.658800
 20
1.949640
  0
SEQEND
  8
0
  0
SOLID
  8
0
 62
    15
 10
1.519320
 20
1.638120
 11
2.157760
 21
2.009040
 12
1.519320
 22
1.548360
 13
2.157760
 23
1.918840
  0
POLYLINE
  8
0
  6
CONTINUOUS
 66
     1
 40
0.000000
 41
0.000000
  0
VERTEX
  8
0
  6
CONTINUOUS
 10
1.519320
 20
1.638120
  0
VERTEX
  8
0
  6
CONTINUOUS
 10
2.157760
 20
2.009040
  0
VERTEX
  8
0
  6
CONTINUOUS
 10
2.157760
 20
1.918840
  0
VERTEX
  8
0
  6
CONTINUOUS
 10
1.519320
 20
1.548360
  0
VERTEX
  8
0
  6
CONTINUOUS
 10
1.519320
 20
1.638120
  0
SEQEND
  8
0
  0
SOLID
  8
0
 62
    15
 10
1.648680
 20
1.895520
 11
2.286680
 21
2.266000
 12
1.648680
 22
1.638120
 13
2.286680
 23
2.009040
  0
POLYLINE
  8
0
  6
CONTINUOUS
 66
     1
 40
0.000000
 41
0.000000
  0
VERTEX
  8
0
  6
CONTINUOUS
 10
1.648680
 20
1.895520
  0
VERTEX
  8
0
  6
CONTINUOUS
 10
2.286680
 20
2.266000
  0
VERTEX
  8
0
  6
CONTINUOUS
 10
2.286680
 20
2.009040
  0
VERTEX
  8
0
  6
CONTINUOUS
 10
1.648680
 20
1.638120
  0
VERTEX
  8
0
  6
CONTINUOUS
 10
1.648680
 20
1.895520
  0
SEQEND
  8
0
  0
SOLID
  8
0
 62
    15
 10
1.519320
 20
1.548360
 11
2.157760
 21
1.918840
 12
1.581360
 22
1.517560
 13
2.219800
 23
1.888040
  0
POLYLINE
  8
0
  6
CONTINUOUS
 66
     1
 40
0.000000
 41
0.000000
  0
VERTEX
  8
0
  6
CONTINUOUS
 10
1.519320
 20
1.548360
  0
VERTEX
  8
0
  6
CONTINUOUS
 10
2.157760
 20
1.918840
  0
VERTEX
  8
0
  6
CONTINUOUS
 10
2.219800
 20
1.888040
  0
VERTEX
  8
0
  6
CONTINUOUS
 10
1.581360
 20
1.517560
  0
VERTEX
  8
0
  6
CONTINUOUS
 10
1.519320
 20
1.548360
  0
SEQEND
  8
0
  0
SOLID
  8
0
 62
    15
 10
1.581360
 20
1.517560
 11
2.219800
 21
1.888040
 12
1.630200
 22
1.484560
 13
2.268640
 23
1.855040
  0
POLYLINE
  8
0
  6
CONTINUOUS
 66
     1
 40
0.000000
 41
0.000000
  0
VERTEX
  8
0
  6
CONTINUOUS
 10
1.581360
 20
1.517560
  0
VERTEX
  8
0
  6
CONTINUOUS
 10
2.219800
 20
1.888040
  0
VERTEX
  8
0
  6
CONTINUOUS
 10
2.268640
 20
1.855040
  0
VERTEX
  8
0
  6
CONTINUOUS
 10
1.630200
 20
1.484560
  0
VERTEX
  8
0
  6
CONTINUOUS
 10
1.581360
 20
1.517560
  0
SEQEND
  8
0
  0
SOLID
  8
0
 62
    15
 10
1.630200
 20
1.484560
 11
2.268640
 21
1.855040
 12
1.666720
 22
1.449800
 13
2.304720
 23
1.820720
  0
POLYLINE
  8
0
  6
CONTINUOUS
 66
     1
 40
0.000000
 41
0.000000
  0
VERTEX
  8
0
  6
CONTINUOUS
 10
1.630200
 20
1.484560
  0
VERTEX
  8
0
  6
CONTINUOUS
 10
2.268640
 20
1.855040
  0
VERTEX
  8
0
  6
CONTINUOUS
 10
2.304720
 20
1.820720
  0
VERTEX
  8
0
  6
CONTINUOUS
 10
1.666720
 20
1.449800
  0
VERTEX
  8
0
  6
CONTINUOUS
 10
1.630200
 20
1.484560
  0
SEQEND
  8
0
  0
SOLID
  8
0
 62
    15
 10
1.666720
 20
1.449800
 11
2.304720
 21
1.820720
 12
1.692240
 22
1.414160
 13
2.330240
 23
1.784640
  0
POLYLINE
  8
0
  6
CONTINUOUS
 66
     1
 40
0.000000
 41
0.000000
  0
VERTEX
  8
0
  6
CONTINUOUS
 10
1.666720
 20
1.449800
  0
VERTEX
  8
0
  6
CONTINUOUS
 10
2.304720
 20
1.820720
  0
VERTEX
  8
0
  6
CONTINUOUS
 10
2.330240
 20
1.784640
  0
VERTEX
  8
0
  6
CONTINUOUS
 10
1.692240
 20
1.414160
  0
VERTEX
  8
0
  6
CONTINUOUS
 10
1.666720
 20
1.449800
  0
SEQEND
  8
0
  0
SOLID
  8
0
 62
    15
 10
1.692240
 20
1.414160
 11
2.330240
 21
1.784640
 12
1.707640
 22
1.377640
 13
2.346080
 23
1.748560
  0
POLYLINE
  8
0
  6
CONTINUOUS
 66
     1
 40
0.000000
 41
0.000000
  0
VERTEX
  8
0
  6
CONTINUOUS
 10
1.692240
 20
1.414160
  0
VERTEX
  8
0
  6
CONTINUOUS
 10
2.330240
 20
1.784640
  0
VERTEX
  8
0
  6
CONTINUOUS
 10
2.346080
 20
1.748560
  0
VERTEX
  8
0
  6
CONTINUOUS
 10
1.707640
 20
1.377640
  0
VERTEX
  8
0
  6
CONTINUOUS
 10
1.692240
 20
1.414160
  0
SEQEND
  8
0
  0
SOLID
  8
0
 62
    15
 10
1.707640
 20
1.377640
 11
2.346080
 21
1.748560
 12
1.714680
 22
1.341120
 13
2.352680
 23
1.712040
  0
POLYLINE
  8
0
  6
CONTINUOUS
 66
     1
 40
0.000000
 41
0.000000
  0
VERTEX
  8
0
  6
CONTINUOUS
 10
1.707640
 20
1.377640
  0
VERTEX
  8
0
  6
CONTINUOUS
 10
2.346080
 20
1.748560
  0
VERTEX
  8
0
  6
CONTINUOUS
 10
2.352680
 20
1.712040
  0
VERTEX
  8
0
  6
CONTINUOUS
 10
1.714680
 20
1.341120
  0
VERTEX
  8
0
  6
CONTINUOUS
 10
1.707640
 20
1.377640
  0
SEQEND
  8
0
  0
SOLID
  8
0
 62
    15
 10
1.714680
 20
1.341120
 11
2.352680
 21
1.712040
 12
1.713800
 22
1.305040
 13
2.352240
 23
1.675520
  0
POLYLINE
  8
0
  6
CONTINUOUS
 66
     1
 40
0.000000
 41
0.000000
  0
VERTEX
  8
0
  6
CONTINUOUS
 10
1.714680
 20
1.341120
  0
VERTEX
  8
0
  6
CONTINUOUS
 10
2.352680
 20
1.712040
  0
VERTEX
  8
0
  6
CONTINUOUS
 10
2.352240
 20
1.675520
  0
VERTEX
  8
0
  6
CONTINUOUS
 10
1.713800
 20
1.305040
  0
VERTEX
  8
0
  6
CONTINUOUS
 10
1.714680
 20
1.341120
  0
SEQEND
  8
0
  0
SOLID
  8
0
 62
    15
 10
1.713800
 20
1.305040
 11
2.352240
 21
1.675520
 12
1.706760
 22
1.269840
 13
2.345200
 23
1.640320
  0
POLYLINE
  8
0
  6
CONTINUOUS
 66
     1
 40
0.000000
 41
0.000000
  0
VERTEX
  8
0
  6
CONTINUOUS
 10
1.713800
 20
1.305040
  0
VERTEX
  8
0
  6
CONTINUOUS
 10
2.352240
 20
1.675520
  0
VERTEX
  8
0
  6
CONTINUOUS
 10
2.345200
 20
1.640320
  0
VERTEX
  8
0
  6
CONTINUOUS
 10
1.706760
 20
1.269840
  0
VERTEX
  8
0
  6
CONTINUOUS
 10
1.713800
 20
1.305040
  0
SEQEND
  8
0
  0
SOLID
  8
0
 62
    15
 10
1.706760
 20
1.269840
 11
2.345200
 21
1.640320
 12
1.694000
 22
1.235520
 13
2.332440
 23
1.606000
  0
POLYLINE
  8
0
  6
CONTINUOUS
 66
     1
 40
0.000000
 41
0.000000
  0
VERTEX
  8
0
  6
CONTINUOUS
 10
1.706760
 20
1.269840
  0
VERTEX
  8
0
  6
CONTINUOUS
 10
2.345200
 20
1.640320
  0
VERTEX
  8
0
  6
CONTINUOUS
 10
2.332440
 20
1.606000
  0
VERTEX
  8
0
  6
CONTINUOUS
 10
1.694000
 20
1.235520
  0
VERTEX
  8
0
  6
CONTINUOUS
 10
1.706760
 20
1.269840
  0
SEQEND
  8
0
  0
SOLID
  8
0
 62
    15
 10
1.694000
 20
1.235520
 11
2.332440
 21
1.606000
 12
1.677720
 22
1.202960
 13
2.315720
 23
1.573880
  0
POLYLINE
  8
0
  6
CONTINUOUS
 66
     1
 40
0.000000
 41
0.000000
  0
VERTEX
  8
0
  6
CONTINUOUS
 10
1.694000
 20
1.235520
  0
VERTEX
  8
0
  6
CONTINUOUS
 10
2.332440
 20
1.606000
  0
VERTEX
  8
0
  6
CONTINUOUS
 10
2.315720
 20
1.573880
  0
VERTEX
  8
0
  6
CONTINUOUS
 10
1.677720
 20
1.202960
  0
VERTEX
  8
0
  6
CONTINUOUS
 10
1.694000
 20
1.235520
  0
SEQEND
  8
0
  0
SOLID
  8
0
 62
    15
 10
1.677720
 20
1.202960
 11
2.315720
 21
1.573880
 12
1.636360
 22
1.145760
 13
2.274800
 23
1.516240
  0
POLYLINE
  8
0
  6
CONTINUOUS
 66
     1
 40
0.000000
 41
0.000000
  0
VERTEX
  8
0
  6
CONTINUOUS
 10
1.677720
 20
1.202960
  0
VERTEX
  8
0
  6
CONTINUOUS
 10
2.315720
 20
1.573880
  0
VERTEX
  8
0
  6
CONTINUOUS
 10
2.274800
 20
1.516240
  0
VERTEX
  8
0
  6
CONTINUOUS
 10
1.636360
 20
1.145760
  0
VERTEX
  8
0
  6
CONTINUOUS
 10
1.677720
 20
1.202960
  0
SEQEND
  8
0
  0
SOLID
  8
0
 62
    15
 10
1.636360
 20
1.145760
 11
2.274800
 21
1.516240
 12
1.592360
 22
1.100880
 13
2.230800
 23
1.471800
  0
POLYLINE
  8
0
  6
CONTINUOUS
 66
     1
 40
0.000000
 41
0.000000
  0
VERTEX
  8
0
  6
CONTINUOUS
 10
1.636360
 20
1.145760
  0
VERTEX
  8
0
  6
CONTINUOUS
 10
2.274800
 20
1.516240
  0
VERTEX
  8
0
  6
CONTINUOUS
 10
2.230800
 20
1.471800
  0
VERTEX
  8
0
  6
CONTINUOUS
 10
1.592360
 20
1.100880
  0
VERTEX
  8
0
  6
CONTINUOUS
 10
1.636360
 20
1.145760
  0
SEQEND
  8
0
  0
SOLID
  8
0
 62
    15
 10
1.572120
 20
1.084600
 11
2.210120
 21
1.455520
 12
1.554520
 22
1.073160
 13
2.192520
 23
1.443640
  0
POLYLINE
  8
0
  6
CONTINUOUS
 66
     1
 40
0.000000
 41
0.000000
  0
VERTEX
  8
0
  6
CONTINUOUS
 10
1.572120
 20
1.084600
  0
VERTEX
  8
0
  6
CONTINUOUS
 10
2.210120
 20
1.455520
  0
VERTEX
  8
0
  6
CONTINUOUS
 10
2.192520
 20
1.443640
  0
VERTEX
  8
0
  6
CONTINUOUS
 10
1.554520
 20
1.073160
  0
VERTEX
  8
0
  6
CONTINUOUS
 10
1.572120
 20
1.084600
  0
SEQEND
  8
0
  0
SOLID
  8
0
 62
    15
 10
1.592360
 20
1.100880
 11
2.230800
 21
1.471800
 12
1.572120
 22
1.084600
 13
2.210120
 23
1.455520
  0
POLYLINE
  8
0
  6
CONTINUOUS
 66
     1
 40
0.000000
 41
0.000000
  0
VERTEX
  8
0
  6
CONTINUOUS
 10
1.592360
 20
1.100880
  0
VERTEX
  8
0
  6
CONTINUOUS
 10
2.230800
 20
1.471800
  0
VERTEX
  8
0
  6
CONTINUOUS
 10
2.210120
 20
1.455520
  0
VERTEX
  8
0
  6
CONTINUOUS
 10
1.572120
 20
1.084600
  0
VERTEX
  8
0
  6
CONTINUOUS
 10
1.592360
 20
1.100880
  0
SEQEND
  8
0
  0
SOLID
  8
0
 62
    15
 10
1.800920
 20
2.147200
 11
2.439360
 21
2.517680
 12
1.753840
 22
2.112440
 13
2.392280
 23
2.483360
  0
POLYLINE
  8
0
  6
CONTINUOUS
 66
     1
 40
0.000000
 41
0.000000
  0
VERTEX
  8
0
  6
CONTINUOUS
 10
1.800920
 20
2.147200
  0
VERTEX
  8
0
  6
CONTINUOUS
 10
2.439360
 20
2.517680
  0
VERTEX
  8
0
  6
CONTINUOUS
 10
2.392280
 20
2.483360
  0
VERTEX
  8
0
  6
CONTINUOUS
 10
1.753840
 20
2.112440
  0
VERTEX
  8
0
  6
CONTINUOUS
 10
1.800920
 20
2.147200
  0
SEQEND
  8
0
  0
SOLID
  8
0
 62
    15
 10
1.378960
 20
0.989120
 11
2.017400
 21
1.359600
 12
1.333640
 22
0.956120
 13
1.972080
 23
1.327040
  0
POLYLINE
  8
0
  6
CONTINUOUS
 66
     1
 40
0.000000
 41
0.000000
  0
VERTEX
  8
0
  6
CONTINUOUS
 10
1.378960
 20
0.989120
  0
VERTEX
  8
0
  6
CONTINUOUS
 10
2.017400
 20
1.359600
  0
VERTEX
  8
0
  6
CONTINUOUS
 10
1.972080
 20
1.327040
  0
VERTEX
  8
0
  6
CONTINUOUS
 10
1.333640
 20
0.956120
  0
VERTEX
  8
0
  6
CONTINUOUS
 10
1.378960
 20
0.989120
  0
SEQEND
  8
0
  0
SOLID
  8
0
 62
    15
 10
1.294480
 20
0.914760
 11
1.932920
 21
1.285240
 12
1.278200
 22
0.890120
 13
1.916640
 23
1.260600
  0
POLYLINE
  8
0
  6
CONTINUOUS
 66
     1
 40
0.000000
 41
0.000000
  0
VERTEX
  8
0
  6
CONTINUOUS
 10
1.294480
 20
0.914760
  0
VERTEX
  8
0
  6
CONTINUOUS
 10
1.932920
 20
1.285240
  0
VERTEX
  8
0
  6
CONTINUOUS
 10
1.916640
 20
1.260600
  0
VERTEX
  8
0
  6
CONTINUOUS
 10
1.278200
 20
0.890120
  0
VERTEX
  8
0
  6
CONTINUOUS
 10
1.294480
 20
0.914760
  0
SEQEND
  8
0
  0
SOLID
  8
0
 62
    15
 10
1.278200
 20
0.890120
 11
1.916640
 21
1.260600
 12
1.264560
 22
0.862400
 13
1.903000
 23
1.232880
  0
POLYLINE
  8
0
  6
CONTINUOUS
 66
     1
 40
0.000000
 41
0.000000
  0
VERTEX
  8
0
  6
CONTINUOUS
 10
1.278200
 20
0.890120
  0
VERTEX
  8
0
  6
CONTINUOUS
 10
1.916640
 20
1.260600
  0
VERTEX
  8
0
  6
CONTINUOUS
 10
1.903000
 20
1.232880
  0
VERTEX
  8
0
  6
CONTINUOUS
 10
1.264560
 20
0.862400
  0
VERTEX
  8
0
  6
CONTINUOUS
 10
1.278200
 20
0.890120
  0
SEQEND
  8
0
  0
SOLID
  8
0
 62
    15
 10
1.264560
 20
0.862400
 11
1.903000
 21
1.232880
 12
1.254440
 22
0.831160
 13
1.892880
 23
1.202080
  0
POLYLINE
  8
0
  6
CONTINUOUS
 66
     1
 40
0.000000
 41
0.000000
  0
VERTEX
  8
0
  6
CONTINUOUS
 10
1.264560
 20
0.862400
  0
VERTEX
  8
0
  6
CONTINUOUS
 10
1.903000
 20
1.232880
  0
VERTEX
  8
0
  6
CONTINUOUS
 10
1.892880
 20
1.202080
  0
VERTEX
  8
0
  6
CONTINUOUS
 10
1.254440
 20
0.831160
  0
VERTEX
  8
0
  6
CONTINUOUS
 10
1.264560
 20
0.862400
  0
SEQEND
  8
0
  0
SOLID
  8
0
 62
    15
 10
1.254440
 20
0.831160
 11
1.892880
 21
1.202080
 12
1.247840
 22
0.796840
 13
1.886280
 23
1.167760
  0
POLYLINE
  8
0
  6
CONTINUOUS
 66
     1
 40
0.000000
 41
0.000000
  0
VERTEX
  8
0
  6
CONTINUOUS
 10
1.254440
 20
0.831160
  0
VERTEX
  8
0
  6
CONTINUOUS
 10
1.892880
 20
1.202080
  0
VERTEX
  8
0
  6
CONTINUOUS
 10
1.886280
 20
1.167760
  0
VERTEX
  8
0
  6
CONTINUOUS
 10
1.247840
 20
0.796840
  0
VERTEX
  8
0
  6
CONTINUOUS
 10
1.254440
 20
0.831160
  0
SEQEND
  8
0
  0
SOLID
  8
0
 62
    15
 10
1.247840
 20
0.796840
 11
1.886280
 21
1.167760
 12
1.253120
 22
0.780560
 13
1.891560
 23
1.151480
  0
POLYLINE
  8
0
  6
CONTINUOUS
 66
     1
 40
0.000000
 41
0.000000
  0
VERTEX
  8
0
  6
CONTINUOUS
 10
1.247840
 20
0.796840
  0
VERTEX
  8
0
  6
CONTINUOUS
 10
1.886280
 20
1.167760
  0
VERTEX
  8
0
  6
CONTINUOUS
 10
1.891560
 20
1.151480
  0
VERTEX
  8
0
  6
CONTINUOUS
 10
1.253120
 20
0.780560
  0
VERTEX
  8
0
  6
CONTINUOUS
 10
1.247840
 20
0.796840
  0
SEQEND
  8
0
  0
SOLID
  8
0
 62
    15
 10
1.253120
 20
0.780560
 11
1.891560
 21
1.151480
 12
1.261920
 22
0.767360
 13
1.900360
 23
1.138280
  0
POLYLINE
  8
0
  6
CONTINUOUS
 66
     1
 40
0.000000
 41
0.000000
  0
VERTEX
  8
0
  6
CONTINUOUS
 10
1.253120
 20
0.780560
  0
VERTEX
  8
0
  6
CONTINUOUS
 10
1.891560
 20
1.151480
  0
VERTEX
  8
0
  6
CONTINUOUS
 10
1.900360
 20
1.138280
  0
VERTEX
  8
0
  6
CONTINUOUS
 10
1.261920
 20
0.767360
  0
VERTEX
  8
0
  6
CONTINUOUS
 10
1.253120
 20
0.780560
  0
SEQEND
  8
0
  0
SOLID
  8
0
 62
    15
 10
1.261920
 20
0.767360
 11
1.900360
 21
1.138280
 12
1.287880
 22
0.748440
 13
1.926320
 23
1.118920
  0
POLYLINE
  8
0
  6
CONTINUOUS
 66
     1
 40
0.000000
 41
0.000000
  0
VERTEX
  8
0
  6
CONTINUOUS
 10
1.261920
 20
0.767360
  0
VERTEX
  8
0
  6
CONTINUOUS
 10
1.900360
 20
1.138280
  0
VERTEX
  8
0
  6
CONTINUOUS
 10
1.926320
 20
1.118920
  0
VERTEX
  8
0
  6
CONTINUOUS
 10
1.287880
 20
0.748440
  0
VERTEX
  8
0
  6
CONTINUOUS
 10
1.261920
 20
0.767360
  0
SEQEND
  8
0
  0
SOLID
  8
0
 62
    15
 10
1.287880
 20
0.748440
 11
1.926320
 21
1.118920
 12
1.321760
 22
0.732160
 13
1.960200
 23
1.102640
  0
POLYLINE
  8
0
  6
CONTINUOUS
 66
     1
 40
0.000000
 41
0.000000
  0
VERTEX
  8
0
  6
CONTINUOUS
 10
1.287880
 20
0.748440
  0
VERTEX
  8
0
  6
CONTINUOUS
 10
1.926320
 20
1.118920
  0
VERTEX
  8
0
  6
CONTINUOUS
 10
1.960200
 20
1.102640
  0
VERTEX
  8
0
  6
CONTINUOUS
 10
1.321760
 20
0.732160
  0
VERTEX
  8
0
  6
CONTINUOUS
 10
1.287880
 20
0.748440
  0
SEQEND
  8
0
  0
SOLID
  8
0
 62
    15
 10
1.321760
 20
0.732160
 11
1.960200
 21
1.102640
 12
1.360920
 22
0.711920
 13
1.999360
 23
1.082840
  0
POLYLINE
  8
0
  6
CONTINUOUS
 66
     1
 40
0.000000
 41
0.000000
  0
VERTEX
  8
0
  6
CONTINUOUS
 10
1.321760
 20
0.732160
  0
VERTEX
  8
0
  6
CONTINUOUS
 10
1.960200
 20
1.102640
  0
VERTEX
  8
0
  6
CONTINUOUS
 10
1.999360
 20
1.082840
  0
VERTEX
  8
0
  6
CONTINUOUS
 10
1.360920
 20
0.711920
  0
VERTEX
  8
0
  6
CONTINUOUS
 10
1.321760
 20
0.732160
  0
SEQEND
  8
0
  0
SOLID
  8
0
 62
    15
 10
1.360920
 20
0.711920
 11
1.999360
 21
1.082840
 12
1.370600
 22
0.704000
 13
2.009040
 23
1.074480
  0
POLYLINE
  8
0
  6
CONTINUOUS
 66
     1
 40
0.000000
 41
0.000000
  0
VERTEX
  8
0
  6
CONTINUOUS
 10
1.360920
 20
0.711920
  0
VERTEX
  8
0
  6
CONTINUOUS
 10
1.999360
 20
1.082840
  0
VERTEX
  8
0
  6
CONTINUOUS
 10
2.009040
 20
1.074480
  0
VERTEX
  8
0
  6
CONTINUOUS
 10
1.370600
 20
0.704000
  0
VERTEX
  8
0
  6
CONTINUOUS
 10
1.360920
 20
0.711920
  0
SEQEND
  8
0
  0
SOLID
  8
0
 62
    15
 10
1.370600
 20
0.704000
 11
2.009040
 21
1.074480
 12
1.379840
 22
0.691240
 13
2.017840
 23
1.062160
  0
POLYLINE
  8
0
  6
CONTINUOUS
 66
     1
 40
0.000000
 41
0.000000
  0
VERTEX
  8
0
  6
CONTINUOUS
 10
1.370600
 20
0.704000
  0
VERTEX
  8
0
  6
CONTINUOUS
 10
2.009040
 20
1.074480
  0
VERTEX
  8
0
  6
CONTINUOUS
 10
2.017840
 20
1.062160
  0
VERTEX
  8
0
  6
CONTINUOUS
 10
1.379840
 20
0.691240
  0
VERTEX
  8
0
  6
CONTINUOUS
 10
1.370600
 20
0.704000
  0
SEQEND
  8
0
  0
SOLID
  8
0
 62
    15
 10
1.379840
 20
0.691240
 11
2.017840
 21
1.062160
 12
1.393920
 22
0.656040
 13
2.032360
 23
1.026960
  0
POLYLINE
  8
0
  6
CONTINUOUS
 66
     1
 40
0.000000
 41
0.000000
  0
VERTEX
  8
0
  6
CONTINUOUS
 10
1.379840
 20
0.691240
  0
VERTEX
  8
0
  6
CONTINUOUS
 10
2.017840
 20
1.062160
  0
VERTEX
  8
0
  6
CONTINUOUS
 10
2.032360
 20
1.026960
  0
VERTEX
  8
0
  6
CONTINUOUS
 10
1.393920
 20
0.656040
  0
VERTEX
  8
0
  6
CONTINUOUS
 10
1.379840
 20
0.691240
  0
SEQEND
  8
0
  0
SOLID
  8
0
 62
    15
 10
1.393920
 20
0.656040
 11
2.032360
 21
1.026960
 12
1.400960
 22
0.611600
 13
2.038960
 23
0.982080
  0
POLYLINE
  8
0
  6
CONTINUOUS
 66
     1
 40
0.000000
 41
0.000000
  0
VERTEX
  8
0
  6
CONTINUOUS
 10
1.393920
 20
0.656040
  0
VERTEX
  8
0
  6
CONTINUOUS
 10
2.032360
 20
1.026960
  0
VERTEX
  8
0
  6
CONTINUOUS
 10
2.038960
 20
0.982080
  0
VERTEX
  8
0
  6
CONTINUOUS
 10
1.400960
 20
0.611600
  0
VERTEX
  8
0
  6
CONTINUOUS
 10
1.393920
 20
0.656040
  0
SEQEND
  8
0
  0
SOLID
  8
0
 62
    15
 10
1.400960
 20
0.611600
 11
2.038960
 21
0.982080
 12
1.397440
 22
0.562320
 13
2.035880
 23
0.933240
  0
POLYLINE
  8
0
  6
CONTINUOUS
 66
     1
 40
0.000000
 41
0.000000
  0
VERTEX
  8
0
  6
CONTINUOUS
 10
1.400960
 20
0.611600
  0
VERTEX
  8
0
  6
CONTINUOUS
 10
2.038960
 20
0.982080
  0
VERTEX
  8
0
  6
CONTINUOUS
 10
2.035880
 20
0.933240
  0
VERTEX
  8
0
  6
CONTINUOUS
 10
1.397440
 20
0.562320
  0
VERTEX
  8
0
  6
CONTINUOUS
 10
1.400960
 20
0.611600
  0
SEQEND
  8
0
  0
SOLID
  8
0
 62
    15
 10
1.397440
 20
0.562320
 11
2.035880
 21
0.933240
 12
1.381160
 22
0.513920
 13
2.019600
 23
0.884400
  0
POLYLINE
  8
0
  6
CONTINUOUS
 66
     1
 40
0.000000
 41
0.000000
  0
VERTEX
  8
0
  6
CONTINUOUS
 10
1.397440
 20
0.562320
  0
VERTEX
  8
0
  6
CONTINUOUS
 10
2.035880
 20
0.933240
  0
VERTEX
  8
0
  6
CONTINUOUS
 10
2.019600
 20
0.884400
  0
VERTEX
  8
0
  6
CONTINUOUS
 10
1.381160
 20
0.513920
  0
VERTEX
  8
0
  6
CONTINUOUS
 10
1.397440
 20
0.562320
  0
SEQEND
  8
0
  0
SOLID
  8
0
 62
    15
 10
1.226720
 20
0.417560
 11
1.865160
 21
0.788480
 12
1.226720
 22
0.285120
 13
1.865160
 23
0.655600
  0
POLYLINE
  8
0
  6
CONTINUOUS
 66
     1
 40
0.000000
 41
0.000000
  0
VERTEX
  8
0
  6
CONTINUOUS
 10
1.226720
 20
0.417560
  0
VERTEX
  8
0
  6
CONTINUOUS
 10
1.865160
 20
0.788480
  0
VERTEX
  8
0
  6
CONTINUOUS
 10
1.865160
 20
0.655600
  0
VERTEX
  8
0
  6
CONTINUOUS
 10
1.226720
 20
0.285120
  0
VERTEX
  8
0
  6
CONTINUOUS
 10
1.226720
 20
0.417560
  0
SEQEND
  8
0
  0
SOLID
  8
0
 62
    15
 10
1.349480
 20
0.469920
 11
1.987480
 21
0.840840
 12
1.326600
 22
0.451880
 13
1.965040
 23
0.822360
  0
POLYLINE
  8
0
  6
CONTINUOUS
 66
     1
 40
0.000000
 41
0.000000
  0
VERTEX
  8
0
  6
CONTINUOUS
 10
1.349480
 20
0.469920
  0
VERTEX
  8
0
  6
CONTINUOUS
 10
1.987480
 20
0.840840
  0
VERTEX
  8
0
  6
CONTINUOUS
 10
1.965040
 20
0.822360
  0
VERTEX
  8
0
  6
CONTINUOUS
 10
1.326600
 20
0.451880
  0
VERTEX
  8
0
  6
CONTINUOUS
 10
1.349480
 20
0.469920
  0
SEQEND
  8
0
  0
SOLID
  8
0
 62
    15
 10
1.367520
 20
0.491040
 11
2.005960
 21
0.861520
 12
1.349480
 22
0.469920
 13
1.987480
 23
0.840840
  0
POLYLINE
  8
0
  6
CONTINUOUS
 66
     1
 40
0.000000
 41
0.000000
  0
VERTEX
  8
0
  6
CONTINUOUS
 10
1.367520
 20
0.491040
  0
VERTEX
  8
0
  6
CONTINUOUS
 10
2.005960
 20
0.861520
  0
VERTEX
  8
0
  6
CONTINUOUS
 10
1.987480
 20
0.840840
  0
VERTEX
  8
0
  6
CONTINUOUS
 10
1.349480
 20
0.469920
  0
VERTEX
  8
0
  6
CONTINUOUS
 10
1.367520
 20
0.491040
  0
SEQEND
  8
0
  0
SOLID
  8
0
 62
    15
 10
1.381160
 20
0.513920
 11
2.019600
 21
0.884400
 12
1.367520
 22
0.491040
 13
2.005960
 23
0.861520
  0
POLYLINE
  8
0
  6
CONTINUOUS
 66
     1
 40
0.000000
 41
0.000000
  0
VERTEX
  8
0
  6
CONTINUOUS
 10
1.381160
 20
0.513920
  0
VERTEX
  8
0
  6
CONTINUOUS
 10
2.019600
 20
0.884400
  0
VERTEX
  8
0
  6
CONTINUOUS
 10
2.005960
 20
0.861520
  0
VERTEX
  8
0
  6
CONTINUOUS
 10
1.367520
 20
0.491040
  0
VERTEX
  8
0
  6
CONTINUOUS
 10
1.381160
 20
0.513920
  0
SEQEND
  8
0
  0
SOLID
  8
0
 62
    15
 10
1.004080
 20
3.960440
 11
1.642520
 21
4.331360
 12
1.801360
 22
3.960440
 13
2.439800
 23
4.331360
  0
POLYLINE
  8
0
  6
CONTINUOUS
 66
     1
 40
0.000000
 41
0.000000
  0
VERTEX
  8
0
  6
CONTINUOUS
 10
1.004080
 20
3.960440
  0
VERTEX
  8
0
  6
CONTINUOUS
 10
1.642520
 20
4.331360
  0
VERTEX
  8
0
  6
CONTINUOUS
 10
2.439800
 20
4.331360
  0
VERTEX
  8
0
  6
CONTINUOUS
 10
1.801360
 20
3.960440
  0
VERTEX
  8
0
  6
CONTINUOUS
 10
1.004080
 20
3.960440
  0
SEQEND
  8
0
  0
SOLID
  8
0
 62
    15
 10
1.801360
 20
3.960440
 11
2.439800
 21
4.331360
 12
1.800920
 22
2.147200
 13
2.439360
 23
2.517680
  0
POLYLINE
  8
0
  6
CONTINUOUS
 66
     1
 40
0.000000
 41
0.000000
  0
VERTEX
  8
0
  6
CONTINUOUS
 10
1.801360
 20
3.960440
  0
VERTEX
  8
0
  6
CONTINUOUS
 10
2.439800
 20
4.331360
  0
VERTEX
  8
0
  6
CONTINUOUS
 10
2.439360
 20
2.517680
  0
VERTEX
  8
0
  6
CONTINUOUS
 10
1.800920
 20
2.147200
  0
VERTEX
  8
0
  6
CONTINUOUS
 10
1.801360
 20
3.960440
  0
SEQEND
  8
0
  0
POLYLINE
  8
0
  6
CONTINUOUS
 66
     1
 40
0.000000
 41
0.000000
  0
VERTEX
  8
0
  6
CONTINUOUS
 10
1.800920
 20
2.147200
  0
VERTEX
  8
0
  6
CONTINUOUS
 10
1.753840
 20
2.112440
  0
VERTEX
  8
0
  6
CONTINUOUS
 10
1.730960
 20
2.090880
  0
VERTEX
  8
0
  6
CONTINUOUS
 10
1.709400
 20
2.064480
  0
VERTEX
  8
0
  6
CONTINUOUS
 10
1.689600
 20
2.033240
  0
VERTEX
  8
0
  6
CONTINUOUS
 10
1.672440
 20
1.994960
  0
VERTEX
  8
0
  6
CONTINUOUS
 10
1.658800
 20
1.949640
  0
VERTEX
  8
0
  6
CONTINUOUS
 10
1.648680
 20
1.895520
  0
VERTEX
  8
0
  6
CONTINUOUS
 10
1.648680
 20
1.638120
  0
VERTEX
  8
0
  6
CONTINUOUS
 10
1.519320
 20
1.638120
  0
VERTEX
  8
0
  6
CONTINUOUS
 10
1.519320
 20
1.548360
  0
VERTEX
  8
0
  6
CONTINUOUS
 10
1.581360
 20
1.517560
  0
VERTEX
  8
0
  6
CONTINUOUS
 10
1.630200
 20
1.484560
  0
VERTEX
  8
0
  6
CONTINUOUS
 10
1.666720
 20
1.449800
  0
VERTEX
  8
0
  6
CONTINUOUS
 10
1.692240
 20
1.414160
  0
VERTEX
  8
0
  6
CONTINUOUS
 10
1.707640
 20
1.377640
  0
VERTEX
  8
0
  6
CONTINUOUS
 10
1.714680
 20
1.341120
  0
VERTEX
  8
0
  6
CONTINUOUS
 10
1.713800
 20
1.305040
  0
VERTEX
  8
0
  6
CONTINUOUS
 10
1.706760
 20
1.269840
  0
VERTEX
  8
0
  6
CONTINUOUS
 10
1.694000
 20
1.235520
  0
VERTEX
  8
0
  6
CONTINUOUS
 10
1.677720
 20
1.202960
  0
VERTEX
  8
0
  6
CONTINUOUS
 10
1.636360
 20
1.145760
  0
VERTEX
  8
0
  6
CONTINUOUS
 10
1.592360
 20
1.100880
  0
VERTEX
  8
0
  6
CONTINUOUS
 10
1.572120
 20
1.084600
  0
VERTEX
  8
0
  6
CONTINUOUS
 10
1.554520
 20
1.073160
  0
VERTEX
  8
0
  6
CONTINUOUS
 10
1.518000
 20
1.055120
  0
VERTEX
  8
0
  6
CONTINUOUS
 10
1.426920
 20
1.015080
  0
VERTEX
  8
0
  6
CONTINUOUS
 10
1.378960
 20
0.989120
  0
VERTEX
  8
0
  6
CONTINUOUS
 10
1.333640
 20
0.956120
  0
VERTEX
  8
0
  6
CONTINUOUS
 10
1.294480
 20
0.914760
  0
VERTEX
  8
0
  6
CONTINUOUS
 10
1.278200
 20
0.890120
  0
VERTEX
  8
0
  6
CONTINUOUS
 10
1.264560
 20
0.862400
  0
VERTEX
  8
0
  6
CONTINUOUS
 10
1.254440
 20
0.831160
  0
VERTEX
  8
0
  6
CONTINUOUS
 10
1.247840
 20
0.796840
  0
VERTEX
  8
0
  6
CONTINUOUS
 10
1.253120
 20
0.780560
  0
VERTEX
  8
0
  6
CONTINUOUS
 10
1.261920
 20
0.767360
  0
VERTEX
  8
0
  6
CONTINUOUS
 10
1.287880
 20
0.748440
  0
VERTEX
  8
0
  6
CONTINUOUS
 10
1.360920
 20
0.711920
  0
VERTEX
  8
0
  6
CONTINUOUS
 10
1.370600
 20
0.704000
  0
VERTEX
  8
0
  6
CONTINUOUS
 10
1.379840
 20
0.691240
  0
VERTEX
  8
0
  6
CONTINUOUS
 10
1.393920
 20
0.656040
  0
VERTEX
  8
0
  6
CONTINUOUS
 10
1.400960
 20
0.611600
  0
VERTEX
  8
0
  6
CONTINUOUS
 10
1.397440
 20
0.562320
  0
VERTEX
  8
0
  6
CONTINUOUS
 10
1.381160
 20
0.513920
  0
VERTEX
  8
0
  6
CONTINUOUS
 10
1.367520
 20
0.491040
  0
VERTEX
  8
0
  6
CONTINUOUS
 10
1.349480
 20
0.469920
  0
VERTEX
  8
0
  6
CONTINUOUS
 10
1.326600
 20
0.451880
  0
VERTEX
  8
0
  6
CONTINUOUS
 10
1.298880
 20
0.436480
  0
VERTEX
  8
0
  6
CONTINUOUS
 10
1.265880
 20
0.425040
  0
VERTEX
  8
0
  6
CONTINUOUS
 10
1.226720
 20
0.417560
  0
VERTEX
  8
0
  6
CONTINUOUS
 10
1.226720
 20
0.285120
  0
VERTEX
  8
0
  6
CONTINUOUS
 10
1.004080
 20
0.285120
  0
VERTEX
  8
0
  6
CONTINUOUS
 10
1.004080
 20
3.960440
  0
VERTEX
  8
0
  6
CONTINUOUS
 10
1.801360
 20
3.960440
  0
VERTEX
  8
0
  6
CONTINUOUS
 10
1.800920
 20
2.147200
  0
SEQEND
  8
0
  0
SOLID
  8
0
 62
    15
 10
2.263800
 20
2.782560
 11
2.910600
 21
3.168000
 12
2.247520
 22
2.738560
 13
2.894320
 23
3.124440
  0
POLYLINE
  8
0
  6
CONTINUOUS
 66
     1
 40
0.000000
 41
0.000000
  0
VERTEX
  8
0
  6
CONTINUOUS
 10
2.263800
 20
2.782560
  0
VERTEX
  8
0
  6
CONTINUOUS
 10
2.910600
 20
3.168000
  0
VERTEX
  8
0
  6
CONTINUOUS
 10
2.894320
 20
3.124440
  0
VERTEX
  8
0
  6
CONTINUOUS
 10
2.247520
 20
2.738560
  0
VERTEX
  8
0
  6
CONTINUOUS
 10
2.263800
 20
2.782560
  0
SEQEND
  8
0
  0
SOLID
  8
0
 62
    15
 10
2.354880
 20
3.410880
 11
3.001680
 21
3.796320
 12
2.337720
 22
3.395040
 13
2.984960
 23
3.780480
  0
POLYLINE
  8
0
  6
CONTINUOUS
 66
     1
 40
0.000000
 41
0.000000
  0
VERTEX
  8
0
  6
CONTINUOUS
 10
2.354880
 20
3.410880
  0
VERTEX
  8
0
  6
CONTINUOUS
 10
3.001680
 20
3.796320
  0
VERTEX
  8
0
  6
CONTINUOUS
 10
2.984960
 20
3.780480
  0
VERTEX
  8
0
  6
CONTINUOUS
 10
2.337720
 20
3.395040
  0
VERTEX
  8
0
  6
CONTINUOUS
 10
2.354880
 20
3.410880
  0
SEQEND
  8
0
  0
SOLID
  8
0
 62
    15
 10
2.337720
 20
3.395040
 11
2.984960
 21
3.780480
 12
2.325400
 22
3.373040
 13
2.972200
 23
3.758920
  0
POLYLINE
  8
0
  6
CONTINUOUS
 66
     1
 40
0.000000
 41
0.000000
  0
VERTEX
  8
0
  6
CONTINUOUS
 10
2.337720
 20
3.395040
  0
VERTEX
  8
0
  6
CONTINUOUS
 10
2.984960
 20
3.780480
  0
VERTEX
  8
0
  6
CONTINUOUS
 10
2.972200
 20
3.758920
  0
VERTEX
  8
0
  6
CONTINUOUS
 10
2.325400
 20
3.373040
  0
VERTEX
  8
0
  6
CONTINUOUS
 10
2.337720
 20
3.395040
  0
SEQEND
  8
0
  0
SOLID
  8
0
 62
    15
 10
2.325400
 20
3.373040
 11
2.972200
 21
3.758920
 12
2.316600
 22
3.344000
 13
2.963400
 23
3.729440
  0
POLYLINE
  8
0
  6
CONTINUOUS
 66
     1
 40
0.000000
 41
0.000000
  0
VERTEX
  8
0
  6
CONTINUOUS
 10
2.325400
 20
3.373040
  0
VERTEX
  8
0
  6
CONTINUOUS
 10
2.972200
 20
3.758920
  0
VERTEX
  8
0
  6
CONTINUOUS
 10
2.963400
 20
3.729440
  0
VERTEX
  8
0
  6
CONTINUOUS
 10
2.316600
 20
3.344000
  0
VERTEX
  8
0
  6
CONTINUOUS
 10
2.325400
 20
3.373040
  0
SEQEND
  8
0
  0
SOLID
  8
0
 62
    15
 10
2.435840
 20
3.944600
 11
3.082640
 21
4.330480
 12
2.435840
 22
3.434200
 13
3.082640
 23
3.820080
  0
POLYLINE
  8
0
  6
CONTINUOUS
 66
     1
 40
0.000000
 41
0.000000
  0
VERTEX
  8
0
  6
CONTINUOUS
 10
2.435840
 20
3.944600
  0
VERTEX
  8
0
  6
CONTINUOUS
 10
3.082640
 20
4.330480
  0
VERTEX
  8
0
  6
CONTINUOUS
 10
3.082640
 20
3.820080
  0
VERTEX
  8
0
  6
CONTINUOUS
 10
2.435840
 20
3.434200
  0
VERTEX
  8
0
  6
CONTINUOUS
 10
2.435840
 20
3.944600
  0
SEQEND
  8
0
  0
SOLID
  8
0
 62
    15
 10
2.316600
 20
3.344000
 11
2.963400
 21
3.729440
 12
2.311320
 22
3.305720
 13
2.958120
 23
3.691600
  0
POLYLINE
  8
0
  6
CONTINUOUS
 66
     1
 40
0.000000
 41
0.000000
  0
VERTEX
  8
0
  6
CONTINUOUS
 10
2.316600
 20
3.344000
  0
VERTEX
  8
0
  6
CONTINUOUS
 10
2.963400
 20
3.729440
  0
VERTEX
  8
0
  6
CONTINUOUS
 10
2.958120
 20
3.691600
  0
VERTEX
  8
0
  6
CONTINUOUS
 10
2.311320
 20
3.305720
  0
VERTEX
  8
0
  6
CONTINUOUS
 10
2.316600
 20
3.344000
  0
SEQEND
  8
0
  0
SOLID
  8
0
 62
    15
 10
2.311320
 20
3.305720
 11
2.958120
 21
3.691600
 12
2.309120
 22
3.257760
 13
2.955920
 23
3.643200
  0
POLYLINE
  8
0
  6
CONTINUOUS
 66
     1
 40
0.000000
 41
0.000000
  0
VERTEX
  8
0
  6
CONTINUOUS
 10
2.311320
 20
3.305720
  0
VERTEX
  8
0
  6
CONTINUOUS
 10
2.958120
 20
3.691600
  0
VERTEX
  8
0
  6
CONTINUOUS
 10
2.955920
 20
3.643200
  0
VERTEX
  8
0
  6
CONTINUOUS
 10
2.309120
 20
3.257760
  0
VERTEX
  8
0
  6
CONTINUOUS
 10
2.311320
 20
3.305720
  0
SEQEND
  8
0
  0
SOLID
  8
0
 62
    15
 10
2.206600
 20
2.994200
 11
2.853400
 21
3.380080
 12
2.206600
 22
2.982320
 13
2.853400
 23
3.368200
  0
POLYLINE
  8
0
  6
CONTINUOUS
 66
     1
 40
0.000000
 41
0.000000
  0
VERTEX
  8
0
  6
CONTINUOUS
 10
2.206600
 20
2.994200
  0
VERTEX
  8
0
  6
CONTINUOUS
 10
2.853400
 20
3.380080
  0
VERTEX
  8
0
  6
CONTINUOUS
 10
2.853400
 20
3.368200
  0
VERTEX
  8
0
  6
CONTINUOUS
 10
2.206600
 20
2.982320
  0
VERTEX
  8
0
  6
CONTINUOUS
 10
2.206600
 20
2.994200
  0
SEQEND
  8
0
  0
SOLID
  8
0
 62
     7
 10
2.206600
 20
2.982320
 11
2.853400
 21
3.368200
 12
2.229040
 22
2.958120
 13
2.875840
 23
3.344000
  0
POLYLINE
  8
0
  6
CONTINUOUS
 66
     1
 40
0.000000
 41
0.000000
  0
VERTEX
  8
0
  6
CONTINUOUS
 10
2.206600
 20
2.982320
  0
VERTEX
  8
0
  6
CONTINUOUS
 10
2.853400
 20
3.368200
  0
VERTEX
  8
0
  6
CONTINUOUS
 10
2.875840
 20
3.344000
  0
VERTEX
  8
0
  6
CONTINUOUS
 10
2.229040
 20
2.958120
  0
VERTEX
  8
0
  6
CONTINUOUS
 10
2.206600
 20
2.982320
  0
SEQEND
  8
0
  0
SOLID
  8
0
 62
     7
 10
2.229040
 20
2.958120
 11
2.875840
 21
3.344000
 12
2.246200
 22
2.933040
 13
2.893440
 23
3.318920
  0
POLYLINE
  8
0
  6
CONTINUOUS
 66
     1
 40
0.000000
 41
0.000000
  0
VERTEX
  8
0
  6
CONTINUOUS
 10
2.229040
 20
2.958120
  0
VERTEX
  8
0
  6
CONTINUOUS
 10
2.875840
 20
3.344000
  0
VERTEX
  8
0
  6
CONTINUOUS
 10
2.893440
 20
3.318920
  0
VERTEX
  8
0
  6
CONTINUOUS
 10
2.246200
 20
2.933040
  0
VERTEX
  8
0
  6
CONTINUOUS
 10
2.229040
 20
2.958120
  0
SEQEND
  8
0
  0
SOLID
  8
0
 62
    15
 10
2.309120
 20
3.257760
 11
2.955920
 21
3.643200
 12
2.309120
 22
2.994640
 13
2.955920
 23
3.380080
  0
POLYLINE
  8
0
  6
CONTINUOUS
 66
     1
 40
0.000000
 41
0.000000
  0
VERTEX
  8
0
  6
CONTINUOUS
 10
2.309120
 20
3.257760
  0
VERTEX
  8
0
  6
CONTINUOUS
 10
2.955920
 20
3.643200
  0
VERTEX
  8
0
  6
CONTINUOUS
 10
2.955920
 20
3.380080
  0
VERTEX
  8
0
  6
CONTINUOUS
 10
2.309120
 20
2.994640
  0
VERTEX
  8
0
  6
CONTINUOUS
 10
2.309120
 20
3.257760
  0
SEQEND
  8
0
  0
SOLID
  8
0
 62
     7
 10
2.246200
 20
2.933040
 11
2.893440
 21
3.318920
 12
2.258960
 22
2.907520
 13
2.905760
 23
3.293400
  0
POLYLINE
  8
0
  6
CONTINUOUS
 66
     1
 40
0.000000
 41
0.000000
  0
VERTEX
  8
0
  6
CONTINUOUS
 10
2.246200
 20
2.933040
  0
VERTEX
  8
0
  6
CONTINUOUS
 10
2.893440
 20
3.318920
  0
VERTEX
  8
0
  6
CONTINUOUS
 10
2.905760
 20
3.293400
  0
VERTEX
  8
0
  6
CONTINUOUS
 10
2.258960
 20
2.907520
  0
VERTEX
  8
0
  6
CONTINUOUS
 10
2.246200
 20
2.933040
  0
SEQEND
  8
0
  0
SOLID
  8
0
 62
     7
 10
2.258960
 20
2.907520
 11
2.905760
 21
3.293400
 12
2.266880
 22
2.882000
 13
2.913680
 23
3.267440
  0
POLYLINE
  8
0
  6
CONTINUOUS
 66
     1
 40
0.000000
 41
0.000000
  0
VERTEX
  8
0
  6
CONTINUOUS
 10
2.258960
 20
2.907520
  0
VERTEX
  8
0
  6
CONTINUOUS
 10
2.905760
 20
3.293400
  0
VERTEX
  8
0
  6
CONTINUOUS
 10
2.913680
 20
3.267440
  0
VERTEX
  8
0
  6
CONTINUOUS
 10
2.266880
 20
2.882000
  0
VERTEX
  8
0
  6
CONTINUOUS
 10
2.258960
 20
2.907520
  0
SEQEND
  8
0
  0
SOLID
  8
0
 62
    15
 10
2.266880
 20
2.882000
 11
2.913680
 21
3.267440
 12
2.270840
 22
2.856040
 13
2.917640
 23
3.241920
  0
POLYLINE
  8
0
  6
CONTINUOUS
 66
     1
 40
0.000000
 41
0.000000
  0
VERTEX
  8
0
  6
CONTINUOUS
 10
2.266880
 20
2.882000
  0
VERTEX
  8
0
  6
CONTINUOUS
 10
2.913680
 20
3.267440
  0
VERTEX
  8
0
  6
CONTINUOUS
 10
2.917640
 20
3.241920
  0
VERTEX
  8
0
  6
CONTINUOUS
 10
2.270840
 20
2.856040
  0
VERTEX
  8
0
  6
CONTINUOUS
 10
2.266880
 20
2.882000
  0
SEQEND
  8
0
  0
SOLID
  8
0
 62
    15
 10
2.270840
 20
2.856040
 11
2.917640
 21
3.241920
 12
2.271720
 22
2.830960
 13
2.918520
 23
3.216400
  0
POLYLINE
  8
0
  6
CONTINUOUS
 66
     1
 40
0.000000
 41
0.000000
  0
VERTEX
  8
0
  6
CONTINUOUS
 10
2.270840
 20
2.856040
  0
VERTEX
  8
0
  6
CONTINUOUS
 10
2.917640
 20
3.241920
  0
VERTEX
  8
0
  6
CONTINUOUS
 10
2.918520
 20
3.216400
  0
VERTEX
  8
0
  6
CONTINUOUS
 10
2.271720
 20
2.830960
  0
VERTEX
  8
0
  6
CONTINUOUS
 10
2.270840
 20
2.856040
  0
SEQEND
  8
0
  0
SOLID
  8
0
 62
    15
 10
2.271720
 20
2.830960
 11
2.918520
 21
3.216400
 12
2.263800
 22
2.782560
 13
2.910600
 23
3.168000
  0
POLYLINE
  8
0
  6
CONTINUOUS
 66
     1
 40
0.000000
 41
0.000000
  0
VERTEX
  8
0
  6
CONTINUOUS
 10
2.271720
 20
2.830960
  0
VERTEX
  8
0
  6
CONTINUOUS
 10
2.918520
 20
3.216400
  0
VERTEX
  8
0
  6
CONTINUOUS
 10
2.910600
 20
3.168000
  0
VERTEX
  8
0
  6
CONTINUOUS
 10
2.263800
 20
2.782560
  0
VERTEX
  8
0
  6
CONTINUOUS
 10
2.271720
 20
2.830960
  0
SEQEND
  8
0
  0
SOLID
  8
0
 62
    15
 10
1.799160
 20
3.945040
 11
2.446400
 21
4.330480
 12
2.435840
 22
3.944600
 13
3.082640
 23
4.330480
  0
POLYLINE
  8
0
  6
CONTINUOUS
 66
     1
 40
0.000000
 41
0.000000
  0
VERTEX
  8
0
  6
CONTINUOUS
 10
1.799160
 20
3.945040
  0
VERTEX
  8
0
  6
CONTINUOUS
 10
2.446400
 20
4.330480
  0
VERTEX
  8
0
  6
CONTINUOUS
 10
3.082640
 20
4.330480
  0
VERTEX
  8
0
  6
CONTINUOUS
 10
2.435840
 20
3.944600
  0
VERTEX
  8
0
  6
CONTINUOUS
 10
1.799160
 20
3.945040
  0
SEQEND
  8
0
  0
SOLID
  8
0
 62
    15
 10
2.247520
 20
2.738560
 11
2.894320
 21
3.124440
 12
2.225520
 22
2.702040
 13
2.872320
 23
3.087920
  0
POLYLINE
  8
0
  6
CONTINUOUS
 66
     1
 40
0.000000
 41
0.000000
  0
VERTEX
  8
0
  6
CONTINUOUS
 10
2.247520
 20
2.738560
  0
VERTEX
  8
0
  6
CONTINUOUS
 10
2.894320
 20
3.124440
  0
VERTEX
  8
0
  6
CONTINUOUS
 10
2.872320
 20
3.087920
  0
VERTEX
  8
0
  6
CONTINUOUS
 10
2.225520
 20
2.702040
  0
VERTEX
  8
0
  6
CONTINUOUS
 10
2.247520
 20
2.738560
  0
SEQEND
  8
0
  0
SOLID
  8
0
 62
    15
 10
2.134880
 20
2.637800
 11
2.781680
 21
3.023680
 12
2.109800
 22
2.620640
 13
2.756600
 23
3.006520
  0
POLYLINE
  8
0
  6
CONTINUOUS
 66
     1
 40
0.000000
 41
0.000000
  0
VERTEX
  8
0
  6
CONTINUOUS
 10
2.134880
 20
2.637800
  0
VERTEX
  8
0
  6
CONTINUOUS
 10
2.781680
 20
3.023680
  0
VERTEX
  8
0
  6
CONTINUOUS
 10
2.756600
 20
3.006520
  0
VERTEX
  8
0
  6
CONTINUOUS
 10
2.109800
 20
2.620640
  0
VERTEX
  8
0
  6
CONTINUOUS
 10
2.134880
 20
2.637800
  0
SEQEND
  8
0
  0
SOLID
  8
0
 62
    15
 10
2.109800
 20
2.620640
 11
2.756600
 21
3.006520
 12
2.085600
 22
2.594680
 13
2.732400
 23
2.980120
  0
POLYLINE
  8
0
  6
CONTINUOUS
 66
     1
 40
0.000000
 41
0.000000
  0
VERTEX
  8
0
  6
CONTINUOUS
 10
2.109800
 20
2.620640
  0
VERTEX
  8
0
  6
CONTINUOUS
 10
2.756600
 20
3.006520
  0
VERTEX
  8
0
  6
CONTINUOUS
 10
2.732400
 20
2.980120
  0
VERTEX
  8
0
  6
CONTINUOUS
 10
2.085600
 20
2.594680
  0
VERTEX
  8
0
  6
CONTINUOUS
 10
2.109800
 20
2.620640
  0
SEQEND
  8
0
  0
SOLID
  8
0
 62
    15
 10
2.190320
 20
2.665520
 11
2.837560
 21
3.050960
 12
2.179760
 22
2.658920
 13
2.827000
 23
3.044800
  0
POLYLINE
  8
0
  6
CONTINUOUS
 66
     1
 40
0.000000
 41
0.000000
  0
VERTEX
  8
0
  6
CONTINUOUS
 10
2.190320
 20
2.665520
  0
VERTEX
  8
0
  6
CONTINUOUS
 10
2.837560
 20
3.050960
  0
VERTEX
  8
0
  6
CONTINUOUS
 10
2.827000
 20
3.044800
  0
VERTEX
  8
0
  6
CONTINUOUS
 10
2.179760
 20
2.658920
  0
VERTEX
  8
0
  6
CONTINUOUS
 10
2.190320
 20
2.665520
  0
SEQEND
  8
0
  0
SOLID
  8
0
 62
    15
 10
2.225520
 20
2.702040
 11
2.872320
 21
3.087920
 12
2.201760
 22
2.674760
 13
2.848560
 23
3.060640
  0
POLYLINE
  8
0
  6
CONTINUOUS
 66
     1
 40
0.000000
 41
0.000000
  0
VERTEX
  8
0
  6
CONTINUOUS
 10
2.225520
 20
2.702040
  0
VERTEX
  8
0
  6
CONTINUOUS
 10
2.872320
 20
3.087920
  0
VERTEX
  8
0
  6
CONTINUOUS
 10
2.848560
 20
3.060640
  0
VERTEX
  8
0
  6
CONTINUOUS
 10
2.201760
 20
2.674760
  0
VERTEX
  8
0
  6
CONTINUOUS
 10
2.225520
 20
2.702040
  0
SEQEND
  8
0
  0
SOLID
  8
0
 62
    15
 10
2.201760
 20
2.674760
 11
2.848560
 21
3.060640
 12
2.190320
 22
2.665520
 13
2.837560
 23
3.050960
  0
POLYLINE
  8
0
  6
CONTINUOUS
 66
     1
 40
0.000000
 41
0.000000
  0
VERTEX
  8
0
  6
CONTINUOUS
 10
2.201760
 20
2.674760
  0
VERTEX
  8
0
  6
CONTINUOUS
 10
2.848560
 20
3.060640
  0
VERTEX
  8
0
  6
CONTINUOUS
 10
2.837560
 20
3.050960
  0
VERTEX
  8
0
  6
CONTINUOUS
 10
2.190320
 20
2.665520
  0
VERTEX
  8
0
  6
CONTINUOUS
 10
2.201760
 20
2.674760
  0
SEQEND
  8
0
  0
SOLID
  8
0
 62
    15
 10
2.085600
 20
2.594680
 11
2.732400
 21
2.980120
 12
2.073720
 22
2.577080
 13
2.720520
 23
2.962520
  0
POLYLINE
  8
0
  6
CONTINUOUS
 66
     1
 40
0.000000
 41
0.000000
  0
VERTEX
  8
0
  6
CONTINUOUS
 10
2.085600
 20
2.594680
  0
VERTEX
  8
0
  6
CONTINUOUS
 10
2.732400
 20
2.980120
  0
VERTEX
  8
0
  6
CONTINUOUS
 10
2.720520
 20
2.962520
  0
VERTEX
  8
0
  6
CONTINUOUS
 10
2.073720
 20
2.577080
  0
VERTEX
  8
0
  6
CONTINUOUS
 10
2.085600
 20
2.594680
  0
SEQEND
  8
0
  0
SOLID
  8
0
 62
    15
 10
2.073720
 20
2.577080
 11
2.720520
 21
2.962520
 12
2.062720
 22
2.555960
 13
2.709520
 23
2.941840
  0
POLYLINE
  8
0
  6
CONTINUOUS
 66
     1
 40
0.000000
 41
0.000000
  0
VERTEX
  8
0
  6
CONTINUOUS
 10
2.073720
 20
2.577080
  0
VERTEX
  8
0
  6
CONTINUOUS
 10
2.720520
 20
2.962520
  0
VERTEX
  8
0
  6
CONTINUOUS
 10
2.709520
 20
2.941840
  0
VERTEX
  8
0
  6
CONTINUOUS
 10
2.062720
 20
2.555960
  0
VERTEX
  8
0
  6
CONTINUOUS
 10
2.073720
 20
2.577080
  0
SEQEND
  8
0
  0
SOLID
  8
0
 62
    15
 10
2.062720
 20
2.555960
 11
2.709520
 21
2.941840
 12
2.052160
 22
2.531320
 13
2.698960
 23
2.917200
  0
POLYLINE
  8
0
  6
CONTINUOUS
 66
     1
 40
0.000000
 41
0.000000
  0
VERTEX
  8
0
  6
CONTINUOUS
 10
2.062720
 20
2.555960
  0
VERTEX
  8
0
  6
CONTINUOUS
 10
2.709520
 20
2.941840
  0
VERTEX
  8
0
  6
CONTINUOUS
 10
2.698960
 20
2.917200
  0
VERTEX
  8
0
  6
CONTINUOUS
 10
2.052160
 20
2.531320
  0
VERTEX
  8
0
  6
CONTINUOUS
 10
2.062720
 20
2.555960
  0
SEQEND
  8
0
  0
SOLID
  8
0
 62
    15
 10
2.052160
 20
2.531320
 11
2.698960
 21
2.917200
 12
2.042480
 22
2.502280
 13
2.689280
 23
2.888160
  0
POLYLINE
  8
0
  6
CONTINUOUS
 66
     1
 40
0.000000
 41
0.000000
  0
VERTEX
  8
0
  6
CONTINUOUS
 10
2.052160
 20
2.531320
  0
VERTEX
  8
0
  6
CONTINUOUS
 10
2.698960
 20
2.917200
  0
VERTEX
  8
0
  6
CONTINUOUS
 10
2.689280
 20
2.888160
  0
VERTEX
  8
0
  6
CONTINUOUS
 10
2.042480
 20
2.502280
  0
VERTEX
  8
0
  6
CONTINUOUS
 10
2.052160
 20
2.531320
  0
SEQEND
  8
0
  0
SOLID
  8
0
 62
    15
 10
2.042480
 20
2.502280
 11
2.689280
 21
2.888160
 12
2.034120
 22
2.468840
 13
2.680920
 23
2.854280
  0
POLYLINE
  8
0
  6
CONTINUOUS
 66
     1
 40
0.000000
 41
0.000000
  0
VERTEX
  8
0
  6
CONTINUOUS
 10
2.042480
 20
2.502280
  0
VERTEX
  8
0
  6
CONTINUOUS
 10
2.689280
 20
2.888160
  0
VERTEX
  8
0
  6
CONTINUOUS
 10
2.680920
 20
2.854280
  0
VERTEX
  8
0
  6
CONTINUOUS
 10
2.034120
 20
2.468840
  0
VERTEX
  8
0
  6
CONTINUOUS
 10
2.042480
 20
2.502280
  0
SEQEND
  8
0
  0
SOLID
  8
0
 62
    15
 10
2.034120
 20
2.468840
 11
2.680920
 21
2.854280
 12
2.026640
 22
2.430120
 13
2.673440
 23
2.815560
  0
POLYLINE
  8
0
  6
CONTINUOUS
 66
     1
 40
0.000000
 41
0.000000
  0
VERTEX
  8
0
  6
CONTINUOUS
 10
2.034120
 20
2.468840
  0
VERTEX
  8
0
  6
CONTINUOUS
 10
2.680920
 20
2.854280
  0
VERTEX
  8
0
  6
CONTINUOUS
 10
2.673440
 20
2.815560
  0
VERTEX
  8
0
  6
CONTINUOUS
 10
2.026640
 20
2.430120
  0
VERTEX
  8
0
  6
CONTINUOUS
 10
2.034120
 20
2.468840
  0
SEQEND
  8
0
  0
SOLID
  8
0
 62
    15
 10
2.026640
 20
2.430120
 11
2.673440
 21
2.815560
 12
2.020480
 22
2.386120
 13
2.667280
 23
2.771560
  0
POLYLINE
  8
0
  6
CONTINUOUS
 66
     1
 40
0.000000
 41
0.000000
  0
VERTEX
  8
0
  6
CONTINUOUS
 10
2.026640
 20
2.430120
  0
VERTEX
  8
0
  6
CONTINUOUS
 10
2.673440
 20
2.815560
  0
VERTEX
  8
0
  6
CONTINUOUS
 10
2.667280
 20
2.771560
  0
VERTEX
  8
0
  6
CONTINUOUS
 10
2.020480
 20
2.386120
  0
VERTEX
  8
0
  6
CONTINUOUS
 10
2.026640
 20
2.430120
  0
SEQEND
  8
0
  0
SOLID
  8
0
 62
    15
 10
2.020480
 20
2.386120
 11
2.667280
 21
2.771560
 12
2.016080
 22
2.335960
 13
2.662880
 23
2.721840
  0
POLYLINE
  8
0
  6
CONTINUOUS
 66
     1
 40
0.000000
 41
0.000000
  0
VERTEX
  8
0
  6
CONTINUOUS
 10
2.020480
 20
2.386120
  0
VERTEX
  8
0
  6
CONTINUOUS
 10
2.667280
 20
2.771560
  0
VERTEX
  8
0
  6
CONTINUOUS
 10
2.662880
 20
2.721840
  0
VERTEX
  8
0
  6
CONTINUOUS
 10
2.016080
 20
2.335960
  0
VERTEX
  8
0
  6
CONTINUOUS
 10
2.020480
 20
2.386120
  0
SEQEND
  8
0
  0
SOLID
  8
0
 62
    15
 10
2.016080
 20
2.335960
 11
2.662880
 21
2.721840
 12
2.016080
 22
2.313960
 13
2.662880
 23
2.699400
  0
POLYLINE
  8
0
  6
CONTINUOUS
 66
     1
 40
0.000000
 41
0.000000
  0
VERTEX
  8
0
  6
CONTINUOUS
 10
2.016080
 20
2.335960
  0
VERTEX
  8
0
  6
CONTINUOUS
 10
2.662880
 20
2.721840
  0
VERTEX
  8
0
  6
CONTINUOUS
 10
2.662880
 20
2.699400
  0
VERTEX
  8
0
  6
CONTINUOUS
 10
2.016080
 20
2.313960
  0
VERTEX
  8
0
  6
CONTINUOUS
 10
2.016080
 20
2.335960
  0
SEQEND
  8
0
  0
POLYLINE
  8
0
  6
CONTINUOUS
 66
     1
 40
0.000000
 41
0.000000
  0
VERTEX
  8
0
  6
CONTINUOUS
 10
2.016080
 20
2.313960
  0
VERTEX
  8
0
  6
CONTINUOUS
 10
2.662880
 20
2.699400
  0
VERTEX
  8
0
  6
CONTINUOUS
 10
2.016080
 20
2.313960
  0
SEQEND
  8
0
  0
POLYLINE
  8
0
  6
CONTINUOUS
 66
     1
 40
0.000000
 41
0.000000
  0
VERTEX
  8
0
  6
CONTINUOUS
 10
2.016080
 20
2.313960
  0
VERTEX
  8
0
  6
CONTINUOUS
 10
1.799160
 20
2.313960
  0
VERTEX
  8
0
  6
CONTINUOUS
 10
1.799160
 20
3.945040
  0
VERTEX
  8
0
  6
CONTINUOUS
 10
2.435840
 20
3.944600
  0
VERTEX
  8
0
  6
CONTINUOUS
 10
2.435840
 20
3.434200
  0
VERTEX
  8
0
  6
CONTINUOUS
 10
2.403280
 20
3.428920
  0
VERTEX
  8
0
  6
CONTINUOUS
 10
2.376440
 20
3.421880
  0
VERTEX
  8
0
  6
CONTINUOUS
 10
2.354880
 20
3.410880
  0
VERTEX
  8
0
  6
CONTINUOUS
 10
2.337720
 20
3.395040
  0
VERTEX
  8
0
  6
CONTINUOUS
 10
2.325400
 20
3.373040
  0
VERTEX
  8
0
  6
CONTINUOUS
 10
2.316600
 20
3.344000
  0
VERTEX
  8
0
  6
CONTINUOUS
 10
2.311320
 20
3.305720
  0
VERTEX
  8
0
  6
CONTINUOUS
 10
2.309120
 20
3.257760
  0
VERTEX
  8
0
  6
CONTINUOUS
 10
2.309120
 20
2.994640
  0
VERTEX
  8
0
  6
CONTINUOUS
 10
2.206600
 20
2.994200
  0
VERTEX
  8
0
  6
CONTINUOUS
 10
2.206600
 20
2.982320
  0
VERTEX
  8
0
  6
CONTINUOUS
 10
2.229040
 20
2.958120
  0
VERTEX
  8
0
  6
CONTINUOUS
 10
2.246200
 20
2.933040
  0
VERTEX
  8
0
  6
CONTINUOUS
 10
2.258960
 20
2.907520
  0
VERTEX
  8
0
  6
CONTINUOUS
 10
2.266880
 20
2.882000
  0
VERTEX
  8
0
  6
CONTINUOUS
 10
2.270840
 20
2.856040
  0
VERTEX
  8
0
  6
CONTINUOUS
 10
2.271720
 20
2.830960
  0
VERTEX
  8
0
  6
CONTINUOUS
 10
2.263800
 20
2.782560
  0
VERTEX
  8
0
  6
CONTINUOUS
 10
2.247520
 20
2.738560
  0
VERTEX
  8
0
  6
CONTINUOUS
 10
2.225520
 20
2.702040
  0
VERTEX
  8
0
  6
CONTINUOUS
 10
2.201760
 20
2.674760
  0
VERTEX
  8
0
  6
CONTINUOUS
 10
2.190320
 20
2.665520
  0
VERTEX
  8
0
  6
CONTINUOUS
 10
2.179760
 20
2.658920
  0
VERTEX
  8
0
  6
CONTINUOUS
 10
2.169640
 20
2.654520
  0
VERTEX
  8
0
  6
CONTINUOUS
 10
2.158640
 20
2.649680
  0
VERTEX
  8
0
  6
CONTINUOUS
 10
2.134880
 20
2.637800
  0
VERTEX
  8
0
  6
CONTINUOUS
 10
2.109800
 20
2.620640
  0
VERTEX
  8
0
  6
CONTINUOUS
 10
2.085600
 20
2.594680
  0
VERTEX
  8
0
  6
CONTINUOUS
 10
2.073720
 20
2.577080
  0
VERTEX
  8
0
  6
CONTINUOUS
 10
2.062720
 20
2.555960
  0
VERTEX
  8
0
  6
CONTINUOUS
 10
2.052160
 20
2.531320
  0
VERTEX
  8
0
  6
CONTINUOUS
 10
2.042480
 20
2.502280
  0
VERTEX
  8
0
  6
CONTINUOUS
 10
2.034120
 20
2.468840
  0
VERTEX
  8
0
  6
CONTINUOUS
 10
2.026640
 20
2.430120
  0
VERTEX
  8
0
  6
CONTINUOUS
 10
2.020480
 20
2.386120
  0
VERTEX
  8
0
  6
CONTINUOUS
 10
2.016080
 20
2.335960
  0
VERTEX
  8
0
  6
CONTINUOUS
 10
2.016080
 20
2.313960
  0
SEQEND
  8
0
  0
SOLID
  8
0
 62
    15
 10
3.157440
 20
4.397360
 11
3.801600
 21
4.774880
 12
3.145120
 22
4.354240
 13
3.788840
 23
4.732200
  0
POLYLINE
  8
0
  6
CONTINUOUS
 66
     1
 40
0.000000
 41
0.000000
  0
VERTEX
  8
0
  6
CONTINUOUS
 10
3.157440
 20
4.397360
  0
VERTEX
  8
0
  6
CONTINUOUS
 10
3.801600
 20
4.774880
  0
VERTEX
  8
0
  6
CONTINUOUS
 10
3.788840
 20
4.732200
  0
VERTEX
  8
0
  6
CONTINUOUS
 10
3.145120
 20
4.354240
  0
VERTEX
  8
0
  6
CONTINUOUS
 10
3.157440
 20
4.397360
  0
SEQEND
  8
0
  0
SOLID
  8
0
 62
    15
 10
2.847240
 20
4.795120
 11
3.491400
 21
5.173080
 12
2.897400
 22
4.793360
 13
3.541120
 23
5.170880
  0
POLYLINE
  8
0
  6
CONTINUOUS
 66
     1
 40
0.000000
 41
0.000000
  0
VERTEX
  8
0
  6
CONTINUOUS
 10
2.847240
 20
4.795120
  0
VERTEX
  8
0
  6
CONTINUOUS
 10
3.491400
 20
5.173080
  0
VERTEX
  8
0
  6
CONTINUOUS
 10
3.541120
 20
5.170880
  0
VERTEX
  8
0
  6
CONTINUOUS
 10
2.897400
 20
4.793360
  0
VERTEX
  8
0
  6
CONTINUOUS
 10
2.847240
 20
4.795120
  0
SEQEND
  8
0
  0
SOLID
  8
0
 62
    15
 10
2.897400
 20
4.793360
 11
3.541120
 21
5.170880
 12
2.942280
 22
4.786760
 13
3.586000
 23
5.164720
  0
POLYLINE
  8
0
  6
CONTINUOUS
 66
     1
 40
0.000000
 41
0.000000
  0
VERTEX
  8
0
  6
CONTINUOUS
 10
2.897400
 20
4.793360
  0
VERTEX
  8
0
  6
CONTINUOUS
 10
3.541120
 20
5.170880
  0
VERTEX
  8
0
  6
CONTINUOUS
 10
3.586000
 20
5.164720
  0
VERTEX
  8
0
  6
CONTINUOUS
 10
2.942280
 20
4.786760
  0
VERTEX
  8
0
  6
CONTINUOUS
 10
2.897400
 20
4.793360
  0
SEQEND
  8
0
  0
SOLID
  8
0
 62
    15
 10
2.942280
 20
4.786760
 11
3.586000
 21
5.164720
 12
2.981880
 22
4.777080
 13
3.625600
 23
5.154600
  0
POLYLINE
  8
0
  6
CONTINUOUS
 66
     1
 40
0.000000
 41
0.000000
  0
VERTEX
  8
0
  6
CONTINUOUS
 10
2.942280
 20
4.786760
  0
VERTEX
  8
0
  6
CONTINUOUS
 10
3.586000
 20
5.164720
  0
VERTEX
  8
0
  6
CONTINUOUS
 10
3.625600
 20
5.154600
  0
VERTEX
  8
0
  6
CONTINUOUS
 10
2.981880
 20
4.777080
  0
VERTEX
  8
0
  6
CONTINUOUS
 10
2.942280
 20
4.786760
  0
SEQEND
  8
0
  0
SOLID
  8
0
 62
    15
 10
2.981880
 20
4.777080
 11
3.625600
 21
5.154600
 12
3.016640
 22
4.763440
 13
3.660360
 23
5.141400
  0
POLYLINE
  8
0
  6
CONTINUOUS
 66
     1
 40
0.000000
 41
0.000000
  0
VERTEX
  8
0
  6
CONTINUOUS
 10
2.981880
 20
4.777080
  0
VERTEX
  8
0
  6
CONTINUOUS
 10
3.625600
 20
5.154600
  0
VERTEX
  8
0
  6
CONTINUOUS
 10
3.660360
 20
5.141400
  0
VERTEX
  8
0
  6
CONTINUOUS
 10
3.016640
 20
4.763440
  0
VERTEX
  8
0
  6
CONTINUOUS
 10
2.981880
 20
4.777080
  0
SEQEND
  8
0
  0
SOLID
  8
0
 62
    15
 10
3.016640
 20
4.763440
 11
3.660360
 21
5.141400
 12
3.046560
 22
4.746720
 13
3.690720
 23
5.124680
  0
POLYLINE
  8
0
  6
CONTINUOUS
 66
     1
 40
0.000000
 41
0.000000
  0
VERTEX
  8
0
  6
CONTINUOUS
 10
3.016640
 20
4.763440
  0
VERTEX
  8
0
  6
CONTINUOUS
 10
3.660360
 20
5.141400
  0
VERTEX
  8
0
  6
CONTINUOUS
 10
3.690720
 20
5.124680
  0
VERTEX
  8
0
  6
CONTINUOUS
 10
3.046560
 20
4.746720
  0
VERTEX
  8
0
  6
CONTINUOUS
 10
3.016640
 20
4.763440
  0
SEQEND
  8
0
  0
SOLID
  8
0
 62
    15
 10
3.046560
 20
4.746720
 11
3.690720
 21
5.124680
 12
3.072960
 22
4.727360
 13
3.716680
 23
5.105320
  0
POLYLINE
  8
0
  6
CONTINUOUS
 66
     1
 40
0.000000
 41
0.000000
  0
VERTEX
  8
0
  6
CONTINUOUS
 10
3.046560
 20
4.746720
  0
VERTEX
  8
0
  6
CONTINUOUS
 10
3.690720
 20
5.124680
  0
VERTEX
  8
0
  6
CONTINUOUS
 10
3.716680
 20
5.105320
  0
VERTEX
  8
0
  6
CONTINUOUS
 10
3.072960
 20
4.727360
  0
VERTEX
  8
0
  6
CONTINUOUS
 10
3.046560
 20
4.746720
  0
SEQEND
  8
0
  0
SOLID
  8
0
 62
    15
 10
3.072960
 20
4.727360
 11
3.716680
 21
5.105320
 12
3.094960
 22
4.706240
 13
3.738680
 23
5.084200
  0
POLYLINE
  8
0
  6
CONTINUOUS
 66
     1
 40
0.000000
 41
0.000000
  0
VERTEX
  8
0
  6
CONTINUOUS
 10
3.072960
 20
4.727360
  0
VERTEX
  8
0
  6
CONTINUOUS
 10
3.716680
 20
5.105320
  0
VERTEX
  8
0
  6
CONTINUOUS
 10
3.738680
 20
5.084200
  0
VERTEX
  8
0
  6
CONTINUOUS
 10
3.094960
 20
4.706240
  0
VERTEX
  8
0
  6
CONTINUOUS
 10
3.072960
 20
4.727360
  0
SEQEND
  8
0
  0
SOLID
  8
0
 62
    15
 10
3.094960
 20
4.706240
 11
3.738680
 21
5.084200
 12
3.113440
 22
4.682920
 13
3.757600
 23
5.060880
  0
POLYLINE
  8
0
  6
CONTINUOUS
 66
     1
 40
0.000000
 41
0.000000
  0
VERTEX
  8
0
  6
CONTINUOUS
 10
3.094960
 20
4.706240
  0
VERTEX
  8
0
  6
CONTINUOUS
 10
3.738680
 20
5.084200
  0
VERTEX
  8
0
  6
CONTINUOUS
 10
3.757600
 20
5.060880
  0
VERTEX
  8
0
  6
CONTINUOUS
 10
3.113440
 20
4.682920
  0
VERTEX
  8
0
  6
CONTINUOUS
 10
3.094960
 20
4.706240
  0
SEQEND
  8
0
  0
SOLID
  8
0
 62
    15
 10
3.113440
 20
4.682920
 11
3.757600
 21
5.060880
 12
3.141160
 22
4.632760
 13
3.784880
 23
5.010720
  0
POLYLINE
  8
0
  6
CONTINUOUS
 66
     1
 40
0.000000
 41
0.000000
  0
VERTEX
  8
0
  6
CONTINUOUS
 10
3.113440
 20
4.682920
  0
VERTEX
  8
0
  6
CONTINUOUS
 10
3.757600
 20
5.060880
  0
VERTEX
  8
0
  6
CONTINUOUS
 10
3.784880
 20
5.010720
  0
VERTEX
  8
0
  6
CONTINUOUS
 10
3.141160
 20
4.632760
  0
VERTEX
  8
0
  6
CONTINUOUS
 10
3.113440
 20
4.682920
  0
SEQEND
  8
0
  0
SOLID
  8
0
 62
    15
 10
3.141160
 20
4.632760
 11
3.784880
 21
5.010720
 12
3.157440
 22
4.580840
 13
3.801600
 23
4.958800
  0
POLYLINE
  8
0
  6
CONTINUOUS
 66
     1
 40
0.000000
 41
0.000000
  0
VERTEX
  8
0
  6
CONTINUOUS
 10
3.141160
 20
4.632760
  0
VERTEX
  8
0
  6
CONTINUOUS
 10
3.784880
 20
5.010720
  0
VERTEX
  8
0
  6
CONTINUOUS
 10
3.801600
 20
4.958800
  0
VERTEX
  8
0
  6
CONTINUOUS
 10
3.157440
 20
4.580840
  0
VERTEX
  8
0
  6
CONTINUOUS
 10
3.141160
 20
4.632760
  0
SEQEND
  8
0
  0
SOLID
  8
0
 62
    15
 10
3.157440
 20
4.580840
 11
3.801600
 21
4.958800
 12
3.165800
 22
4.529800
 13
3.809520
 23
4.907760
  0
POLYLINE
  8
0
  6
CONTINUOUS
 66
     1
 40
0.000000
 41
0.000000
  0
VERTEX
  8
0
  6
CONTINUOUS
 10
3.157440
 20
4.580840
  0
VERTEX
  8
0
  6
CONTINUOUS
 10
3.801600
 20
4.958800
  0
VERTEX
  8
0
  6
CONTINUOUS
 10
3.809520
 20
4.907760
  0
VERTEX
  8
0
  6
CONTINUOUS
 10
3.165800
 20
4.529800
  0
VERTEX
  8
0
  6
CONTINUOUS
 10
3.157440
 20
4.580840
  0
SEQEND
  8
0
  0
SOLID
  8
0
 62
    15
 10
3.165800
 20
4.529800
 11
3.809520
 21
4.907760
 12
3.167560
 22
4.483600
 13
3.811720
 23
4.861560
  0
POLYLINE
  8
0
  6
CONTINUOUS
 66
     1
 40
0.000000
 41
0.000000
  0
VERTEX
  8
0
  6
CONTINUOUS
 10
3.165800
 20
4.529800
  0
VERTEX
  8
0
  6
CONTINUOUS
 10
3.809520
 20
4.907760
  0
VERTEX
  8
0
  6
CONTINUOUS
 10
3.811720
 20
4.861560
  0
VERTEX
  8
0
  6
CONTINUOUS
 10
3.167560
 20
4.483600
  0
VERTEX
  8
0
  6
CONTINUOUS
 10
3.165800
 20
4.529800
  0
SEQEND
  8
0
  0
SOLID
  8
0
 62
    15
 10
3.167560
 20
4.483600
 11
3.811720
 21
4.861560
 12
3.164920
 22
4.440480
 13
3.808640
 23
4.818440
  0
POLYLINE
  8
0
  6
CONTINUOUS
 66
     1
 40
0.000000
 41
0.000000
  0
VERTEX
  8
0
  6
CONTINUOUS
 10
3.167560
 20
4.483600
  0
VERTEX
  8
0
  6
CONTINUOUS
 10
3.811720
 20
4.861560
  0
VERTEX
  8
0
  6
CONTINUOUS
 10
3.808640
 20
4.818440
  0
VERTEX
  8
0
  6
CONTINUOUS
 10
3.164920
 20
4.440480
  0
VERTEX
  8
0
  6
CONTINUOUS
 10
3.167560
 20
4.483600
  0
SEQEND
  8
0
  0
SOLID
  8
0
 62
    15
 10
3.164920
 20
4.440480
 11
3.808640
 21
4.818440
 12
3.157440
 22
4.397360
 13
3.801600
 23
4.774880
  0
POLYLINE
  8
0
  6
CONTINUOUS
 66
     1
 40
0.000000
 41
0.000000
  0
VERTEX
  8
0
  6
CONTINUOUS
 10
3.164920
 20
4.440480
  0
VERTEX
  8
0
  6
CONTINUOUS
 10
3.808640
 20
4.818440
  0
VERTEX
  8
0
  6
CONTINUOUS
 10
3.801600
 20
4.774880
  0
VERTEX
  8
0
  6
CONTINUOUS
 10
3.157440
 20
4.397360
  0
VERTEX
  8
0
  6
CONTINUOUS
 10
3.164920
 20
4.440480
  0
SEQEND
  8
0
  0
SOLID
  8
0
 62
    15
 10
1.001000
 20
4.795120
 11
1.644720
 21
5.173080
 12
2.847240
 22
4.795120
 13
3.491400
 23
5.173080
  0
POLYLINE
  8
0
  6
CONTINUOUS
 66
     1
 40
0.000000
 41
0.000000
  0
VERTEX
  8
0
  6
CONTINUOUS
 10
1.001000
 20
4.795120
  0
VERTEX
  8
0
  6
CONTINUOUS
 10
1.644720
 20
5.173080
  0
VERTEX
  8
0
  6
CONTINUOUS
 10
3.491400
 20
5.173080
  0
VERTEX
  8
0
  6
CONTINUOUS
 10
2.847240
 20
4.795120
  0
VERTEX
  8
0
  6
CONTINUOUS
 10
1.001000
 20
4.795120
  0
SEQEND
  8
0
  0
SOLID
  8
0
 62
    15
 10
3.145120
 20
4.354240
 11
3.788840
 21
4.732200
 12
3.127520
 22
4.312000
 13
3.771680
 23
4.689960
  0
POLYLINE
  8
0
  6
CONTINUOUS
 66
     1
 40
0.000000
 41
0.000000
  0
VERTEX
  8
0
  6
CONTINUOUS
 10
3.145120
 20
4.354240
  0
VERTEX
  8
0
  6
CONTINUOUS
 10
3.788840
 20
4.732200
  0
VERTEX
  8
0
  6
CONTINUOUS
 10
3.771680
 20
4.689960
  0
VERTEX
  8
0
  6
CONTINUOUS
 10
3.127520
 20
4.312000
  0
VERTEX
  8
0
  6
CONTINUOUS
 10
3.145120
 20
4.354240
  0
SEQEND
  8
0
  0
SOLID
  8
0
 62
    15
 10
3.127520
 20
4.312000
 11
3.771680
 21
4.689960
 12
3.105080
 22
4.271960
 13
3.748800
 23
4.649480
  0
POLYLINE
  8
0
  6
CONTINUOUS
 66
     1
 40
0.000000
 41
0.000000
  0
VERTEX
  8
0
  6
CONTINUOUS
 10
3.127520
 20
4.312000
  0
VERTEX
  8
0
  6
CONTINUOUS
 10
3.771680
 20
4.689960
  0
VERTEX
  8
0
  6
CONTINUOUS
 10
3.748800
 20
4.649480
  0
VERTEX
  8
0
  6
CONTINUOUS
 10
3.105080
 20
4.271960
  0
VERTEX
  8
0
  6
CONTINUOUS
 10
3.127520
 20
4.312000
  0
SEQEND
  8
0
  0
SOLID
  8
0
 62
    15
 10
3.105080
 20
4.271960
 11
3.748800
 21
4.649480
 12
3.076920
 22
4.233680
 13
3.720640
 23
4.611640
  0
POLYLINE
  8
0
  6
CONTINUOUS
 66
     1
 40
0.000000
 41
0.000000
  0
VERTEX
  8
0
  6
CONTINUOUS
 10
3.105080
 20
4.271960
  0
VERTEX
  8
0
  6
CONTINUOUS
 10
3.748800
 20
4.649480
  0
VERTEX
  8
0
  6
CONTINUOUS
 10
3.720640
 20
4.611640
  0
VERTEX
  8
0
  6
CONTINUOUS
 10
3.076920
 20
4.233680
  0
VERTEX
  8
0
  6
CONTINUOUS
 10
3.105080
 20
4.271960
  0
SEQEND
  8
0
  0
SOLID
  8
0
 62
    15
 10
3.076920
 20
4.233680
 11
3.720640
 21
4.611640
 12
3.043480
 22
4.198480
 13
3.687200
 23
4.576440
  0
POLYLINE
  8
0
  6
CONTINUOUS
 66
     1
 40
0.000000
 41
0.000000
  0
VERTEX
  8
0
  6
CONTINUOUS
 10
3.076920
 20
4.233680
  0
VERTEX
  8
0
  6
CONTINUOUS
 10
3.720640
 20
4.611640
  0
VERTEX
  8
0
  6
CONTINUOUS
 10
3.687200
 20
4.576440
  0
VERTEX
  8
0
  6
CONTINUOUS
 10
3.043480
 20
4.198480
  0
VERTEX
  8
0
  6
CONTINUOUS
 10
3.076920
 20
4.233680
  0
SEQEND
  8
0
  0
SOLID
  8
0
 62
    15
 10
3.043480
 20
4.198480
 11
3.687200
 21
4.576440
 12
3.004320
 22
4.166800
 13
3.648480
 23
4.544760
  0
POLYLINE
  8
0
  6
CONTINUOUS
 66
     1
 40
0.000000
 41
0.000000
  0
VERTEX
  8
0
  6
CONTINUOUS
 10
3.043480
 20
4.198480
  0
VERTEX
  8
0
  6
CONTINUOUS
 10
3.687200
 20
4.576440
  0
VERTEX
  8
0
  6
CONTINUOUS
 10
3.648480
 20
4.544760
  0
VERTEX
  8
0
  6
CONTINUOUS
 10
3.004320
 20
4.166800
  0
VERTEX
  8
0
  6
CONTINUOUS
 10
3.043480
 20
4.198480
  0
SEQEND
  8
0
  0
SOLID
  8
0
 62
    15
 10
3.004320
 20
4.166800
 11
3.648480
 21
4.544760
 12
2.969560
 22
4.134680
 13
3.613280
 23
4.512640
  0
POLYLINE
  8
0
  6
CONTINUOUS
 66
     1
 40
0.000000
 41
0.000000
  0
VERTEX
  8
0
  6
CONTINUOUS
 10
3.004320
 20
4.166800
  0
VERTEX
  8
0
  6
CONTINUOUS
 10
3.648480
 20
4.544760
  0
VERTEX
  8
0
  6
CONTINUOUS
 10
3.613280
 20
4.512640
  0
VERTEX
  8
0
  6
CONTINUOUS
 10
2.969560
 20
4.134680
  0
VERTEX
  8
0
  6
CONTINUOUS
 10
3.004320
 20
4.166800
  0
SEQEND
  8
0
  0
SOLID
  8
0
 62
    15
 10
2.969560
 20
4.134680
 11
3.613280
 21
4.512640
 12
2.946680
 22
4.099040
 13
3.590840
 23
4.477000
  0
POLYLINE
  8
0
  6
CONTINUOUS
 66
     1
 40
0.000000
 41
0.000000
  0
VERTEX
  8
0
  6
CONTINUOUS
 10
2.969560
 20
4.134680
  0
VERTEX
  8
0
  6
CONTINUOUS
 10
3.613280
 20
4.512640
  0
VERTEX
  8
0
  6
CONTINUOUS
 10
3.590840
 20
4.477000
  0
VERTEX
  8
0
  6
CONTINUOUS
 10
2.946680
 20
4.099040
  0
VERTEX
  8
0
  6
CONTINUOUS
 10
2.969560
 20
4.134680
  0
SEQEND
  8
0
  0
SOLID
  8
0
 62
    15
 10
2.946680
 20
4.099040
 11
3.590840
 21
4.477000
 12
2.933920
 22
4.062080
 13
3.578080
 23
4.440040
  0
POLYLINE
  8
0
  6
CONTINUOUS
 66
     1
 40
0.000000
 41
0.000000
  0
VERTEX
  8
0
  6
CONTINUOUS
 10
2.946680
 20
4.099040
  0
VERTEX
  8
0
  6
CONTINUOUS
 10
3.590840
 20
4.477000
  0
VERTEX
  8
0
  6
CONTINUOUS
 10
3.578080
 20
4.440040
  0
VERTEX
  8
0
  6
CONTINUOUS
 10
2.933920
 20
4.062080
  0
VERTEX
  8
0
  6
CONTINUOUS
 10
2.946680
 20
4.099040
  0
SEQEND
  8
0
  0
SOLID
  8
0
 62
    15
 10
2.933920
 20
4.062080
 11
3.578080
 21
4.440040
 12
2.928640
 22
4.026440
 13
3.572800
 23
4.404400
  0
POLYLINE
  8
0
  6
CONTINUOUS
 66
     1
 40
0.000000
 41
0.000000
  0
VERTEX
  8
0
  6
CONTINUOUS
 10
2.933920
 20
4.062080
  0
VERTEX
  8
0
  6
CONTINUOUS
 10
3.578080
 20
4.440040
  0
VERTEX
  8
0
  6
CONTINUOUS
 10
3.572800
 20
4.404400
  0
VERTEX
  8
0
  6
CONTINUOUS
 10
2.928640
 20
4.026440
  0
VERTEX
  8
0
  6
CONTINUOUS
 10
2.933920
 20
4.062080
  0
SEQEND
  8
0
  0
SOLID
  8
0
 62
    15
 10
2.928640
 20
4.026440
 11
3.572800
 21
4.404400
 12
2.928640
 22
3.993880
 13
3.572800
 23
4.371840
  0
POLYLINE
  8
0
  6
CONTINUOUS
 66
     1
 40
0.000000
 41
0.000000
  0
VERTEX
  8
0
  6
CONTINUOUS
 10
2.928640
 20
4.026440
  0
VERTEX
  8
0
  6
CONTINUOUS
 10
3.572800
 20
4.404400
  0
VERTEX
  8
0
  6
CONTINUOUS
 10
3.572800
 20
4.371840
  0
VERTEX
  8
0
  6
CONTINUOUS
 10
2.928640
 20
3.993880
  0
VERTEX
  8
0
  6
CONTINUOUS
 10
2.928640
 20
4.026440
  0
SEQEND
  8
0
  0
SOLID
  8
0
 62
    15
 10
2.928640
 20
3.993880
 11
3.572800
 21
4.371840
 12
2.931280
 22
3.967480
 13
3.575000
 23
4.345440
  0
POLYLINE
  8
0
  6
CONTINUOUS
 66
     1
 40
0.000000
 41
0.000000
  0
VERTEX
  8
0
  6
CONTINUOUS
 10
2.928640
 20
3.993880
  0
VERTEX
  8
0
  6
CONTINUOUS
 10
3.572800
 20
4.371840
  0
VERTEX
  8
0
  6
CONTINUOUS
 10
3.575000
 20
4.345440
  0
VERTEX
  8
0
  6
CONTINUOUS
 10
2.931280
 20
3.967480
  0
VERTEX
  8
0
  6
CONTINUOUS
 10
2.928640
 20
3.993880
  0
SEQEND
  8
0
  0
SOLID
  8
0
 62
    15
 10
2.931280
 20
3.967480
 11
3.575000
 21
4.345440
 12
2.933480
 22
3.952520
 13
3.577640
 23
4.330480
  0
POLYLINE
  8
0
  6
CONTINUOUS
 66
     1
 40
0.000000
 41
0.000000
  0
VERTEX
  8
0
  6
CONTINUOUS
 10
2.931280
 20
3.967480
  0
VERTEX
  8
0
  6
CONTINUOUS
 10
3.575000
 20
4.345440
  0
VERTEX
  8
0
  6
CONTINUOUS
 10
3.577640
 20
4.330480
  0
VERTEX
  8
0
  6
CONTINUOUS
 10
2.933480
 20
3.952520
  0
VERTEX
  8
0
  6
CONTINUOUS
 10
2.931280
 20
3.967480
  0
SEQEND
  8
0
  0
SOLID
  8
0
 62
    15
 10
2.933480
 20
3.952520
 11
3.577640
 21
4.330480
 12
2.934360
 22
3.948560
 13
3.578080
 23
4.326520
  0
POLYLINE
  8
0
  6
CONTINUOUS
 66
     1
 40
0.000000
 41
0.000000
  0
VERTEX
  8
0
  6
CONTINUOUS
 10
2.933480
 20
3.952520
  0
VERTEX
  8
0
  6
CONTINUOUS
 10
3.577640
 20
4.330480
  0
VERTEX
  8
0
  6
CONTINUOUS
 10
3.578080
 20
4.326520
  0
VERTEX
  8
0
  6
CONTINUOUS
 10
2.934360
 20
3.948560
  0
VERTEX
  8
0
  6
CONTINUOUS
 10
2.933480
 20
3.952520
  0
SEQEND
  8
0
  0
SOLID
  8
0
 62
    15
 10
2.934360
 20
3.948560
 11
3.578080
 21
4.326520
 12
2.935240
 22
3.940200
 13
3.578960
 23
4.318160
  0
POLYLINE
  8
0
  6
CONTINUOUS
 66
     1
 40
0.000000
 41
0.000000
  0
VERTEX
  8
0
  6
CONTINUOUS
 10
2.934360
 20
3.948560
  0
VERTEX
  8
0
  6
CONTINUOUS
 10
3.578080
 20
4.326520
  0
VERTEX
  8
0
  6
CONTINUOUS
 10
3.578960
 20
4.318160
  0
VERTEX
  8
0
  6
CONTINUOUS
 10
2.935240
 20
3.940200
  0
VERTEX
  8
0
  6
CONTINUOUS
 10
2.934360
 20
3.948560
  0
SEQEND
  8
0
  0
POLYLINE
  8
0
  6
CONTINUOUS
 66
     1
 40
0.000000
 41
0.000000
  0
VERTEX
  8
0
  6
CONTINUOUS
 10
2.931280
 20
3.940640
  0
VERTEX
  8
0
  6
CONTINUOUS
 10
1.001000
 20
3.940640
  0
VERTEX
  8
0
  6
CONTINUOUS
 10
1.001000
 20
4.795120
  0
VERTEX
  8
0
  6
CONTINUOUS
 10
2.847240
 20
4.795120
  0
VERTEX
  8
0
  6
CONTINUOUS
 10
2.897400
 20
4.793360
  0
VERTEX
  8
0
  6
CONTINUOUS
 10
2.942280
 20
4.786760
  0
VERTEX
  8
0
  6
CONTINUOUS
 10
2.981880
 20
4.777080
  0
VERTEX
  8
0
  6
CONTINUOUS
 10
3.016640
 20
4.763440
  0
VERTEX
  8
0
  6
CONTINUOUS
 10
3.046560
 20
4.746720
  0
VERTEX
  8
0
  6
CONTINUOUS
 10
3.072960
 20
4.727360
  0
VERTEX
  8
0
  6
CONTINUOUS
 10
3.094960
 20
4.706240
  0
VERTEX
  8
0
  6
CONTINUOUS
 10
3.113440
 20
4.682920
  0
VERTEX
  8
0
  6
CONTINUOUS
 10
3.141160
 20
4.632760
  0
VERTEX
  8
0
  6
CONTINUOUS
 10
3.157440
 20
4.580840
  0
VERTEX
  8
0
  6
CONTINUOUS
 10
3.165800
 20
4.529800
  0
VERTEX
  8
0
  6
CONTINUOUS
 10
3.167560
 20
4.483600
  0
VERTEX
  8
0
  6
CONTINUOUS
 10
3.164920
 20
4.440480
  0
VERTEX
  8
0
  6
CONTINUOUS
 10
3.157440
 20
4.397360
  0
VERTEX
  8
0
  6
CONTINUOUS
 10
3.145120
 20
4.354240
  0
VERTEX
  8
0
  6
CONTINUOUS
 10
3.127520
 20
4.312000
  0
VERTEX
  8
0
  6
CONTINUOUS
 10
3.105080
 20
4.271960
  0
VERTEX
  8
0
  6
CONTINUOUS
 10
3.076920
 20
4.233680
  0
VERTEX
  8
0
  6
CONTINUOUS
 10
3.043480
 20
4.198480
  0
VERTEX
  8
0
  6
CONTINUOUS
 10
3.004320
 20
4.166800
  0
VERTEX
  8
0
  6
CONTINUOUS
 10
2.969560
 20
4.134680
  0
VERTEX
  8
0
  6
CONTINUOUS
 10
2.946680
 20
4.099040
  0
VERTEX
  8
0
  6
CONTINUOUS
 10
2.933920
 20
4.062080
  0
VERTEX
  8
0
  6
CONTINUOUS
 10
2.928640
 20
4.026440
  0
VERTEX
  8
0
  6
CONTINUOUS
 10
2.928640
 20
3.993880
  0
VERTEX
  8
0
  6
CONTINUOUS
 10
2.931280
 20
3.967480
  0
VERTEX
  8
0
  6
CONTINUOUS
 10
2.933480
 20
3.952520
  0
VERTEX
  8
0
  6
CONTINUOUS
 10
2.934360
 20
3.948560
  0
VERTEX
  8
0
  6
CONTINUOUS
 10
2.935240
 20
3.940200
  0
VERTEX
  8
0
  6
CONTINUOUS
 10
2.931280
 20
3.940640
  0
SEQEND
  8
0
  0
TEXT
  8
0
 10
1.052480
 20
4.092440
 40
0.138298
  1
580
 41
1.000000
  7
SN0
 71
     0
 72
     5
 11
1.329832
 21
4.092440
  0
TEXT
  8
0
 10
1.858120
 20
3.748360
 40
0.138298
  1
579
 41
1.000000
  7
SN0
 71
     0
 72
     5
 11
2.135472
 21
3.748360
  0
TEXT
  8
0
 10
1.052480
 20
3.748360
 40
0.138298
  1
581
 41
1.000000
  7
SN0
 71
     0
 72
     5
 11
1.329832
 21
3.748360
  0
TEXT
  8
0
 10
7.626520
 20
9.332400
 40
0.138298
  1
apron
 41
1.000000
  7
SN0
 71
     0
 72
     5
 11
8.051977
 21
9.332400
  0
TEXT
  8
0
 10
7.700440
 20
9.140560
 40
0.138298
  1
581
 41
1.000000
  7
SN0
 71
     0
 72
     5
 11
7.977792
 21
9.140560
  0
ENDSEC
  0
EOF
