  0
SECTION
  2
HEADER
  9
$ACADVER
  1
AC1006
  9
$EXTMIN
 10
1.824680
 20
0.656040
  9
$EXTMAX
 10
7.600560
 20
9.745120
  9
$LTSCALE
 40
0.044000
  9
$PDMODE
 70
    35
  9
$PDSIZE
 40
0.035200
  0
ENDSEC
  0
SECTION
  2
TABLES
  0
TABLE
  2
LTYPE
 70
     9
  0
LTYPE
  2
CONTINUOUS
 70
    64
  3
Solid line
 72
    65
 73
     0
 40
0.000000
  0
LTYPE
  2
DASHED
 70
    64
  3
__ __ __ __ __ __ __ __ __ __ __ __ __ __ __
 72
    65
 73
     2
 40
0.000330
 49
0.000220
 49
-0.000110
  0
LTYPE
  2
HIDDEN
 70
    64
  3
 _ _ _ _ _ _ _ _ _ _ _ _ _ _ _ _ _ _ _ _ _ _
 72
    65
 73
     2
 40
0.000165
 49
0.000110
 49
-0.000055
  0
LTYPE
  2
CENTER
 70
    64
  3
____ _ ____ _ ____ _ ____ _ ____ _ ____ _ ____
 72
    65
 73
     4
 40
0.000880
 49
0.000550
 49
-0.000110
 49
0.000110
 49
-0.000110
  0
LTYPE
  2
PHANTOM
 70
    64
  3
_____ _ _ _____ _ _ _____ _ _ _____ _ _ ____
 72
    65
 73
     6
 40
0.001100
 49
0.000550
 49
-0.000110
 49
0.000110
 49
-0.000110
 49
0.000110
 49
-0.000110
  0
LTYPE
  2
DOT
 70
    64
  3
...............................................
 72
    65
 73
     2
 40
0.000110
 49
0.000000
 49
-0.000110
  0
LTYPE
  2
DASHDOT
 70
    64
  3
__ . __ . __ . __ . __ . __ . __ . __ . __ . __
 72
    65
 73
     4
 40
0.000440
 49
0.000220
 49
-0.000110
 49
0.000000
 49
-0.000110
  0
LTYPE
  2
BORDER
 70
    64
  3
__ __ . __ __ . __ __ . __ __ . __ __ . __ __
 72
    65
 73
     6
 40
0.000770
 49
0.000220
 49
-0.000110
 49
0.000220
 49
-0.000110
 49
0.000000
 49
-0.000110
  0
LTYPE
  2
DIVIDE
 70
    64
  3
__ . . __ . . __ . . __ . . __ . . __ . . __
 72
    65
 73
     6
 40
0.000550
 49
0.000220
 49
-0.000110
 49
0.000000
 49
-0.000110
 49
0.000000
 49
-0.000110
  0
LTYPE
  2
DOTDOT
 70
    64
  3
 . .  . .  . .  . .  . .  . . 
 72
    65
 73
     5
 40
0.000242
 49
-0.000110
 49
0.000000
 49
-0.000110
 49
0.000000
 49
-0.000110
  0
ENDTAB
  0
TABLE
  2
STYLE
 70
     2
  0
STYLE
 70
     0
  2
SN0
 40
0.000000
 41
0.000440
 50
0.000000
 71
     0
 42
0.000000
  3
ROMAND
  0
STYLE
 70
    68
  2
SV0
 40
0.000000
 41
0.000440
 50
0.000000
 71
     0
 42
0.000000
  3
ROMAND
  0
ENDTAB
  0
TABLE
  2
LAYER
 70
     3
  0
LAYER
  2
FOREGROUND
 70
    64
 62
     7
  6
CONTINUOUS
  0
LAYER
  2
BACKGROUND
 70
    65
 62
    -7
  6
CONTINUOUS
  0
LAYER
  2
0
 70
    64
 62
     7
  6
CONTINUOUS
  0
ENDTAB
  0
ENDSEC
  0
SECTION
  2
ENTITIES
  0
POLYLINE
  8
FOREGROUND
  6
CONTINUOUS
 66
     1
 40
0.000000
 41
0.000000
  0
VERTEX
  8
FOREGROUND
  6
CONTINUOUS
 10
0.000000
 20
10.401160
  0
VERTEX
  8
FOREGROUND
  6
CONTINUOUS
 10
8.499920
 20
10.401160
  0
VERTEX
  8
FOREGROUND
  6
CONTINUOUS
 10
8.499920
 20
-0.598840
  0
VERTEX
  8
FOREGROUND
  6
CONTINUOUS
 10
0.000000
 20
-0.598840
  0
VERTEX
  8
FOREGROUND
  6
CONTINUOUS
 10
0.000000
 20
10.401160
  0
SEQEND
  8
0
  0
POLYLINE
  8
FOREGROUND
  6
CONTINUOUS
 66
     1
 40
0.000000
 41
0.000000
  0
VERTEX
  8
FOREGROUND
  6
CONTINUOUS
 10
0.000000
 20
10.401160
  0
VERTEX
  8
FOREGROUND
  6
CONTINUOUS
 10
8.499920
 20
10.401160
  0
VERTEX
  8
FOREGROUND
  6
CONTINUOUS
 10
8.499920
 20
-0.598840
  0
VERTEX
  8
FOREGROUND
  6
CONTINUOUS
 10
0.000000
 20
-0.598840
  0
VERTEX
  8
FOREGROUND
  6
CONTINUOUS
 10
0.000000
 20
10.401160
  0
SEQEND
  8
0
  0
POLYLINE
  8
0
  6
CONTINUOUS
 66
     1
 40
0.014080
 41
0.014080
  0
VERTEX
  8
0
  6
CONTINUOUS
 10
7.356800
 20
8.882720
  0
VERTEX
  8
0
  6
CONTINUOUS
 10
5.426520
 20
8.882720
  0
VERTEX
  8
0
  6
CONTINUOUS
 10
5.426520
 20
9.737200
  0
VERTEX
  8
0
  6
CONTINUOUS
 10
7.304880
 20
9.736760
  0
VERTEX
  8
0
  6
CONTINUOUS
 10
7.346240
 20
9.732800
  0
VERTEX
  8
0
  6
CONTINUOUS
 10
7.388480
 20
9.724880
  0
VERTEX
  8
0
  6
CONTINUOUS
 10
7.416640
 20
9.716080
  0
VERTEX
  8
0
  6
CONTINUOUS
 10
7.450080
 20
9.701560
  0
VERTEX
  8
0
  6
CONTINUOUS
 10
7.476040
 20
9.686600
  0
VERTEX
  8
0
  6
CONTINUOUS
 10
7.504640
 20
9.664600
  0
VERTEX
  8
0
  6
CONTINUOUS
 10
7.530600
 20
9.636880
  0
VERTEX
  8
0
  6
CONTINUOUS
 10
7.550840
 20
9.606960
  0
VERTEX
  8
0
  6
CONTINUOUS
 10
7.566680
 20
9.575280
  0
VERTEX
  8
0
  6
CONTINUOUS
 10
7.578120
 20
9.542720
  0
VERTEX
  8
0
  6
CONTINUOUS
 10
7.587360
 20
9.504000
  0
VERTEX
  8
0
  6
CONTINUOUS
 10
7.592200
 20
9.460000
  0
VERTEX
  8
0
  6
CONTINUOUS
 10
7.593520
 20
9.426120
  0
VERTEX
  8
0
  6
CONTINUOUS
 10
7.590880
 20
9.383000
  0
VERTEX
  8
0
  6
CONTINUOUS
 10
7.583400
 20
9.339440
  0
VERTEX
  8
0
  6
CONTINUOUS
 10
7.568880
 20
9.291040
  0
VERTEX
  8
0
  6
CONTINUOUS
 10
7.553480
 20
9.254520
  0
VERTEX
  8
0
  6
CONTINUOUS
 10
7.527520
 20
9.209200
  0
VERTEX
  8
0
  6
CONTINUOUS
 10
7.502440
 20
9.175760
  0
VERTEX
  8
0
  6
CONTINUOUS
 10
7.469000
 20
9.140560
  0
VERTEX
  8
0
  6
CONTINUOUS
 10
7.430280
 20
9.108880
  0
VERTEX
  8
0
  6
CONTINUOUS
 10
7.406960
 20
9.089520
  0
VERTEX
  8
0
  6
CONTINUOUS
 10
7.388480
 20
9.067960
  0
VERTEX
  8
0
  6
CONTINUOUS
 10
7.372640
 20
9.041120
  0
VERTEX
  8
0
  6
CONTINUOUS
 10
7.362080
 20
9.013400
  0
VERTEX
  8
0
  6
CONTINUOUS
 10
7.355480
 20
8.977320
  0
VERTEX
  8
0
  6
CONTINUOUS
 10
7.354160
 20
8.943880
  0
VERTEX
  8
0
  6
CONTINUOUS
 10
7.358120
 20
8.901640
  0
VERTEX
  8
0
  6
CONTINUOUS
 10
7.360760
 20
8.882720
  0
SEQEND
  8
0
  0
SOLID
  8
0
 62
    15
 10
3.982000
 20
8.931120
 11
4.625720
 21
9.309080
 12
3.969240
 22
8.888000
 13
4.613400
 23
9.265960
  0
POLYLINE
  8
0
  6
CONTINUOUS
 66
     1
 40
0.000000
 41
0.000000
  0
VERTEX
  8
0
  6
CONTINUOUS
 10
3.982000
 20
8.931120
  0
VERTEX
  8
0
  6
CONTINUOUS
 10
4.625720
 20
9.309080
  0
VERTEX
  8
0
  6
CONTINUOUS
 10
4.613400
 20
9.265960
  0
VERTEX
  8
0
  6
CONTINUOUS
 10
3.969240
 20
8.888000
  0
VERTEX
  8
0
  6
CONTINUOUS
 10
3.982000
 20
8.931120
  0
SEQEND
  8
0
  0
SOLID
  8
0
 62
    15
 10
3.671800
 20
9.328880
 11
4.315520
 21
9.706840
 12
3.721960
 22
9.327120
 13
4.365680
 23
9.705080
  0
POLYLINE
  8
0
  6
CONTINUOUS
 66
     1
 40
0.000000
 41
0.000000
  0
VERTEX
  8
0
  6
CONTINUOUS
 10
3.671800
 20
9.328880
  0
VERTEX
  8
0
  6
CONTINUOUS
 10
4.315520
 20
9.706840
  0
VERTEX
  8
0
  6
CONTINUOUS
 10
4.365680
 20
9.705080
  0
VERTEX
  8
0
  6
CONTINUOUS
 10
3.721960
 20
9.327120
  0
VERTEX
  8
0
  6
CONTINUOUS
 10
3.671800
 20
9.328880
  0
SEQEND
  8
0
  0
SOLID
  8
0
 62
    15
 10
3.721960
 20
9.327120
 11
4.365680
 21
9.705080
 12
3.766400
 22
9.320960
 13
4.410560
 23
9.698920
  0
POLYLINE
  8
0
  6
CONTINUOUS
 66
     1
 40
0.000000
 41
0.000000
  0
VERTEX
  8
0
  6
CONTINUOUS
 10
3.721960
 20
9.327120
  0
VERTEX
  8
0
  6
CONTINUOUS
 10
4.365680
 20
9.705080
  0
VERTEX
  8
0
  6
CONTINUOUS
 10
4.410560
 20
9.698920
  0
VERTEX
  8
0
  6
CONTINUOUS
 10
3.766400
 20
9.320960
  0
VERTEX
  8
0
  6
CONTINUOUS
 10
3.721960
 20
9.327120
  0
SEQEND
  8
0
  0
SOLID
  8
0
 62
    15
 10
3.766400
 20
9.320960
 11
4.410560
 21
9.698920
 12
3.806000
 22
9.310840
 13
4.450160
 23
9.688800
  0
POLYLINE
  8
0
  6
CONTINUOUS
 66
     1
 40
0.000000
 41
0.000000
  0
VERTEX
  8
0
  6
CONTINUOUS
 10
3.766400
 20
9.320960
  0
VERTEX
  8
0
  6
CONTINUOUS
 10
4.410560
 20
9.698920
  0
VERTEX
  8
0
  6
CONTINUOUS
 10
4.450160
 20
9.688800
  0
VERTEX
  8
0
  6
CONTINUOUS
 10
3.806000
 20
9.310840
  0
VERTEX
  8
0
  6
CONTINUOUS
 10
3.766400
 20
9.320960
  0
SEQEND
  8
0
  0
SOLID
  8
0
 62
    15
 10
3.806000
 20
9.310840
 11
4.450160
 21
9.688800
 12
3.840760
 22
9.297200
 13
4.484920
 23
9.675160
  0
POLYLINE
  8
0
  6
CONTINUOUS
 66
     1
 40
0.000000
 41
0.000000
  0
VERTEX
  8
0
  6
CONTINUOUS
 10
3.806000
 20
9.310840
  0
VERTEX
  8
0
  6
CONTINUOUS
 10
4.450160
 20
9.688800
  0
VERTEX
  8
0
  6
CONTINUOUS
 10
4.484920
 20
9.675160
  0
VERTEX
  8
0
  6
CONTINUOUS
 10
3.840760
 20
9.297200
  0
VERTEX
  8
0
  6
CONTINUOUS
 10
3.806000
 20
9.310840
  0
SEQEND
  8
0
  0
SOLID
  8
0
 62
    15
 10
3.840760
 20
9.297200
 11
4.484920
 21
9.675160
 12
3.871120
 22
9.280480
 13
4.514840
 23
9.658440
  0
POLYLINE
  8
0
  6
CONTINUOUS
 66
     1
 40
0.000000
 41
0.000000
  0
VERTEX
  8
0
  6
CONTINUOUS
 10
3.840760
 20
9.297200
  0
VERTEX
  8
0
  6
CONTINUOUS
 10
4.484920
 20
9.675160
  0
VERTEX
  8
0
  6
CONTINUOUS
 10
4.514840
 20
9.658440
  0
VERTEX
  8
0
  6
CONTINUOUS
 10
3.871120
 20
9.280480
  0
VERTEX
  8
0
  6
CONTINUOUS
 10
3.840760
 20
9.297200
  0
SEQEND
  8
0
  0
SOLID
  8
0
 62
    15
 10
3.871120
 20
9.280480
 11
4.514840
 21
9.658440
 12
3.897080
 22
9.261560
 13
4.541240
 23
9.639520
  0
POLYLINE
  8
0
  6
CONTINUOUS
 66
     1
 40
0.000000
 41
0.000000
  0
VERTEX
  8
0
  6
CONTINUOUS
 10
3.871120
 20
9.280480
  0
VERTEX
  8
0
  6
CONTINUOUS
 10
4.514840
 20
9.658440
  0
VERTEX
  8
0
  6
CONTINUOUS
 10
4.541240
 20
9.639520
  0
VERTEX
  8
0
  6
CONTINUOUS
 10
3.897080
 20
9.261560
  0
VERTEX
  8
0
  6
CONTINUOUS
 10
3.871120
 20
9.280480
  0
SEQEND
  8
0
  0
SOLID
  8
0
 62
    15
 10
3.897080
 20
9.261560
 11
4.541240
 21
9.639520
 12
3.919520
 22
9.240000
 13
4.563240
 23
9.617960
  0
POLYLINE
  8
0
  6
CONTINUOUS
 66
     1
 40
0.000000
 41
0.000000
  0
VERTEX
  8
0
  6
CONTINUOUS
 10
3.897080
 20
9.261560
  0
VERTEX
  8
0
  6
CONTINUOUS
 10
4.541240
 20
9.639520
  0
VERTEX
  8
0
  6
CONTINUOUS
 10
4.563240
 20
9.617960
  0
VERTEX
  8
0
  6
CONTINUOUS
 10
3.919520
 20
9.240000
  0
VERTEX
  8
0
  6
CONTINUOUS
 10
3.897080
 20
9.261560
  0
SEQEND
  8
0
  0
SOLID
  8
0
 62
    15
 10
3.919520
 20
9.240000
 11
4.563240
 21
9.617960
 12
3.938000
 22
9.216680
 13
4.581720
 23
9.594640
  0
POLYLINE
  8
0
  6
CONTINUOUS
 66
     1
 40
0.000000
 41
0.000000
  0
VERTEX
  8
0
  6
CONTINUOUS
 10
3.919520
 20
9.240000
  0
VERTEX
  8
0
  6
CONTINUOUS
 10
4.563240
 20
9.617960
  0
VERTEX
  8
0
  6
CONTINUOUS
 10
4.581720
 20
9.594640
  0
VERTEX
  8
0
  6
CONTINUOUS
 10
3.938000
 20
9.216680
  0
VERTEX
  8
0
  6
CONTINUOUS
 10
3.919520
 20
9.240000
  0
SEQEND
  8
0
  0
SOLID
  8
0
 62
    15
 10
3.938000
 20
9.216680
 11
4.581720
 21
9.594640
 12
3.965280
 22
9.166960
 13
4.609440
 23
9.544920
  0
POLYLINE
  8
0
  6
CONTINUOUS
 66
     1
 40
0.000000
 41
0.000000
  0
VERTEX
  8
0
  6
CONTINUOUS
 10
3.938000
 20
9.216680
  0
VERTEX
  8
0
  6
CONTINUOUS
 10
4.581720
 20
9.594640
  0
VERTEX
  8
0
  6
CONTINUOUS
 10
4.609440
 20
9.544920
  0
VERTEX
  8
0
  6
CONTINUOUS
 10
3.965280
 20
9.166960
  0
VERTEX
  8
0
  6
CONTINUOUS
 10
3.938000
 20
9.216680
  0
SEQEND
  8
0
  0
SOLID
  8
0
 62
    15
 10
3.965280
 20
9.166960
 11
4.609440
 21
9.544920
 12
3.982000
 22
9.114600
 13
4.625720
 23
9.492560
  0
POLYLINE
  8
0
  6
CONTINUOUS
 66
     1
 40
0.000000
 41
0.000000
  0
VERTEX
  8
0
  6
CONTINUOUS
 10
3.965280
 20
9.166960
  0
VERTEX
  8
0
  6
CONTINUOUS
 10
4.609440
 20
9.544920
  0
VERTEX
  8
0
  6
CONTINUOUS
 10
4.625720
 20
9.492560
  0
VERTEX
  8
0
  6
CONTINUOUS
 10
3.982000
 20
9.114600
  0
VERTEX
  8
0
  6
CONTINUOUS
 10
3.965280
 20
9.166960
  0
SEQEND
  8
0
  0
SOLID
  8
0
 62
    15
 10
3.982000
 20
9.114600
 11
4.625720
 21
9.492560
 12
3.989920
 22
9.064000
 13
4.634080
 23
9.441960
  0
POLYLINE
  8
0
  6
CONTINUOUS
 66
     1
 40
0.000000
 41
0.000000
  0
VERTEX
  8
0
  6
CONTINUOUS
 10
3.982000
 20
9.114600
  0
VERTEX
  8
0
  6
CONTINUOUS
 10
4.625720
 20
9.492560
  0
VERTEX
  8
0
  6
CONTINUOUS
 10
4.634080
 20
9.441960
  0
VERTEX
  8
0
  6
CONTINUOUS
 10
3.989920
 20
9.064000
  0
VERTEX
  8
0
  6
CONTINUOUS
 10
3.982000
 20
9.114600
  0
SEQEND
  8
0
  0
SOLID
  8
0
 62
    15
 10
3.989920
 20
9.064000
 11
4.634080
 21
9.441960
 12
3.992120
 22
9.017800
 13
4.635840
 23
9.395320
  0
POLYLINE
  8
0
  6
CONTINUOUS
 66
     1
 40
0.000000
 41
0.000000
  0
VERTEX
  8
0
  6
CONTINUOUS
 10
3.989920
 20
9.064000
  0
VERTEX
  8
0
  6
CONTINUOUS
 10
4.634080
 20
9.441960
  0
VERTEX
  8
0
  6
CONTINUOUS
 10
4.635840
 20
9.395320
  0
VERTEX
  8
0
  6
CONTINUOUS
 10
3.992120
 20
9.017800
  0
VERTEX
  8
0
  6
CONTINUOUS
 10
3.989920
 20
9.064000
  0
SEQEND
  8
0
  0
SOLID
  8
0
 62
    15
 10
3.992120
 20
9.017800
 11
4.635840
 21
9.395320
 12
3.989480
 22
8.974240
 13
4.633200
 23
9.352200
  0
POLYLINE
  8
0
  6
CONTINUOUS
 66
     1
 40
0.000000
 41
0.000000
  0
VERTEX
  8
0
  6
CONTINUOUS
 10
3.992120
 20
9.017800
  0
VERTEX
  8
0
  6
CONTINUOUS
 10
4.635840
 20
9.395320
  0
VERTEX
  8
0
  6
CONTINUOUS
 10
4.633200
 20
9.352200
  0
VERTEX
  8
0
  6
CONTINUOUS
 10
3.989480
 20
8.974240
  0
VERTEX
  8
0
  6
CONTINUOUS
 10
3.992120
 20
9.017800
  0
SEQEND
  8
0
  0
SOLID
  8
0
 62
    15
 10
3.989480
 20
8.974240
 11
4.633200
 21
9.352200
 12
3.982000
 22
8.931120
 13
4.625720
 23
9.309080
  0
POLYLINE
  8
0
  6
CONTINUOUS
 66
     1
 40
0.000000
 41
0.000000
  0
VERTEX
  8
0
  6
CONTINUOUS
 10
3.989480
 20
8.974240
  0
VERTEX
  8
0
  6
CONTINUOUS
 10
4.633200
 20
9.352200
  0
VERTEX
  8
0
  6
CONTINUOUS
 10
4.625720
 20
9.309080
  0
VERTEX
  8
0
  6
CONTINUOUS
 10
3.982000
 20
8.931120
  0
VERTEX
  8
0
  6
CONTINUOUS
 10
3.989480
 20
8.974240
  0
SEQEND
  8
0
  0
SOLID
  8
0
 62
    15
 10
1.825560
 20
9.328880
 11
2.469280
 21
9.706840
 12
3.671800
 22
9.328880
 13
4.315520
 23
9.706840
  0
POLYLINE
  8
0
  6
CONTINUOUS
 66
     1
 40
0.000000
 41
0.000000
  0
VERTEX
  8
0
  6
CONTINUOUS
 10
1.825560
 20
9.328880
  0
VERTEX
  8
0
  6
CONTINUOUS
 10
2.469280
 20
9.706840
  0
VERTEX
  8
0
  6
CONTINUOUS
 10
4.315520
 20
9.706840
  0
VERTEX
  8
0
  6
CONTINUOUS
 10
3.671800
 20
9.328880
  0
VERTEX
  8
0
  6
CONTINUOUS
 10
1.825560
 20
9.328880
  0
SEQEND
  8
0
  0
SOLID
  8
0
 62
    15
 10
3.969240
 20
8.888000
 11
4.613400
 21
9.265960
 12
3.952080
 22
8.845760
 13
4.595800
 23
9.223720
  0
POLYLINE
  8
0
  6
CONTINUOUS
 66
     1
 40
0.000000
 41
0.000000
  0
VERTEX
  8
0
  6
CONTINUOUS
 10
3.969240
 20
8.888000
  0
VERTEX
  8
0
  6
CONTINUOUS
 10
4.613400
 20
9.265960
  0
VERTEX
  8
0
  6
CONTINUOUS
 10
4.595800
 20
9.223720
  0
VERTEX
  8
0
  6
CONTINUOUS
 10
3.952080
 20
8.845760
  0
VERTEX
  8
0
  6
CONTINUOUS
 10
3.969240
 20
8.888000
  0
SEQEND
  8
0
  0
SOLID
  8
0
 62
    15
 10
3.952080
 20
8.845760
 11
4.595800
 21
9.223720
 12
3.929200
 22
8.805720
 13
4.573360
 23
9.183680
  0
POLYLINE
  8
0
  6
CONTINUOUS
 66
     1
 40
0.000000
 41
0.000000
  0
VERTEX
  8
0
  6
CONTINUOUS
 10
3.952080
 20
8.845760
  0
VERTEX
  8
0
  6
CONTINUOUS
 10
4.595800
 20
9.223720
  0
VERTEX
  8
0
  6
CONTINUOUS
 10
4.573360
 20
9.183680
  0
VERTEX
  8
0
  6
CONTINUOUS
 10
3.929200
 20
8.805720
  0
VERTEX
  8
0
  6
CONTINUOUS
 10
3.952080
 20
8.845760
  0
SEQEND
  8
0
  0
SOLID
  8
0
 62
    15
 10
3.929200
 20
8.805720
 11
4.573360
 21
9.183680
 12
3.901480
 22
8.767440
 13
4.545200
 23
9.145400
  0
POLYLINE
  8
0
  6
CONTINUOUS
 66
     1
 40
0.000000
 41
0.000000
  0
VERTEX
  8
0
  6
CONTINUOUS
 10
3.929200
 20
8.805720
  0
VERTEX
  8
0
  6
CONTINUOUS
 10
4.573360
 20
9.183680
  0
VERTEX
  8
0
  6
CONTINUOUS
 10
4.545200
 20
9.145400
  0
VERTEX
  8
0
  6
CONTINUOUS
 10
3.901480
 20
8.767440
  0
VERTEX
  8
0
  6
CONTINUOUS
 10
3.929200
 20
8.805720
  0
SEQEND
  8
0
  0
SOLID
  8
0
 62
    15
 10
3.901480
 20
8.767440
 11
4.545200
 21
9.145400
 12
3.868040
 22
8.732240
 13
4.511760
 23
9.110200
  0
POLYLINE
  8
0
  6
CONTINUOUS
 66
     1
 40
0.000000
 41
0.000000
  0
VERTEX
  8
0
  6
CONTINUOUS
 10
3.901480
 20
8.767440
  0
VERTEX
  8
0
  6
CONTINUOUS
 10
4.545200
 20
9.145400
  0
VERTEX
  8
0
  6
CONTINUOUS
 10
4.511760
 20
9.110200
  0
VERTEX
  8
0
  6
CONTINUOUS
 10
3.868040
 20
8.732240
  0
VERTEX
  8
0
  6
CONTINUOUS
 10
3.901480
 20
8.767440
  0
SEQEND
  8
0
  0
SOLID
  8
0
 62
    15
 10
3.868040
 20
8.732240
 11
4.511760
 21
9.110200
 12
3.828880
 22
8.700560
 13
4.472600
 23
9.078520
  0
POLYLINE
  8
0
  6
CONTINUOUS
 66
     1
 40
0.000000
 41
0.000000
  0
VERTEX
  8
0
  6
CONTINUOUS
 10
3.868040
 20
8.732240
  0
VERTEX
  8
0
  6
CONTINUOUS
 10
4.511760
 20
9.110200
  0
VERTEX
  8
0
  6
CONTINUOUS
 10
4.472600
 20
9.078520
  0
VERTEX
  8
0
  6
CONTINUOUS
 10
3.828880
 20
8.700560
  0
VERTEX
  8
0
  6
CONTINUOUS
 10
3.868040
 20
8.732240
  0
SEQEND
  8
0
  0
SOLID
  8
0
 62
    15
 10
3.828880
 20
8.700560
 11
4.472600
 21
9.078520
 12
3.793680
 22
8.668440
 13
4.437840
 23
9.046400
  0
POLYLINE
  8
0
  6
CONTINUOUS
 66
     1
 40
0.000000
 41
0.000000
  0
VERTEX
  8
0
  6
CONTINUOUS
 10
3.828880
 20
8.700560
  0
VERTEX
  8
0
  6
CONTINUOUS
 10
4.472600
 20
9.078520
  0
VERTEX
  8
0
  6
CONTINUOUS
 10
4.437840
 20
9.046400
  0
VERTEX
  8
0
  6
CONTINUOUS
 10
3.793680
 20
8.668440
  0
VERTEX
  8
0
  6
CONTINUOUS
 10
3.828880
 20
8.700560
  0
SEQEND
  8
0
  0
SOLID
  8
0
 62
    15
 10
3.793680
 20
8.668440
 11
4.437840
 21
9.046400
 12
3.771240
 22
8.632800
 13
4.414960
 23
9.010760
  0
POLYLINE
  8
0
  6
CONTINUOUS
 66
     1
 40
0.000000
 41
0.000000
  0
VERTEX
  8
0
  6
CONTINUOUS
 10
3.793680
 20
8.668440
  0
VERTEX
  8
0
  6
CONTINUOUS
 10
4.437840
 20
9.046400
  0
VERTEX
  8
0
  6
CONTINUOUS
 10
4.414960
 20
9.010760
  0
VERTEX
  8
0
  6
CONTINUOUS
 10
3.771240
 20
8.632800
  0
VERTEX
  8
0
  6
CONTINUOUS
 10
3.793680
 20
8.668440
  0
SEQEND
  8
0
  0
SOLID
  8
0
 62
    15
 10
3.771240
 20
8.632800
 11
4.414960
 21
9.010760
 12
3.758480
 22
8.595840
 13
4.402200
 23
8.973800
  0
POLYLINE
  8
0
  6
CONTINUOUS
 66
     1
 40
0.000000
 41
0.000000
  0
VERTEX
  8
0
  6
CONTINUOUS
 10
3.771240
 20
8.632800
  0
VERTEX
  8
0
  6
CONTINUOUS
 10
4.414960
 20
9.010760
  0
VERTEX
  8
0
  6
CONTINUOUS
 10
4.402200
 20
8.973800
  0
VERTEX
  8
0
  6
CONTINUOUS
 10
3.758480
 20
8.595840
  0
VERTEX
  8
0
  6
CONTINUOUS
 10
3.771240
 20
8.632800
  0
SEQEND
  8
0
  0
SOLID
  8
0
 62
    15
 10
3.758480
 20
8.595840
 11
4.402200
 21
8.973800
 12
3.753200
 22
8.560200
 13
4.396920
 23
8.938160
  0
POLYLINE
  8
0
  6
CONTINUOUS
 66
     1
 40
0.000000
 41
0.000000
  0
VERTEX
  8
0
  6
CONTINUOUS
 10
3.758480
 20
8.595840
  0
VERTEX
  8
0
  6
CONTINUOUS
 10
4.402200
 20
8.973800
  0
VERTEX
  8
0
  6
CONTINUOUS
 10
4.396920
 20
8.938160
  0
VERTEX
  8
0
  6
CONTINUOUS
 10
3.753200
 20
8.560200
  0
VERTEX
  8
0
  6
CONTINUOUS
 10
3.758480
 20
8.595840
  0
SEQEND
  8
0
  0
SOLID
  8
0
 62
    15
 10
3.753200
 20
8.560200
 11
4.396920
 21
8.938160
 12
3.753200
 22
8.527640
 13
4.396920
 23
8.905600
  0
POLYLINE
  8
0
  6
CONTINUOUS
 66
     1
 40
0.000000
 41
0.000000
  0
VERTEX
  8
0
  6
CONTINUOUS
 10
3.753200
 20
8.560200
  0
VERTEX
  8
0
  6
CONTINUOUS
 10
4.396920
 20
8.938160
  0
VERTEX
  8
0
  6
CONTINUOUS
 10
4.396920
 20
8.905600
  0
VERTEX
  8
0
  6
CONTINUOUS
 10
3.753200
 20
8.527640
  0
VERTEX
  8
0
  6
CONTINUOUS
 10
3.753200
 20
8.560200
  0
SEQEND
  8
0
  0
SOLID
  8
0
 62
    15
 10
3.753200
 20
8.527640
 11
4.396920
 21
8.905600
 12
3.755840
 22
8.501240
 13
4.399560
 23
8.879200
  0
POLYLINE
  8
0
  6
CONTINUOUS
 66
     1
 40
0.000000
 41
0.000000
  0
VERTEX
  8
0
  6
CONTINUOUS
 10
3.753200
 20
8.527640
  0
VERTEX
  8
0
  6
CONTINUOUS
 10
4.396920
 20
8.905600
  0
VERTEX
  8
0
  6
CONTINUOUS
 10
4.399560
 20
8.879200
  0
VERTEX
  8
0
  6
CONTINUOUS
 10
3.755840
 20
8.501240
  0
VERTEX
  8
0
  6
CONTINUOUS
 10
3.753200
 20
8.527640
  0
SEQEND
  8
0
  0
SOLID
  8
0
 62
    15
 10
3.755840
 20
8.501240
 11
4.399560
 21
8.879200
 12
3.758040
 22
8.486280
 13
4.401760
 23
8.864240
  0
POLYLINE
  8
0
  6
CONTINUOUS
 66
     1
 40
0.000000
 41
0.000000
  0
VERTEX
  8
0
  6
CONTINUOUS
 10
3.755840
 20
8.501240
  0
VERTEX
  8
0
  6
CONTINUOUS
 10
4.399560
 20
8.879200
  0
VERTEX
  8
0
  6
CONTINUOUS
 10
4.401760
 20
8.864240
  0
VERTEX
  8
0
  6
CONTINUOUS
 10
3.758040
 20
8.486280
  0
VERTEX
  8
0
  6
CONTINUOUS
 10
3.755840
 20
8.501240
  0
SEQEND
  8
0
  0
SOLID
  8
0
 62
    15
 10
3.758040
 20
8.486280
 11
4.401760
 21
8.864240
 12
3.758480
 22
8.482320
 13
4.402640
 23
8.860280
  0
POLYLINE
  8
0
  6
CONTINUOUS
 66
     1
 40
0.000000
 41
0.000000
  0
VERTEX
  8
0
  6
CONTINUOUS
 10
3.758040
 20
8.486280
  0
VERTEX
  8
0
  6
CONTINUOUS
 10
4.401760
 20
8.864240
  0
VERTEX
  8
0
  6
CONTINUOUS
 10
4.402640
 20
8.860280
  0
VERTEX
  8
0
  6
CONTINUOUS
 10
3.758480
 20
8.482320
  0
VERTEX
  8
0
  6
CONTINUOUS
 10
3.758040
 20
8.486280
  0
SEQEND
  8
0
  0
SOLID
  8
0
 62
    15
 10
3.758480
 20
8.482320
 11
4.402640
 21
8.860280
 12
3.759360
 22
8.474400
 13
4.403520
 23
8.851920
  0
POLYLINE
  8
0
  6
CONTINUOUS
 66
     1
 40
0.000000
 41
0.000000
  0
VERTEX
  8
0
  6
CONTINUOUS
 10
3.758480
 20
8.482320
  0
VERTEX
  8
0
  6
CONTINUOUS
 10
4.402640
 20
8.860280
  0
VERTEX
  8
0
  6
CONTINUOUS
 10
4.403520
 20
8.851920
  0
VERTEX
  8
0
  6
CONTINUOUS
 10
3.759360
 20
8.474400
  0
VERTEX
  8
0
  6
CONTINUOUS
 10
3.758480
 20
8.482320
  0
SEQEND
  8
0
  0
POLYLINE
  8
0
  6
CONTINUOUS
 66
     1
 40
0.000000
 41
0.000000
  0
VERTEX
  8
0
  6
CONTINUOUS
 10
3.755400
 20
8.474400
  0
VERTEX
  8
0
  6
CONTINUOUS
 10
1.825560
 20
8.474400
  0
VERTEX
  8
0
  6
CONTINUOUS
 10
1.825560
 20
9.328880
  0
VERTEX
  8
0
  6
CONTINUOUS
 10
3.671800
 20
9.328880
  0
VERTEX
  8
0
  6
CONTINUOUS
 10
3.721960
 20
9.327120
  0
VERTEX
  8
0
  6
CONTINUOUS
 10
3.766400
 20
9.320960
  0
VERTEX
  8
0
  6
CONTINUOUS
 10
3.806000
 20
9.310840
  0
VERTEX
  8
0
  6
CONTINUOUS
 10
3.840760
 20
9.297200
  0
VERTEX
  8
0
  6
CONTINUOUS
 10
3.871120
 20
9.280480
  0
VERTEX
  8
0
  6
CONTINUOUS
 10
3.897080
 20
9.261560
  0
VERTEX
  8
0
  6
CONTINUOUS
 10
3.919520
 20
9.240000
  0
VERTEX
  8
0
  6
CONTINUOUS
 10
3.938000
 20
9.216680
  0
VERTEX
  8
0
  6
CONTINUOUS
 10
3.965280
 20
9.166960
  0
VERTEX
  8
0
  6
CONTINUOUS
 10
3.982000
 20
9.114600
  0
VERTEX
  8
0
  6
CONTINUOUS
 10
3.989920
 20
9.064000
  0
VERTEX
  8
0
  6
CONTINUOUS
 10
3.992120
 20
9.017800
  0
VERTEX
  8
0
  6
CONTINUOUS
 10
3.989480
 20
8.974240
  0
VERTEX
  8
0
  6
CONTINUOUS
 10
3.982000
 20
8.931120
  0
VERTEX
  8
0
  6
CONTINUOUS
 10
3.969240
 20
8.888000
  0
VERTEX
  8
0
  6
CONTINUOUS
 10
3.952080
 20
8.845760
  0
VERTEX
  8
0
  6
CONTINUOUS
 10
3.929200
 20
8.805720
  0
VERTEX
  8
0
  6
CONTINUOUS
 10
3.901480
 20
8.767440
  0
VERTEX
  8
0
  6
CONTINUOUS
 10
3.868040
 20
8.732240
  0
VERTEX
  8
0
  6
CONTINUOUS
 10
3.828880
 20
8.700560
  0
VERTEX
  8
0
  6
CONTINUOUS
 10
3.793680
 20
8.668440
  0
VERTEX
  8
0
  6
CONTINUOUS
 10
3.771240
 20
8.632800
  0
VERTEX
  8
0
  6
CONTINUOUS
 10
3.758480
 20
8.595840
  0
VERTEX
  8
0
  6
CONTINUOUS
 10
3.753200
 20
8.560200
  0
VERTEX
  8
0
  6
CONTINUOUS
 10
3.753200
 20
8.527640
  0
VERTEX
  8
0
  6
CONTINUOUS
 10
3.755840
 20
8.501240
  0
VERTEX
  8
0
  6
CONTINUOUS
 10
3.758040
 20
8.486280
  0
VERTEX
  8
0
  6
CONTINUOUS
 10
3.758480
 20
8.482320
  0
VERTEX
  8
0
  6
CONTINUOUS
 10
3.759360
 20
8.474400
  0
VERTEX
  8
0
  6
CONTINUOUS
 10
3.755400
 20
8.474400
  0
SEQEND
  8
0
  0
TEXT
  8
0
 10
2.934360
 20
8.260560
 40
0.137894
  1
BA  580
 41
1.000000
  7
SN0
 71
     0
 72
     5
 11
3.526968
 21
8.260560
  0
TEXT
  8
0
 10
2.732400
 20
8.069160
 40
0.137894
  1
7/8" x 2-3/16"
 41
1.000000
  7
SN0
 71
     0
 72
     5
 11
3.730835
 21
8.069160
  0
SOLID
  8
0
 62
    15
 10
4.326960
 20
1.327480
 11
4.964960
 21
1.697960
 12
4.287800
 22
1.285680
 13
4.925800
 23
1.656600
  0
POLYLINE
  8
0
  6
CONTINUOUS
 66
     1
 40
0.000000
 41
0.000000
  0
VERTEX
  8
0
  6
CONTINUOUS
 10
4.326960
 20
1.327480
  0
VERTEX
  8
0
  6
CONTINUOUS
 10
4.964960
 20
1.697960
  0
VERTEX
  8
0
  6
CONTINUOUS
 10
4.925800
 20
1.656600
  0
VERTEX
  8
0
  6
CONTINUOUS
 10
4.287800
 20
1.285680
  0
VERTEX
  8
0
  6
CONTINUOUS
 10
4.326960
 20
1.327480
  0
SEQEND
  8
0
  0
SOLID
  8
0
 62
    15
 10
4.747160
 20
2.483800
 11
5.385600
 21
2.854280
 12
4.724280
 22
2.462240
 13
5.362720
 23
2.832720
  0
POLYLINE
  8
0
  6
CONTINUOUS
 66
     1
 40
0.000000
 41
0.000000
  0
VERTEX
  8
0
  6
CONTINUOUS
 10
4.747160
 20
2.483800
  0
VERTEX
  8
0
  6
CONTINUOUS
 10
5.385600
 20
2.854280
  0
VERTEX
  8
0
  6
CONTINUOUS
 10
5.362720
 20
2.832720
  0
VERTEX
  8
0
  6
CONTINUOUS
 10
4.724280
 20
2.462240
  0
VERTEX
  8
0
  6
CONTINUOUS
 10
4.747160
 20
2.483800
  0
SEQEND
  8
0
  0
SOLID
  8
0
 62
    15
 10
4.724280
 20
2.462240
 11
5.362720
 21
2.832720
 12
4.702720
 22
2.435840
 13
5.340720
 23
2.806320
  0
POLYLINE
  8
0
  6
CONTINUOUS
 66
     1
 40
0.000000
 41
0.000000
  0
VERTEX
  8
0
  6
CONTINUOUS
 10
4.724280
 20
2.462240
  0
VERTEX
  8
0
  6
CONTINUOUS
 10
5.362720
 20
2.832720
  0
VERTEX
  8
0
  6
CONTINUOUS
 10
5.340720
 20
2.806320
  0
VERTEX
  8
0
  6
CONTINUOUS
 10
4.702720
 20
2.435840
  0
VERTEX
  8
0
  6
CONTINUOUS
 10
4.724280
 20
2.462240
  0
SEQEND
  8
0
  0
SOLID
  8
0
 62
    15
 10
4.702720
 20
2.435840
 11
5.340720
 21
2.806320
 12
4.682920
 22
2.404160
 13
5.321360
 23
2.775080
  0
POLYLINE
  8
0
  6
CONTINUOUS
 66
     1
 40
0.000000
 41
0.000000
  0
VERTEX
  8
0
  6
CONTINUOUS
 10
4.702720
 20
2.435840
  0
VERTEX
  8
0
  6
CONTINUOUS
 10
5.340720
 20
2.806320
  0
VERTEX
  8
0
  6
CONTINUOUS
 10
5.321360
 20
2.775080
  0
VERTEX
  8
0
  6
CONTINUOUS
 10
4.682920
 20
2.404160
  0
VERTEX
  8
0
  6
CONTINUOUS
 10
4.702720
 20
2.435840
  0
SEQEND
  8
0
  0
SOLID
  8
0
 62
    15
 10
4.682920
 20
2.404160
 11
5.321360
 21
2.775080
 12
4.665760
 22
2.366320
 13
5.304200
 23
2.736800
  0
POLYLINE
  8
0
  6
CONTINUOUS
 66
     1
 40
0.000000
 41
0.000000
  0
VERTEX
  8
0
  6
CONTINUOUS
 10
4.682920
 20
2.404160
  0
VERTEX
  8
0
  6
CONTINUOUS
 10
5.321360
 20
2.775080
  0
VERTEX
  8
0
  6
CONTINUOUS
 10
5.304200
 20
2.736800
  0
VERTEX
  8
0
  6
CONTINUOUS
 10
4.665760
 20
2.366320
  0
VERTEX
  8
0
  6
CONTINUOUS
 10
4.682920
 20
2.404160
  0
SEQEND
  8
0
  0
SOLID
  8
0
 62
    15
 10
4.665760
 20
2.366320
 11
5.304200
 21
2.736800
 12
4.651680
 22
2.320560
 13
5.290120
 23
2.691480
  0
POLYLINE
  8
0
  6
CONTINUOUS
 66
     1
 40
0.000000
 41
0.000000
  0
VERTEX
  8
0
  6
CONTINUOUS
 10
4.665760
 20
2.366320
  0
VERTEX
  8
0
  6
CONTINUOUS
 10
5.304200
 20
2.736800
  0
VERTEX
  8
0
  6
CONTINUOUS
 10
5.290120
 20
2.691480
  0
VERTEX
  8
0
  6
CONTINUOUS
 10
4.651680
 20
2.320560
  0
VERTEX
  8
0
  6
CONTINUOUS
 10
4.665760
 20
2.366320
  0
SEQEND
  8
0
  0
SOLID
  8
0
 62
    15
 10
4.651680
 20
2.320560
 11
5.290120
 21
2.691480
 12
4.641560
 22
2.266880
 13
5.280000
 23
2.637360
  0
POLYLINE
  8
0
  6
CONTINUOUS
 66
     1
 40
0.000000
 41
0.000000
  0
VERTEX
  8
0
  6
CONTINUOUS
 10
4.651680
 20
2.320560
  0
VERTEX
  8
0
  6
CONTINUOUS
 10
5.290120
 20
2.691480
  0
VERTEX
  8
0
  6
CONTINUOUS
 10
5.280000
 20
2.637360
  0
VERTEX
  8
0
  6
CONTINUOUS
 10
4.641560
 20
2.266880
  0
VERTEX
  8
0
  6
CONTINUOUS
 10
4.651680
 20
2.320560
  0
SEQEND
  8
0
  0
SOLID
  8
0
 62
    15
 10
4.512640
 20
2.009480
 11
5.151080
 21
2.379960
 12
4.512640
 22
1.919720
 13
5.151080
 23
2.290200
  0
POLYLINE
  8
0
  6
CONTINUOUS
 66
     1
 40
0.000000
 41
0.000000
  0
VERTEX
  8
0
  6
CONTINUOUS
 10
4.512640
 20
2.009480
  0
VERTEX
  8
0
  6
CONTINUOUS
 10
5.151080
 20
2.379960
  0
VERTEX
  8
0
  6
CONTINUOUS
 10
5.151080
 20
2.290200
  0
VERTEX
  8
0
  6
CONTINUOUS
 10
4.512640
 20
1.919720
  0
VERTEX
  8
0
  6
CONTINUOUS
 10
4.512640
 20
2.009480
  0
SEQEND
  8
0
  0
SOLID
  8
0
 62
    15
 10
4.641560
 20
2.266880
 11
5.280000
 21
2.637360
 12
4.641560
 22
2.009480
 13
5.280000
 23
2.379960
  0
POLYLINE
  8
0
  6
CONTINUOUS
 66
     1
 40
0.000000
 41
0.000000
  0
VERTEX
  8
0
  6
CONTINUOUS
 10
4.641560
 20
2.266880
  0
VERTEX
  8
0
  6
CONTINUOUS
 10
5.280000
 20
2.637360
  0
VERTEX
  8
0
  6
CONTINUOUS
 10
5.280000
 20
2.379960
  0
VERTEX
  8
0
  6
CONTINUOUS
 10
4.641560
 20
2.009480
  0
VERTEX
  8
0
  6
CONTINUOUS
 10
4.641560
 20
2.266880
  0
SEQEND
  8
0
  0
SOLID
  8
0
 62
    15
 10
4.512640
 20
1.919720
 11
5.151080
 21
2.290200
 12
4.574680
 22
1.888480
 13
5.213120
 23
2.259400
  0
POLYLINE
  8
0
  6
CONTINUOUS
 66
     1
 40
0.000000
 41
0.000000
  0
VERTEX
  8
0
  6
CONTINUOUS
 10
4.512640
 20
1.919720
  0
VERTEX
  8
0
  6
CONTINUOUS
 10
5.151080
 20
2.290200
  0
VERTEX
  8
0
  6
CONTINUOUS
 10
5.213120
 20
2.259400
  0
VERTEX
  8
0
  6
CONTINUOUS
 10
4.574680
 20
1.888480
  0
VERTEX
  8
0
  6
CONTINUOUS
 10
4.512640
 20
1.919720
  0
SEQEND
  8
0
  0
SOLID
  8
0
 62
    15
 10
4.574680
 20
1.888480
 11
5.213120
 21
2.259400
 12
4.623080
 22
1.855480
 13
5.261520
 23
2.226400
  0
POLYLINE
  8
0
  6
CONTINUOUS
 66
     1
 40
0.000000
 41
0.000000
  0
VERTEX
  8
0
  6
CONTINUOUS
 10
4.574680
 20
1.888480
  0
VERTEX
  8
0
  6
CONTINUOUS
 10
5.213120
 20
2.259400
  0
VERTEX
  8
0
  6
CONTINUOUS
 10
5.261520
 20
2.226400
  0
VERTEX
  8
0
  6
CONTINUOUS
 10
4.623080
 20
1.855480
  0
VERTEX
  8
0
  6
CONTINUOUS
 10
4.574680
 20
1.888480
  0
SEQEND
  8
0
  0
SOLID
  8
0
 62
    15
 10
4.623080
 20
1.855480
 11
5.261520
 21
2.226400
 12
4.659600
 22
1.821160
 13
5.298040
 23
2.191640
  0
POLYLINE
  8
0
  6
CONTINUOUS
 66
     1
 40
0.000000
 41
0.000000
  0
VERTEX
  8
0
  6
CONTINUOUS
 10
4.623080
 20
1.855480
  0
VERTEX
  8
0
  6
CONTINUOUS
 10
5.261520
 20
2.226400
  0
VERTEX
  8
0
  6
CONTINUOUS
 10
5.298040
 20
2.191640
  0
VERTEX
  8
0
  6
CONTINUOUS
 10
4.659600
 20
1.821160
  0
VERTEX
  8
0
  6
CONTINUOUS
 10
4.623080
 20
1.855480
  0
SEQEND
  8
0
  0
SOLID
  8
0
 62
    15
 10
4.659600
 20
1.821160
 11
5.298040
 21
2.191640
 12
4.685120
 22
1.785520
 13
5.323560
 23
2.156000
  0
POLYLINE
  8
0
  6
CONTINUOUS
 66
     1
 40
0.000000
 41
0.000000
  0
VERTEX
  8
0
  6
CONTINUOUS
 10
4.659600
 20
1.821160
  0
VERTEX
  8
0
  6
CONTINUOUS
 10
5.298040
 20
2.191640
  0
VERTEX
  8
0
  6
CONTINUOUS
 10
5.323560
 20
2.156000
  0
VERTEX
  8
0
  6
CONTINUOUS
 10
4.685120
 20
1.785520
  0
VERTEX
  8
0
  6
CONTINUOUS
 10
4.659600
 20
1.821160
  0
SEQEND
  8
0
  0
SOLID
  8
0
 62
    15
 10
4.685120
 20
1.785520
 11
5.323560
 21
2.156000
 12
4.700960
 22
1.749000
 13
5.338960
 23
2.119480
  0
POLYLINE
  8
0
  6
CONTINUOUS
 66
     1
 40
0.000000
 41
0.000000
  0
VERTEX
  8
0
  6
CONTINUOUS
 10
4.685120
 20
1.785520
  0
VERTEX
  8
0
  6
CONTINUOUS
 10
5.323560
 20
2.156000
  0
VERTEX
  8
0
  6
CONTINUOUS
 10
5.338960
 20
2.119480
  0
VERTEX
  8
0
  6
CONTINUOUS
 10
4.700960
 20
1.749000
  0
VERTEX
  8
0
  6
CONTINUOUS
 10
4.685120
 20
1.785520
  0
SEQEND
  8
0
  0
SOLID
  8
0
 62
    15
 10
4.700960
 20
1.749000
 11
5.338960
 21
2.119480
 12
4.707560
 22
1.712480
 13
5.346000
 23
2.082960
  0
POLYLINE
  8
0
  6
CONTINUOUS
 66
     1
 40
0.000000
 41
0.000000
  0
VERTEX
  8
0
  6
CONTINUOUS
 10
4.700960
 20
1.749000
  0
VERTEX
  8
0
  6
CONTINUOUS
 10
5.338960
 20
2.119480
  0
VERTEX
  8
0
  6
CONTINUOUS
 10
5.346000
 20
2.082960
  0
VERTEX
  8
0
  6
CONTINUOUS
 10
4.707560
 20
1.712480
  0
VERTEX
  8
0
  6
CONTINUOUS
 10
4.700960
 20
1.749000
  0
SEQEND
  8
0
  0
SOLID
  8
0
 62
    15
 10
4.707560
 20
1.712480
 11
5.346000
 21
2.082960
 12
4.707120
 22
1.676400
 13
5.345120
 23
2.046880
  0
POLYLINE
  8
0
  6
CONTINUOUS
 66
     1
 40
0.000000
 41
0.000000
  0
VERTEX
  8
0
  6
CONTINUOUS
 10
4.707560
 20
1.712480
  0
VERTEX
  8
0
  6
CONTINUOUS
 10
5.346000
 20
2.082960
  0
VERTEX
  8
0
  6
CONTINUOUS
 10
5.345120
 20
2.046880
  0
VERTEX
  8
0
  6
CONTINUOUS
 10
4.707120
 20
1.676400
  0
VERTEX
  8
0
  6
CONTINUOUS
 10
4.707560
 20
1.712480
  0
SEQEND
  8
0
  0
SOLID
  8
0
 62
    15
 10
4.707120
 20
1.676400
 11
5.345120
 21
2.046880
 12
4.699640
 22
1.640760
 13
5.338080
 23
2.011680
  0
POLYLINE
  8
0
  6
CONTINUOUS
 66
     1
 40
0.000000
 41
0.000000
  0
VERTEX
  8
0
  6
CONTINUOUS
 10
4.707120
 20
1.676400
  0
VERTEX
  8
0
  6
CONTINUOUS
 10
5.345120
 20
2.046880
  0
VERTEX
  8
0
  6
CONTINUOUS
 10
5.338080
 20
2.011680
  0
VERTEX
  8
0
  6
CONTINUOUS
 10
4.699640
 20
1.640760
  0
VERTEX
  8
0
  6
CONTINUOUS
 10
4.707120
 20
1.676400
  0
SEQEND
  8
0
  0
SOLID
  8
0
 62
    15
 10
4.699640
 20
1.640760
 11
5.338080
 21
2.011680
 12
4.687320
 22
1.606880
 13
5.325760
 23
1.977360
  0
POLYLINE
  8
0
  6
CONTINUOUS
 66
     1
 40
0.000000
 41
0.000000
  0
VERTEX
  8
0
  6
CONTINUOUS
 10
4.699640
 20
1.640760
  0
VERTEX
  8
0
  6
CONTINUOUS
 10
5.338080
 20
2.011680
  0
VERTEX
  8
0
  6
CONTINUOUS
 10
5.325760
 20
1.977360
  0
VERTEX
  8
0
  6
CONTINUOUS
 10
4.687320
 20
1.606880
  0
VERTEX
  8
0
  6
CONTINUOUS
 10
4.699640
 20
1.640760
  0
SEQEND
  8
0
  0
SOLID
  8
0
 62
    15
 10
4.687320
 20
1.606880
 11
5.325760
 21
1.977360
 12
4.670600
 22
1.574320
 13
5.309040
 23
1.944800
  0
POLYLINE
  8
0
  6
CONTINUOUS
 66
     1
 40
0.000000
 41
0.000000
  0
VERTEX
  8
0
  6
CONTINUOUS
 10
4.687320
 20
1.606880
  0
VERTEX
  8
0
  6
CONTINUOUS
 10
5.325760
 20
1.977360
  0
VERTEX
  8
0
  6
CONTINUOUS
 10
5.309040
 20
1.944800
  0
VERTEX
  8
0
  6
CONTINUOUS
 10
4.670600
 20
1.574320
  0
VERTEX
  8
0
  6
CONTINUOUS
 10
4.687320
 20
1.606880
  0
SEQEND
  8
0
  0
SOLID
  8
0
 62
    15
 10
4.670600
 20
1.574320
 11
5.309040
 21
1.944800
 12
4.629680
 22
1.516680
 13
5.267680
 23
1.887600
  0
POLYLINE
  8
0
  6
CONTINUOUS
 66
     1
 40
0.000000
 41
0.000000
  0
VERTEX
  8
0
  6
CONTINUOUS
 10
4.670600
 20
1.574320
  0
VERTEX
  8
0
  6
CONTINUOUS
 10
5.309040
 20
1.944800
  0
VERTEX
  8
0
  6
CONTINUOUS
 10
5.267680
 20
1.887600
  0
VERTEX
  8
0
  6
CONTINUOUS
 10
4.629680
 20
1.516680
  0
VERTEX
  8
0
  6
CONTINUOUS
 10
4.670600
 20
1.574320
  0
SEQEND
  8
0
  0
SOLID
  8
0
 62
    15
 10
4.629680
 20
1.516680
 11
5.267680
 21
1.887600
 12
4.585240
 22
1.472240
 13
5.223680
 23
1.842720
  0
POLYLINE
  8
0
  6
CONTINUOUS
 66
     1
 40
0.000000
 41
0.000000
  0
VERTEX
  8
0
  6
CONTINUOUS
 10
4.629680
 20
1.516680
  0
VERTEX
  8
0
  6
CONTINUOUS
 10
5.267680
 20
1.887600
  0
VERTEX
  8
0
  6
CONTINUOUS
 10
5.223680
 20
1.842720
  0
VERTEX
  8
0
  6
CONTINUOUS
 10
4.585240
 20
1.472240
  0
VERTEX
  8
0
  6
CONTINUOUS
 10
4.629680
 20
1.516680
  0
SEQEND
  8
0
  0
SOLID
  8
0
 62
    15
 10
4.565000
 20
1.455960
 11
5.203440
 21
1.826440
 12
4.547400
 22
1.444080
 13
5.185840
 23
1.815000
  0
POLYLINE
  8
0
  6
CONTINUOUS
 66
     1
 40
0.000000
 41
0.000000
  0
VERTEX
  8
0
  6
CONTINUOUS
 10
4.565000
 20
1.455960
  0
VERTEX
  8
0
  6
CONTINUOUS
 10
5.203440
 20
1.826440
  0
VERTEX
  8
0
  6
CONTINUOUS
 10
5.185840
 20
1.815000
  0
VERTEX
  8
0
  6
CONTINUOUS
 10
4.547400
 20
1.444080
  0
VERTEX
  8
0
  6
CONTINUOUS
 10
4.565000
 20
1.455960
  0
SEQEND
  8
0
  0
SOLID
  8
0
 62
    15
 10
4.585240
 20
1.472240
 11
5.223680
 21
1.842720
 12
4.565000
 22
1.455960
 13
5.203440
 23
1.826440
  0
POLYLINE
  8
0
  6
CONTINUOUS
 66
     1
 40
0.000000
 41
0.000000
  0
VERTEX
  8
0
  6
CONTINUOUS
 10
4.585240
 20
1.472240
  0
VERTEX
  8
0
  6
CONTINUOUS
 10
5.223680
 20
1.842720
  0
VERTEX
  8
0
  6
CONTINUOUS
 10
5.203440
 20
1.826440
  0
VERTEX
  8
0
  6
CONTINUOUS
 10
4.565000
 20
1.455960
  0
VERTEX
  8
0
  6
CONTINUOUS
 10
4.585240
 20
1.472240
  0
SEQEND
  8
0
  0
SOLID
  8
0
 62
    15
 10
4.794240
 20
2.518560
 11
5.432240
 21
2.889040
 12
4.747160
 22
2.483800
 13
5.385600
 23
2.854280
  0
POLYLINE
  8
0
  6
CONTINUOUS
 66
     1
 40
0.000000
 41
0.000000
  0
VERTEX
  8
0
  6
CONTINUOUS
 10
4.794240
 20
2.518560
  0
VERTEX
  8
0
  6
CONTINUOUS
 10
5.432240
 20
2.889040
  0
VERTEX
  8
0
  6
CONTINUOUS
 10
5.385600
 20
2.854280
  0
VERTEX
  8
0
  6
CONTINUOUS
 10
4.747160
 20
2.483800
  0
VERTEX
  8
0
  6
CONTINUOUS
 10
4.794240
 20
2.518560
  0
SEQEND
  8
0
  0
SOLID
  8
0
 62
    15
 10
4.371840
 20
1.360040
 11
5.010280
 21
1.730960
 12
4.326960
 22
1.327480
 13
4.964960
 23
1.697960
  0
POLYLINE
  8
0
  6
CONTINUOUS
 66
     1
 40
0.000000
 41
0.000000
  0
VERTEX
  8
0
  6
CONTINUOUS
 10
4.371840
 20
1.360040
  0
VERTEX
  8
0
  6
CONTINUOUS
 10
5.010280
 20
1.730960
  0
VERTEX
  8
0
  6
CONTINUOUS
 10
4.964960
 20
1.697960
  0
VERTEX
  8
0
  6
CONTINUOUS
 10
4.326960
 20
1.327480
  0
VERTEX
  8
0
  6
CONTINUOUS
 10
4.371840
 20
1.360040
  0
SEQEND
  8
0
  0
SOLID
  8
0
 62
    15
 10
4.287800
 20
1.285680
 11
4.925800
 21
1.656600
 12
4.271080
 22
1.261040
 13
4.909520
 23
1.631960
  0
POLYLINE
  8
0
  6
CONTINUOUS
 66
     1
 40
0.000000
 41
0.000000
  0
VERTEX
  8
0
  6
CONTINUOUS
 10
4.287800
 20
1.285680
  0
VERTEX
  8
0
  6
CONTINUOUS
 10
4.925800
 20
1.656600
  0
VERTEX
  8
0
  6
CONTINUOUS
 10
4.909520
 20
1.631960
  0
VERTEX
  8
0
  6
CONTINUOUS
 10
4.271080
 20
1.261040
  0
VERTEX
  8
0
  6
CONTINUOUS
 10
4.287800
 20
1.285680
  0
SEQEND
  8
0
  0
SOLID
  8
0
 62
    15
 10
4.271080
 20
1.261040
 11
4.909520
 21
1.631960
 12
4.257880
 22
1.233320
 13
4.896320
 23
1.604240
  0
POLYLINE
  8
0
  6
CONTINUOUS
 66
     1
 40
0.000000
 41
0.000000
  0
VERTEX
  8
0
  6
CONTINUOUS
 10
4.271080
 20
1.261040
  0
VERTEX
  8
0
  6
CONTINUOUS
 10
4.909520
 20
1.631960
  0
VERTEX
  8
0
  6
CONTINUOUS
 10
4.896320
 20
1.604240
  0
VERTEX
  8
0
  6
CONTINUOUS
 10
4.257880
 20
1.233320
  0
VERTEX
  8
0
  6
CONTINUOUS
 10
4.271080
 20
1.261040
  0
SEQEND
  8
0
  0
SOLID
  8
0
 62
    15
 10
4.257880
 20
1.233320
 11
4.896320
 21
1.604240
 12
4.247760
 22
1.202520
 13
4.885760
 23
1.573000
  0
POLYLINE
  8
0
  6
CONTINUOUS
 66
     1
 40
0.000000
 41
0.000000
  0
VERTEX
  8
0
  6
CONTINUOUS
 10
4.257880
 20
1.233320
  0
VERTEX
  8
0
  6
CONTINUOUS
 10
4.896320
 20
1.604240
  0
VERTEX
  8
0
  6
CONTINUOUS
 10
4.885760
 20
1.573000
  0
VERTEX
  8
0
  6
CONTINUOUS
 10
4.247760
 20
1.202520
  0
VERTEX
  8
0
  6
CONTINUOUS
 10
4.257880
 20
1.233320
  0
SEQEND
  8
0
  0
SOLID
  8
0
 62
    15
 10
4.247760
 20
1.202520
 11
4.885760
 21
1.573000
 12
4.240720
 22
1.168200
 13
4.879160
 23
1.538680
  0
POLYLINE
  8
0
  6
CONTINUOUS
 66
     1
 40
0.000000
 41
0.000000
  0
VERTEX
  8
0
  6
CONTINUOUS
 10
4.247760
 20
1.202520
  0
VERTEX
  8
0
  6
CONTINUOUS
 10
4.885760
 20
1.573000
  0
VERTEX
  8
0
  6
CONTINUOUS
 10
4.879160
 20
1.538680
  0
VERTEX
  8
0
  6
CONTINUOUS
 10
4.240720
 20
1.168200
  0
VERTEX
  8
0
  6
CONTINUOUS
 10
4.247760
 20
1.202520
  0
SEQEND
  8
0
  0
SOLID
  8
0
 62
    15
 10
4.240720
 20
1.168200
 11
4.879160
 21
1.538680
 12
4.246440
 22
1.151920
 13
4.884440
 23
1.522400
  0
POLYLINE
  8
0
  6
CONTINUOUS
 66
     1
 40
0.000000
 41
0.000000
  0
VERTEX
  8
0
  6
CONTINUOUS
 10
4.240720
 20
1.168200
  0
VERTEX
  8
0
  6
CONTINUOUS
 10
4.879160
 20
1.538680
  0
VERTEX
  8
0
  6
CONTINUOUS
 10
4.884440
 20
1.522400
  0
VERTEX
  8
0
  6
CONTINUOUS
 10
4.246440
 20
1.151920
  0
VERTEX
  8
0
  6
CONTINUOUS
 10
4.240720
 20
1.168200
  0
SEQEND
  8
0
  0
SOLID
  8
0
 62
    15
 10
4.246440
 20
1.151920
 11
4.884440
 21
1.522400
 12
4.255240
 22
1.138720
 13
4.893240
 23
1.509640
  0
POLYLINE
  8
0
  6
CONTINUOUS
 66
     1
 40
0.000000
 41
0.000000
  0
VERTEX
  8
0
  6
CONTINUOUS
 10
4.246440
 20
1.151920
  0
VERTEX
  8
0
  6
CONTINUOUS
 10
4.884440
 20
1.522400
  0
VERTEX
  8
0
  6
CONTINUOUS
 10
4.893240
 20
1.509640
  0
VERTEX
  8
0
  6
CONTINUOUS
 10
4.255240
 20
1.138720
  0
VERTEX
  8
0
  6
CONTINUOUS
 10
4.246440
 20
1.151920
  0
SEQEND
  8
0
  0
SOLID
  8
0
 62
    15
 10
4.255240
 20
1.138720
 11
4.893240
 21
1.509640
 12
4.281200
 22
1.119360
 13
4.919200
 23
1.490280
  0
POLYLINE
  8
0
  6
CONTINUOUS
 66
     1
 40
0.000000
 41
0.000000
  0
VERTEX
  8
0
  6
CONTINUOUS
 10
4.255240
 20
1.138720
  0
VERTEX
  8
0
  6
CONTINUOUS
 10
4.893240
 20
1.509640
  0
VERTEX
  8
0
  6
CONTINUOUS
 10
4.919200
 20
1.490280
  0
VERTEX
  8
0
  6
CONTINUOUS
 10
4.281200
 20
1.119360
  0
VERTEX
  8
0
  6
CONTINUOUS
 10
4.255240
 20
1.138720
  0
SEQEND
  8
0
  0
SOLID
  8
0
 62
    15
 10
4.281200
 20
1.119360
 11
4.919200
 21
1.490280
 12
4.315080
 22
1.103080
 13
4.953520
 23
1.474000
  0
POLYLINE
  8
0
  6
CONTINUOUS
 66
     1
 40
0.000000
 41
0.000000
  0
VERTEX
  8
0
  6
CONTINUOUS
 10
4.281200
 20
1.119360
  0
VERTEX
  8
0
  6
CONTINUOUS
 10
4.919200
 20
1.490280
  0
VERTEX
  8
0
  6
CONTINUOUS
 10
4.953520
 20
1.474000
  0
VERTEX
  8
0
  6
CONTINUOUS
 10
4.315080
 20
1.103080
  0
VERTEX
  8
0
  6
CONTINUOUS
 10
4.281200
 20
1.119360
  0
SEQEND
  8
0
  0
SOLID
  8
0
 62
    15
 10
4.315080
 20
1.103080
 11
4.953520
 21
1.474000
 12
4.354240
 22
1.083280
 13
4.992240
 23
1.453760
  0
POLYLINE
  8
0
  6
CONTINUOUS
 66
     1
 40
0.000000
 41
0.000000
  0
VERTEX
  8
0
  6
CONTINUOUS
 10
4.315080
 20
1.103080
  0
VERTEX
  8
0
  6
CONTINUOUS
 10
4.953520
 20
1.474000
  0
VERTEX
  8
0
  6
CONTINUOUS
 10
4.992240
 20
1.453760
  0
VERTEX
  8
0
  6
CONTINUOUS
 10
4.354240
 20
1.083280
  0
VERTEX
  8
0
  6
CONTINUOUS
 10
4.315080
 20
1.103080
  0
SEQEND
  8
0
  0
SOLID
  8
0
 62
    15
 10
4.354240
 20
1.083280
 11
4.992240
 21
1.453760
 12
4.363920
 22
1.074920
 13
5.001920
 23
1.445840
  0
POLYLINE
  8
0
  6
CONTINUOUS
 66
     1
 40
0.000000
 41
0.000000
  0
VERTEX
  8
0
  6
CONTINUOUS
 10
4.354240
 20
1.083280
  0
VERTEX
  8
0
  6
CONTINUOUS
 10
4.992240
 20
1.453760
  0
VERTEX
  8
0
  6
CONTINUOUS
 10
5.001920
 20
1.445840
  0
VERTEX
  8
0
  6
CONTINUOUS
 10
4.363920
 20
1.074920
  0
VERTEX
  8
0
  6
CONTINUOUS
 10
4.354240
 20
1.083280
  0
SEQEND
  8
0
  0
SOLID
  8
0
 62
    15
 10
4.363920
 20
1.074920
 11
5.001920
 21
1.445840
 12
4.372720
 22
1.062600
 13
5.011160
 23
1.433080
  0
POLYLINE
  8
0
  6
CONTINUOUS
 66
     1
 40
0.000000
 41
0.000000
  0
VERTEX
  8
0
  6
CONTINUOUS
 10
4.363920
 20
1.074920
  0
VERTEX
  8
0
  6
CONTINUOUS
 10
5.001920
 20
1.445840
  0
VERTEX
  8
0
  6
CONTINUOUS
 10
5.011160
 20
1.433080
  0
VERTEX
  8
0
  6
CONTINUOUS
 10
4.372720
 20
1.062600
  0
VERTEX
  8
0
  6
CONTINUOUS
 10
4.363920
 20
1.074920
  0
SEQEND
  8
0
  0
SOLID
  8
0
 62
    15
 10
4.372720
 20
1.062600
 11
5.011160
 21
1.433080
 12
4.387240
 22
1.027400
 13
5.025240
 23
1.397880
  0
POLYLINE
  8
0
  6
CONTINUOUS
 66
     1
 40
0.000000
 41
0.000000
  0
VERTEX
  8
0
  6
CONTINUOUS
 10
4.372720
 20
1.062600
  0
VERTEX
  8
0
  6
CONTINUOUS
 10
5.011160
 20
1.433080
  0
VERTEX
  8
0
  6
CONTINUOUS
 10
5.025240
 20
1.397880
  0
VERTEX
  8
0
  6
CONTINUOUS
 10
4.387240
 20
1.027400
  0
VERTEX
  8
0
  6
CONTINUOUS
 10
4.372720
 20
1.062600
  0
SEQEND
  8
0
  0
SOLID
  8
0
 62
    15
 10
4.387240
 20
1.027400
 11
5.025240
 21
1.397880
 12
4.393840
 22
0.982960
 13
5.032280
 23
1.353440
  0
POLYLINE
  8
0
  6
CONTINUOUS
 66
     1
 40
0.000000
 41
0.000000
  0
VERTEX
  8
0
  6
CONTINUOUS
 10
4.387240
 20
1.027400
  0
VERTEX
  8
0
  6
CONTINUOUS
 10
5.025240
 20
1.397880
  0
VERTEX
  8
0
  6
CONTINUOUS
 10
5.032280
 20
1.353440
  0
VERTEX
  8
0
  6
CONTINUOUS
 10
4.393840
 20
0.982960
  0
VERTEX
  8
0
  6
CONTINUOUS
 10
4.387240
 20
1.027400
  0
SEQEND
  8
0
  0
SOLID
  8
0
 62
    15
 10
4.393840
 20
0.982960
 11
5.032280
 21
1.353440
 12
4.390760
 22
0.933680
 13
5.029200
 23
1.304160
  0
POLYLINE
  8
0
  6
CONTINUOUS
 66
     1
 40
0.000000
 41
0.000000
  0
VERTEX
  8
0
  6
CONTINUOUS
 10
4.393840
 20
0.982960
  0
VERTEX
  8
0
  6
CONTINUOUS
 10
5.032280
 20
1.353440
  0
VERTEX
  8
0
  6
CONTINUOUS
 10
5.029200
 20
1.304160
  0
VERTEX
  8
0
  6
CONTINUOUS
 10
4.390760
 20
0.933680
  0
VERTEX
  8
0
  6
CONTINUOUS
 10
4.393840
 20
0.982960
  0
SEQEND
  8
0
  0
SOLID
  8
0
 62
    15
 10
4.390760
 20
0.933680
 11
5.029200
 21
1.304160
 12
4.374480
 22
0.884840
 13
5.012920
 23
1.255760
  0
POLYLINE
  8
0
  6
CONTINUOUS
 66
     1
 40
0.000000
 41
0.000000
  0
VERTEX
  8
0
  6
CONTINUOUS
 10
4.390760
 20
0.933680
  0
VERTEX
  8
0
  6
CONTINUOUS
 10
5.029200
 20
1.304160
  0
VERTEX
  8
0
  6
CONTINUOUS
 10
5.012920
 20
1.255760
  0
VERTEX
  8
0
  6
CONTINUOUS
 10
4.374480
 20
0.884840
  0
VERTEX
  8
0
  6
CONTINUOUS
 10
4.390760
 20
0.933680
  0
SEQEND
  8
0
  0
SOLID
  8
0
 62
    15
 10
4.220040
 20
0.788920
 11
4.858480
 21
1.159840
 12
4.220040
 22
0.656040
 13
4.858480
 23
1.026960
  0
POLYLINE
  8
0
  6
CONTINUOUS
 66
     1
 40
0.000000
 41
0.000000
  0
VERTEX
  8
0
  6
CONTINUOUS
 10
4.220040
 20
0.788920
  0
VERTEX
  8
0
  6
CONTINUOUS
 10
4.858480
 20
1.159840
  0
VERTEX
  8
0
  6
CONTINUOUS
 10
4.858480
 20
1.026960
  0
VERTEX
  8
0
  6
CONTINUOUS
 10
4.220040
 20
0.656040
  0
VERTEX
  8
0
  6
CONTINUOUS
 10
4.220040
 20
0.788920
  0
SEQEND
  8
0
  0
SOLID
  8
0
 62
    15
 10
4.342360
 20
0.841280
 11
4.980800
 21
1.211760
 12
4.319480
 22
0.822800
 13
4.957920
 23
1.193720
  0
POLYLINE
  8
0
  6
CONTINUOUS
 66
     1
 40
0.000000
 41
0.000000
  0
VERTEX
  8
0
  6
CONTINUOUS
 10
4.342360
 20
0.841280
  0
VERTEX
  8
0
  6
CONTINUOUS
 10
4.980800
 20
1.211760
  0
VERTEX
  8
0
  6
CONTINUOUS
 10
4.957920
 20
1.193720
  0
VERTEX
  8
0
  6
CONTINUOUS
 10
4.319480
 20
0.822800
  0
VERTEX
  8
0
  6
CONTINUOUS
 10
4.342360
 20
0.841280
  0
SEQEND
  8
0
  0
SOLID
  8
0
 62
    15
 10
4.360400
 20
0.862400
 11
4.998840
 21
1.232880
 12
4.342360
 22
0.841280
 13
4.980800
 23
1.211760
  0
POLYLINE
  8
0
  6
CONTINUOUS
 66
     1
 40
0.000000
 41
0.000000
  0
VERTEX
  8
0
  6
CONTINUOUS
 10
4.360400
 20
0.862400
  0
VERTEX
  8
0
  6
CONTINUOUS
 10
4.998840
 20
1.232880
  0
VERTEX
  8
0
  6
CONTINUOUS
 10
4.980800
 20
1.211760
  0
VERTEX
  8
0
  6
CONTINUOUS
 10
4.342360
 20
0.841280
  0
VERTEX
  8
0
  6
CONTINUOUS
 10
4.360400
 20
0.862400
  0
SEQEND
  8
0
  0
SOLID
  8
0
 62
    15
 10
4.374480
 20
0.884840
 11
5.012920
 21
1.255760
 12
4.360400
 22
0.862400
 13
4.998840
 23
1.232880
  0
POLYLINE
  8
0
  6
CONTINUOUS
 66
     1
 40
0.000000
 41
0.000000
  0
VERTEX
  8
0
  6
CONTINUOUS
 10
4.374480
 20
0.884840
  0
VERTEX
  8
0
  6
CONTINUOUS
 10
5.012920
 20
1.255760
  0
VERTEX
  8
0
  6
CONTINUOUS
 10
4.998840
 20
1.232880
  0
VERTEX
  8
0
  6
CONTINUOUS
 10
4.360400
 20
0.862400
  0
VERTEX
  8
0
  6
CONTINUOUS
 10
4.374480
 20
0.884840
  0
SEQEND
  8
0
  0
SOLID
  8
0
 62
    15
 10
3.996960
 20
4.331800
 11
4.635400
 21
4.702280
 12
4.794680
 22
4.331800
 13
5.433120
 23
4.702280
  0
POLYLINE
  8
0
  6
CONTINUOUS
 66
     1
 40
0.000000
 41
0.000000
  0
VERTEX
  8
0
  6
CONTINUOUS
 10
3.996960
 20
4.331800
  0
VERTEX
  8
0
  6
CONTINUOUS
 10
4.635400
 20
4.702280
  0
VERTEX
  8
0
  6
CONTINUOUS
 10
5.433120
 20
4.702280
  0
VERTEX
  8
0
  6
CONTINUOUS
 10
4.794680
 20
4.331800
  0
VERTEX
  8
0
  6
CONTINUOUS
 10
3.996960
 20
4.331800
  0
SEQEND
  8
0
  0
SOLID
  8
0
 62
    15
 10
4.794680
 20
4.331800
 11
5.433120
 21
4.702280
 12
4.794240
 22
2.518560
 13
5.432240
 23
2.889040
  0
POLYLINE
  8
0
  6
CONTINUOUS
 66
     1
 40
0.000000
 41
0.000000
  0
VERTEX
  8
0
  6
CONTINUOUS
 10
4.794680
 20
4.331800
  0
VERTEX
  8
0
  6
CONTINUOUS
 10
5.433120
 20
4.702280
  0
VERTEX
  8
0
  6
CONTINUOUS
 10
5.432240
 20
2.889040
  0
VERTEX
  8
0
  6
CONTINUOUS
 10
4.794240
 20
2.518560
  0
VERTEX
  8
0
  6
CONTINUOUS
 10
4.794680
 20
4.331800
  0
SEQEND
  8
0
  0
POLYLINE
  8
0
  6
CONTINUOUS
 66
     1
 40
0.000000
 41
0.000000
  0
VERTEX
  8
0
  6
CONTINUOUS
 10
4.794240
 20
2.518560
  0
VERTEX
  8
0
  6
CONTINUOUS
 10
4.747160
 20
2.483800
  0
VERTEX
  8
0
  6
CONTINUOUS
 10
4.724280
 20
2.462240
  0
VERTEX
  8
0
  6
CONTINUOUS
 10
4.702720
 20
2.435840
  0
VERTEX
  8
0
  6
CONTINUOUS
 10
4.682920
 20
2.404160
  0
VERTEX
  8
0
  6
CONTINUOUS
 10
4.665760
 20
2.366320
  0
VERTEX
  8
0
  6
CONTINUOUS
 10
4.651680
 20
2.320560
  0
VERTEX
  8
0
  6
CONTINUOUS
 10
4.641560
 20
2.266880
  0
VERTEX
  8
0
  6
CONTINUOUS
 10
4.641560
 20
2.009480
  0
VERTEX
  8
0
  6
CONTINUOUS
 10
4.512640
 20
2.009480
  0
VERTEX
  8
0
  6
CONTINUOUS
 10
4.512640
 20
1.919720
  0
VERTEX
  8
0
  6
CONTINUOUS
 10
4.574680
 20
1.888480
  0
VERTEX
  8
0
  6
CONTINUOUS
 10
4.623080
 20
1.855480
  0
VERTEX
  8
0
  6
CONTINUOUS
 10
4.659600
 20
1.821160
  0
VERTEX
  8
0
  6
CONTINUOUS
 10
4.685120
 20
1.785520
  0
VERTEX
  8
0
  6
CONTINUOUS
 10
4.700960
 20
1.749000
  0
VERTEX
  8
0
  6
CONTINUOUS
 10
4.707560
 20
1.712480
  0
VERTEX
  8
0
  6
CONTINUOUS
 10
4.707120
 20
1.676400
  0
VERTEX
  8
0
  6
CONTINUOUS
 10
4.699640
 20
1.640760
  0
VERTEX
  8
0
  6
CONTINUOUS
 10
4.687320
 20
1.606880
  0
VERTEX
  8
0
  6
CONTINUOUS
 10
4.670600
 20
1.574320
  0
VERTEX
  8
0
  6
CONTINUOUS
 10
4.629680
 20
1.516680
  0
VERTEX
  8
0
  6
CONTINUOUS
 10
4.585240
 20
1.472240
  0
VERTEX
  8
0
  6
CONTINUOUS
 10
4.565000
 20
1.455960
  0
VERTEX
  8
0
  6
CONTINUOUS
 10
4.547400
 20
1.444080
  0
VERTEX
  8
0
  6
CONTINUOUS
 10
4.511320
 20
1.426040
  0
VERTEX
  8
0
  6
CONTINUOUS
 10
4.420240
 20
1.386440
  0
VERTEX
  8
0
  6
CONTINUOUS
 10
4.371840
 20
1.360040
  0
VERTEX
  8
0
  6
CONTINUOUS
 10
4.326960
 20
1.327480
  0
VERTEX
  8
0
  6
CONTINUOUS
 10
4.287800
 20
1.285680
  0
VERTEX
  8
0
  6
CONTINUOUS
 10
4.271080
 20
1.261040
  0
VERTEX
  8
0
  6
CONTINUOUS
 10
4.257880
 20
1.233320
  0
VERTEX
  8
0
  6
CONTINUOUS
 10
4.247760
 20
1.202520
  0
VERTEX
  8
0
  6
CONTINUOUS
 10
4.240720
 20
1.168200
  0
VERTEX
  8
0
  6
CONTINUOUS
 10
4.246440
 20
1.151920
  0
VERTEX
  8
0
  6
CONTINUOUS
 10
4.255240
 20
1.138720
  0
VERTEX
  8
0
  6
CONTINUOUS
 10
4.281200
 20
1.119360
  0
VERTEX
  8
0
  6
CONTINUOUS
 10
4.354240
 20
1.083280
  0
VERTEX
  8
0
  6
CONTINUOUS
 10
4.363920
 20
1.074920
  0
VERTEX
  8
0
  6
CONTINUOUS
 10
4.372720
 20
1.062600
  0
VERTEX
  8
0
  6
CONTINUOUS
 10
4.387240
 20
1.027400
  0
VERTEX
  8
0
  6
CONTINUOUS
 10
4.393840
 20
0.982960
  0
VERTEX
  8
0
  6
CONTINUOUS
 10
4.390760
 20
0.933680
  0
VERTEX
  8
0
  6
CONTINUOUS
 10
4.374480
 20
0.884840
  0
VERTEX
  8
0
  6
CONTINUOUS
 10
4.360400
 20
0.862400
  0
VERTEX
  8
0
  6
CONTINUOUS
 10
4.342360
 20
0.841280
  0
VERTEX
  8
0
  6
CONTINUOUS
 10
4.319480
 20
0.822800
  0
VERTEX
  8
0
  6
CONTINUOUS
 10
4.291760
 20
0.807840
  0
VERTEX
  8
0
  6
CONTINUOUS
 10
4.258760
 20
0.796400
  0
VERTEX
  8
0
  6
CONTINUOUS
 10
4.220040
 20
0.788920
  0
VERTEX
  8
0
  6
CONTINUOUS
 10
4.220040
 20
0.656040
  0
VERTEX
  8
0
  6
CONTINUOUS
 10
3.996960
 20
0.656040
  0
VERTEX
  8
0
  6
CONTINUOUS
 10
3.996960
 20
4.331800
  0
VERTEX
  8
0
  6
CONTINUOUS
 10
4.794680
 20
4.331800
  0
VERTEX
  8
0
  6
CONTINUOUS
 10
4.794240
 20
2.518560
  0
SEQEND
  8
0
  0
SOLID
  8
0
 62
    15
 10
5.257120
 20
3.153480
 11
5.903920
 21
3.539360
 12
5.240400
 22
3.109920
 13
5.887200
 23
3.495360
  0
POLYLINE
  8
0
  6
CONTINUOUS
 66
     1
 40
0.000000
 41
0.000000
  0
VERTEX
  8
0
  6
CONTINUOUS
 10
5.257120
 20
3.153480
  0
VERTEX
  8
0
  6
CONTINUOUS
 10
5.903920
 20
3.539360
  0
VERTEX
  8
0
  6
CONTINUOUS
 10
5.887200
 20
3.495360
  0
VERTEX
  8
0
  6
CONTINUOUS
 10
5.240400
 20
3.109920
  0
VERTEX
  8
0
  6
CONTINUOUS
 10
5.257120
 20
3.153480
  0
SEQEND
  8
0
  0
SOLID
  8
0
 62
    15
 10
5.347760
 20
3.781800
 11
5.994560
 21
4.167680
 12
5.331040
 22
3.766400
 13
5.977840
 23
4.151840
  0
POLYLINE
  8
0
  6
CONTINUOUS
 66
     1
 40
0.000000
 41
0.000000
  0
VERTEX
  8
0
  6
CONTINUOUS
 10
5.347760
 20
3.781800
  0
VERTEX
  8
0
  6
CONTINUOUS
 10
5.994560
 20
4.167680
  0
VERTEX
  8
0
  6
CONTINUOUS
 10
5.977840
 20
4.151840
  0
VERTEX
  8
0
  6
CONTINUOUS
 10
5.331040
 20
3.766400
  0
VERTEX
  8
0
  6
CONTINUOUS
 10
5.347760
 20
3.781800
  0
SEQEND
  8
0
  0
SOLID
  8
0
 62
    15
 10
5.331040
 20
3.766400
 11
5.977840
 21
4.151840
 12
5.318720
 22
3.744400
 13
5.965520
 23
4.129840
  0
POLYLINE
  8
0
  6
CONTINUOUS
 66
     1
 40
0.000000
 41
0.000000
  0
VERTEX
  8
0
  6
CONTINUOUS
 10
5.331040
 20
3.766400
  0
VERTEX
  8
0
  6
CONTINUOUS
 10
5.977840
 20
4.151840
  0
VERTEX
  8
0
  6
CONTINUOUS
 10
5.965520
 20
4.129840
  0
VERTEX
  8
0
  6
CONTINUOUS
 10
5.318720
 20
3.744400
  0
VERTEX
  8
0
  6
CONTINUOUS
 10
5.331040
 20
3.766400
  0
SEQEND
  8
0
  0
SOLID
  8
0
 62
    15
 10
5.318720
 20
3.744400
 11
5.965520
 21
4.129840
 12
5.309920
 22
3.714920
 13
5.956720
 23
4.100800
  0
POLYLINE
  8
0
  6
CONTINUOUS
 66
     1
 40
0.000000
 41
0.000000
  0
VERTEX
  8
0
  6
CONTINUOUS
 10
5.318720
 20
3.744400
  0
VERTEX
  8
0
  6
CONTINUOUS
 10
5.965520
 20
4.129840
  0
VERTEX
  8
0
  6
CONTINUOUS
 10
5.956720
 20
4.100800
  0
VERTEX
  8
0
  6
CONTINUOUS
 10
5.309920
 20
3.714920
  0
VERTEX
  8
0
  6
CONTINUOUS
 10
5.318720
 20
3.744400
  0
SEQEND
  8
0
  0
SOLID
  8
0
 62
    15
 10
5.428720
 20
4.315960
 11
6.075960
 21
4.701840
 12
5.428720
 22
3.805560
 13
6.075960
 23
4.191000
  0
POLYLINE
  8
0
  6
CONTINUOUS
 66
     1
 40
0.000000
 41
0.000000
  0
VERTEX
  8
0
  6
CONTINUOUS
 10
5.428720
 20
4.315960
  0
VERTEX
  8
0
  6
CONTINUOUS
 10
6.075960
 20
4.701840
  0
VERTEX
  8
0
  6
CONTINUOUS
 10
6.075960
 20
4.191000
  0
VERTEX
  8
0
  6
CONTINUOUS
 10
5.428720
 20
3.805560
  0
VERTEX
  8
0
  6
CONTINUOUS
 10
5.428720
 20
4.315960
  0
SEQEND
  8
0
  0
SOLID
  8
0
 62
    15
 10
5.309920
 20
3.714920
 11
5.956720
 21
4.100800
 12
5.304640
 22
3.677080
 13
5.951440
 23
4.062520
  0
POLYLINE
  8
0
  6
CONTINUOUS
 66
     1
 40
0.000000
 41
0.000000
  0
VERTEX
  8
0
  6
CONTINUOUS
 10
5.309920
 20
3.714920
  0
VERTEX
  8
0
  6
CONTINUOUS
 10
5.956720
 20
4.100800
  0
VERTEX
  8
0
  6
CONTINUOUS
 10
5.951440
 20
4.062520
  0
VERTEX
  8
0
  6
CONTINUOUS
 10
5.304640
 20
3.677080
  0
VERTEX
  8
0
  6
CONTINUOUS
 10
5.309920
 20
3.714920
  0
SEQEND
  8
0
  0
SOLID
  8
0
 62
    15
 10
5.304640
 20
3.677080
 11
5.951440
 21
4.062520
 12
5.302000
 22
3.628680
 13
5.948800
 23
4.014560
  0
POLYLINE
  8
0
  6
CONTINUOUS
 66
     1
 40
0.000000
 41
0.000000
  0
VERTEX
  8
0
  6
CONTINUOUS
 10
5.304640
 20
3.677080
  0
VERTEX
  8
0
  6
CONTINUOUS
 10
5.951440
 20
4.062520
  0
VERTEX
  8
0
  6
CONTINUOUS
 10
5.948800
 20
4.014560
  0
VERTEX
  8
0
  6
CONTINUOUS
 10
5.302000
 20
3.628680
  0
VERTEX
  8
0
  6
CONTINUOUS
 10
5.304640
 20
3.677080
  0
SEQEND
  8
0
  0
SOLID
  8
0
 62
    15
 10
5.199480
 20
3.365560
 11
5.846720
 21
3.751440
 12
5.199920
 22
3.353680
 13
5.846720
 23
3.739560
  0
POLYLINE
  8
0
  6
CONTINUOUS
 66
     1
 40
0.000000
 41
0.000000
  0
VERTEX
  8
0
  6
CONTINUOUS
 10
5.199480
 20
3.365560
  0
VERTEX
  8
0
  6
CONTINUOUS
 10
5.846720
 20
3.751440
  0
VERTEX
  8
0
  6
CONTINUOUS
 10
5.846720
 20
3.739560
  0
VERTEX
  8
0
  6
CONTINUOUS
 10
5.199920
 20
3.353680
  0
VERTEX
  8
0
  6
CONTINUOUS
 10
5.199480
 20
3.365560
  0
SEQEND
  8
0
  0
SOLID
  8
0
 62
     7
 10
5.199920
 20
3.353680
 11
5.846720
 21
3.739560
 12
5.222360
 22
3.329480
 13
5.869160
 23
3.714920
  0
POLYLINE
  8
0
  6
CONTINUOUS
 66
     1
 40
0.000000
 41
0.000000
  0
VERTEX
  8
0
  6
CONTINUOUS
 10
5.199920
 20
3.353680
  0
VERTEX
  8
0
  6
CONTINUOUS
 10
5.846720
 20
3.739560
  0
VERTEX
  8
0
  6
CONTINUOUS
 10
5.869160
 20
3.714920
  0
VERTEX
  8
0
  6
CONTINUOUS
 10
5.222360
 20
3.329480
  0
VERTEX
  8
0
  6
CONTINUOUS
 10
5.199920
 20
3.353680
  0
SEQEND
  8
0
  0
SOLID
  8
0
 62
     7
 10
5.222360
 20
3.329480
 11
5.869160
 21
3.714920
 12
5.239520
 22
3.304400
 13
5.886320
 23
3.689840
  0
POLYLINE
  8
0
  6
CONTINUOUS
 66
     1
 40
0.000000
 41
0.000000
  0
VERTEX
  8
0
  6
CONTINUOUS
 10
5.222360
 20
3.329480
  0
VERTEX
  8
0
  6
CONTINUOUS
 10
5.869160
 20
3.714920
  0
VERTEX
  8
0
  6
CONTINUOUS
 10
5.886320
 20
3.689840
  0
VERTEX
  8
0
  6
CONTINUOUS
 10
5.239520
 20
3.304400
  0
VERTEX
  8
0
  6
CONTINUOUS
 10
5.222360
 20
3.329480
  0
SEQEND
  8
0
  0
SOLID
  8
0
 62
    15
 10
5.302000
 20
3.628680
 11
5.948800
 21
4.014560
 12
5.302000
 22
3.365560
 13
5.948800
 23
3.751440
  0
POLYLINE
  8
0
  6
CONTINUOUS
 66
     1
 40
0.000000
 41
0.000000
  0
VERTEX
  8
0
  6
CONTINUOUS
 10
5.302000
 20
3.628680
  0
VERTEX
  8
0
  6
CONTINUOUS
 10
5.948800
 20
4.014560
  0
VERTEX
  8
0
  6
CONTINUOUS
 10
5.948800
 20
3.751440
  0
VERTEX
  8
0
  6
CONTINUOUS
 10
5.302000
 20
3.365560
  0
VERTEX
  8
0
  6
CONTINUOUS
 10
5.302000
 20
3.628680
  0
SEQEND
  8
0
  0
SOLID
  8
0
 62
     7
 10
5.239520
 20
3.304400
 11
5.886320
 21
3.689840
 12
5.251840
 22
3.278880
 13
5.898640
 23
3.664320
  0
POLYLINE
  8
0
  6
CONTINUOUS
 66
     1
 40
0.000000
 41
0.000000
  0
VERTEX
  8
0
  6
CONTINUOUS
 10
5.239520
 20
3.304400
  0
VERTEX
  8
0
  6
CONTINUOUS
 10
5.886320
 20
3.689840
  0
VERTEX
  8
0
  6
CONTINUOUS
 10
5.898640
 20
3.664320
  0
VERTEX
  8
0
  6
CONTINUOUS
 10
5.251840
 20
3.278880
  0
VERTEX
  8
0
  6
CONTINUOUS
 10
5.239520
 20
3.304400
  0
SEQEND
  8
0
  0
SOLID
  8
0
 62
     7
 10
5.251840
 20
3.278880
 11
5.898640
 21
3.664320
 12
5.260200
 22
3.252920
 13
5.907000
 23
3.638800
  0
POLYLINE
  8
0
  6
CONTINUOUS
 66
     1
 40
0.000000
 41
0.000000
  0
VERTEX
  8
0
  6
CONTINUOUS
 10
5.251840
 20
3.278880
  0
VERTEX
  8
0
  6
CONTINUOUS
 10
5.898640
 20
3.664320
  0
VERTEX
  8
0
  6
CONTINUOUS
 10
5.907000
 20
3.638800
  0
VERTEX
  8
0
  6
CONTINUOUS
 10
5.260200
 20
3.252920
  0
VERTEX
  8
0
  6
CONTINUOUS
 10
5.251840
 20
3.278880
  0
SEQEND
  8
0
  0
SOLID
  8
0
 62
    15
 10
5.260200
 20
3.252920
 11
5.907000
 21
3.638800
 12
5.264160
 22
3.227400
 13
5.910960
 23
3.612840
  0
POLYLINE
  8
0
  6
CONTINUOUS
 66
     1
 40
0.000000
 41
0.000000
  0
VERTEX
  8
0
  6
CONTINUOUS
 10
5.260200
 20
3.252920
  0
VERTEX
  8
0
  6
CONTINUOUS
 10
5.907000
 20
3.638800
  0
VERTEX
  8
0
  6
CONTINUOUS
 10
5.910960
 20
3.612840
  0
VERTEX
  8
0
  6
CONTINUOUS
 10
5.264160
 20
3.227400
  0
VERTEX
  8
0
  6
CONTINUOUS
 10
5.260200
 20
3.252920
  0
SEQEND
  8
0
  0
SOLID
  8
0
 62
    15
 10
5.264160
 20
3.227400
 11
5.910960
 21
3.612840
 12
5.264600
 22
3.201880
 13
5.911400
 23
3.587760
  0
POLYLINE
  8
0
  6
CONTINUOUS
 66
     1
 40
0.000000
 41
0.000000
  0
VERTEX
  8
0
  6
CONTINUOUS
 10
5.264160
 20
3.227400
  0
VERTEX
  8
0
  6
CONTINUOUS
 10
5.910960
 20
3.612840
  0
VERTEX
  8
0
  6
CONTINUOUS
 10
5.911400
 20
3.587760
  0
VERTEX
  8
0
  6
CONTINUOUS
 10
5.264600
 20
3.201880
  0
VERTEX
  8
0
  6
CONTINUOUS
 10
5.264160
 20
3.227400
  0
SEQEND
  8
0
  0
SOLID
  8
0
 62
    15
 10
5.264600
 20
3.201880
 11
5.911400
 21
3.587760
 12
5.257120
 22
3.153480
 13
5.903920
 23
3.539360
  0
POLYLINE
  8
0
  6
CONTINUOUS
 66
     1
 40
0.000000
 41
0.000000
  0
VERTEX
  8
0
  6
CONTINUOUS
 10
5.264600
 20
3.201880
  0
VERTEX
  8
0
  6
CONTINUOUS
 10
5.911400
 20
3.587760
  0
VERTEX
  8
0
  6
CONTINUOUS
 10
5.903920
 20
3.539360
  0
VERTEX
  8
0
  6
CONTINUOUS
 10
5.257120
 20
3.153480
  0
VERTEX
  8
0
  6
CONTINUOUS
 10
5.264600
 20
3.201880
  0
SEQEND
  8
0
  0
SOLID
  8
0
 62
    15
 10
4.792480
 20
4.315960
 11
5.439280
 21
4.701840
 12
5.428720
 22
4.315960
 13
6.075960
 23
4.701840
  0
POLYLINE
  8
0
  6
CONTINUOUS
 66
     1
 40
0.000000
 41
0.000000
  0
VERTEX
  8
0
  6
CONTINUOUS
 10
4.792480
 20
4.315960
  0
VERTEX
  8
0
  6
CONTINUOUS
 10
5.439280
 20
4.701840
  0
VERTEX
  8
0
  6
CONTINUOUS
 10
6.075960
 20
4.701840
  0
VERTEX
  8
0
  6
CONTINUOUS
 10
5.428720
 20
4.315960
  0
VERTEX
  8
0
  6
CONTINUOUS
 10
4.792480
 20
4.315960
  0
SEQEND
  8
0
  0
SOLID
  8
0
 62
    15
 10
5.240400
 20
3.109920
 11
5.887200
 21
3.495360
 12
5.218840
 22
3.073400
 13
5.865640
 23
3.458840
  0
POLYLINE
  8
0
  6
CONTINUOUS
 66
     1
 40
0.000000
 41
0.000000
  0
VERTEX
  8
0
  6
CONTINUOUS
 10
5.240400
 20
3.109920
  0
VERTEX
  8
0
  6
CONTINUOUS
 10
5.887200
 20
3.495360
  0
VERTEX
  8
0
  6
CONTINUOUS
 10
5.865640
 20
3.458840
  0
VERTEX
  8
0
  6
CONTINUOUS
 10
5.218840
 20
3.073400
  0
VERTEX
  8
0
  6
CONTINUOUS
 10
5.240400
 20
3.109920
  0
SEQEND
  8
0
  0
SOLID
  8
0
 62
    15
 10
5.127760
 20
3.009160
 11
5.774560
 21
3.395040
 12
5.103120
 22
2.992000
 13
5.749920
 23
3.377440
  0
POLYLINE
  8
0
  6
CONTINUOUS
 66
     1
 40
0.000000
 41
0.000000
  0
VERTEX
  8
0
  6
CONTINUOUS
 10
5.127760
 20
3.009160
  0
VERTEX
  8
0
  6
CONTINUOUS
 10
5.774560
 20
3.395040
  0
VERTEX
  8
0
  6
CONTINUOUS
 10
5.749920
 20
3.377440
  0
VERTEX
  8
0
  6
CONTINUOUS
 10
5.103120
 20
2.992000
  0
VERTEX
  8
0
  6
CONTINUOUS
 10
5.127760
 20
3.009160
  0
SEQEND
  8
0
  0
SOLID
  8
0
 62
    15
 10
5.103120
 20
2.992000
 11
5.749920
 21
3.377440
 12
5.078480
 22
2.965600
 13
5.725720
 23
3.351480
  0
POLYLINE
  8
0
  6
CONTINUOUS
 66
     1
 40
0.000000
 41
0.000000
  0
VERTEX
  8
0
  6
CONTINUOUS
 10
5.103120
 20
2.992000
  0
VERTEX
  8
0
  6
CONTINUOUS
 10
5.749920
 20
3.377440
  0
VERTEX
  8
0
  6
CONTINUOUS
 10
5.725720
 20
3.351480
  0
VERTEX
  8
0
  6
CONTINUOUS
 10
5.078480
 20
2.965600
  0
VERTEX
  8
0
  6
CONTINUOUS
 10
5.103120
 20
2.992000
  0
SEQEND
  8
0
  0
SOLID
  8
0
 62
    15
 10
5.183640
 20
3.036440
 11
5.830440
 21
3.422320
 12
5.173080
 22
3.030280
 13
5.819880
 23
3.415720
  0
POLYLINE
  8
0
  6
CONTINUOUS
 66
     1
 40
0.000000
 41
0.000000
  0
VERTEX
  8
0
  6
CONTINUOUS
 10
5.183640
 20
3.036440
  0
VERTEX
  8
0
  6
CONTINUOUS
 10
5.830440
 20
3.422320
  0
VERTEX
  8
0
  6
CONTINUOUS
 10
5.819880
 20
3.415720
  0
VERTEX
  8
0
  6
CONTINUOUS
 10
5.173080
 20
3.030280
  0
VERTEX
  8
0
  6
CONTINUOUS
 10
5.183640
 20
3.036440
  0
SEQEND
  8
0
  0
SOLID
  8
0
 62
    15
 10
5.218840
 20
3.073400
 11
5.865640
 21
3.458840
 12
5.195080
 22
3.046120
 13
5.841880
 23
3.431560
  0
POLYLINE
  8
0
  6
CONTINUOUS
 66
     1
 40
0.000000
 41
0.000000
  0
VERTEX
  8
0
  6
CONTINUOUS
 10
5.218840
 20
3.073400
  0
VERTEX
  8
0
  6
CONTINUOUS
 10
5.865640
 20
3.458840
  0
VERTEX
  8
0
  6
CONTINUOUS
 10
5.841880
 20
3.431560
  0
VERTEX
  8
0
  6
CONTINUOUS
 10
5.195080
 20
3.046120
  0
VERTEX
  8
0
  6
CONTINUOUS
 10
5.218840
 20
3.073400
  0
SEQEND
  8
0
  0
SOLID
  8
0
 62
    15
 10
5.195080
 20
3.046120
 11
5.841880
 21
3.431560
 12
5.183640
 22
3.036440
 13
5.830440
 23
3.422320
  0
POLYLINE
  8
0
  6
CONTINUOUS
 66
     1
 40
0.000000
 41
0.000000
  0
VERTEX
  8
0
  6
CONTINUOUS
 10
5.195080
 20
3.046120
  0
VERTEX
  8
0
  6
CONTINUOUS
 10
5.841880
 20
3.431560
  0
VERTEX
  8
0
  6
CONTINUOUS
 10
5.830440
 20
3.422320
  0
VERTEX
  8
0
  6
CONTINUOUS
 10
5.183640
 20
3.036440
  0
VERTEX
  8
0
  6
CONTINUOUS
 10
5.195080
 20
3.046120
  0
SEQEND
  8
0
  0
SOLID
  8
0
 62
    15
 10
5.078480
 20
2.965600
 11
5.725720
 21
3.351480
 12
5.067040
 22
2.948000
 13
5.713840
 23
3.333880
  0
POLYLINE
  8
0
  6
CONTINUOUS
 66
     1
 40
0.000000
 41
0.000000
  0
VERTEX
  8
0
  6
CONTINUOUS
 10
5.078480
 20
2.965600
  0
VERTEX
  8
0
  6
CONTINUOUS
 10
5.725720
 20
3.351480
  0
VERTEX
  8
0
  6
CONTINUOUS
 10
5.713840
 20
3.333880
  0
VERTEX
  8
0
  6
CONTINUOUS
 10
5.067040
 20
2.948000
  0
VERTEX
  8
0
  6
CONTINUOUS
 10
5.078480
 20
2.965600
  0
SEQEND
  8
0
  0
SOLID
  8
0
 62
    15
 10
5.067040
 20
2.948000
 11
5.713840
 21
3.333880
 12
5.055600
 22
2.927320
 13
5.702840
 23
3.312760
  0
POLYLINE
  8
0
  6
CONTINUOUS
 66
     1
 40
0.000000
 41
0.000000
  0
VERTEX
  8
0
  6
CONTINUOUS
 10
5.067040
 20
2.948000
  0
VERTEX
  8
0
  6
CONTINUOUS
 10
5.713840
 20
3.333880
  0
VERTEX
  8
0
  6
CONTINUOUS
 10
5.702840
 20
3.312760
  0
VERTEX
  8
0
  6
CONTINUOUS
 10
5.055600
 20
2.927320
  0
VERTEX
  8
0
  6
CONTINUOUS
 10
5.067040
 20
2.948000
  0
SEQEND
  8
0
  0
SOLID
  8
0
 62
    15
 10
5.055600
 20
2.927320
 11
5.702840
 21
3.312760
 12
5.045480
 22
2.902680
 13
5.692280
 23
3.288120
  0
POLYLINE
  8
0
  6
CONTINUOUS
 66
     1
 40
0.000000
 41
0.000000
  0
VERTEX
  8
0
  6
CONTINUOUS
 10
5.055600
 20
2.927320
  0
VERTEX
  8
0
  6
CONTINUOUS
 10
5.702840
 20
3.312760
  0
VERTEX
  8
0
  6
CONTINUOUS
 10
5.692280
 20
3.288120
  0
VERTEX
  8
0
  6
CONTINUOUS
 10
5.045480
 20
2.902680
  0
VERTEX
  8
0
  6
CONTINUOUS
 10
5.055600
 20
2.927320
  0
SEQEND
  8
0
  0
SOLID
  8
0
 62
    15
 10
5.045480
 20
2.902680
 11
5.692280
 21
3.288120
 12
5.035800
 22
2.873640
 13
5.682600
 23
3.259080
  0
POLYLINE
  8
0
  6
CONTINUOUS
 66
     1
 40
0.000000
 41
0.000000
  0
VERTEX
  8
0
  6
CONTINUOUS
 10
5.045480
 20
2.902680
  0
VERTEX
  8
0
  6
CONTINUOUS
 10
5.692280
 20
3.288120
  0
VERTEX
  8
0
  6
CONTINUOUS
 10
5.682600
 20
3.259080
  0
VERTEX
  8
0
  6
CONTINUOUS
 10
5.035800
 20
2.873640
  0
VERTEX
  8
0
  6
CONTINUOUS
 10
5.045480
 20
2.902680
  0
SEQEND
  8
0
  0
SOLID
  8
0
 62
    15
 10
5.035800
 20
2.873640
 11
5.682600
 21
3.259080
 12
5.027000
 22
2.839760
 13
5.673800
 23
3.225640
  0
POLYLINE
  8
0
  6
CONTINUOUS
 66
     1
 40
0.000000
 41
0.000000
  0
VERTEX
  8
0
  6
CONTINUOUS
 10
5.035800
 20
2.873640
  0
VERTEX
  8
0
  6
CONTINUOUS
 10
5.682600
 20
3.259080
  0
VERTEX
  8
0
  6
CONTINUOUS
 10
5.673800
 20
3.225640
  0
VERTEX
  8
0
  6
CONTINUOUS
 10
5.027000
 20
2.839760
  0
VERTEX
  8
0
  6
CONTINUOUS
 10
5.035800
 20
2.873640
  0
SEQEND
  8
0
  0
SOLID
  8
0
 62
    15
 10
5.027000
 20
2.839760
 11
5.673800
 21
3.225640
 12
5.019960
 22
2.801480
 13
5.666760
 23
3.186920
  0
POLYLINE
  8
0
  6
CONTINUOUS
 66
     1
 40
0.000000
 41
0.000000
  0
VERTEX
  8
0
  6
CONTINUOUS
 10
5.027000
 20
2.839760
  0
VERTEX
  8
0
  6
CONTINUOUS
 10
5.673800
 20
3.225640
  0
VERTEX
  8
0
  6
CONTINUOUS
 10
5.666760
 20
3.186920
  0
VERTEX
  8
0
  6
CONTINUOUS
 10
5.019960
 20
2.801480
  0
VERTEX
  8
0
  6
CONTINUOUS
 10
5.027000
 20
2.839760
  0
SEQEND
  8
0
  0
SOLID
  8
0
 62
    15
 10
5.019960
 20
2.801480
 11
5.666760
 21
3.186920
 12
5.013800
 22
2.757040
 13
5.660600
 23
3.142920
  0
POLYLINE
  8
0
  6
CONTINUOUS
 66
     1
 40
0.000000
 41
0.000000
  0
VERTEX
  8
0
  6
CONTINUOUS
 10
5.019960
 20
2.801480
  0
VERTEX
  8
0
  6
CONTINUOUS
 10
5.666760
 20
3.186920
  0
VERTEX
  8
0
  6
CONTINUOUS
 10
5.660600
 20
3.142920
  0
VERTEX
  8
0
  6
CONTINUOUS
 10
5.013800
 20
2.757040
  0
VERTEX
  8
0
  6
CONTINUOUS
 10
5.019960
 20
2.801480
  0
SEQEND
  8
0
  0
SOLID
  8
0
 62
    15
 10
5.013800
 20
2.757040
 11
5.660600
 21
3.142920
 12
5.009400
 22
2.707320
 13
5.656200
 23
3.092760
  0
POLYLINE
  8
0
  6
CONTINUOUS
 66
     1
 40
0.000000
 41
0.000000
  0
VERTEX
  8
0
  6
CONTINUOUS
 10
5.013800
 20
2.757040
  0
VERTEX
  8
0
  6
CONTINUOUS
 10
5.660600
 20
3.142920
  0
VERTEX
  8
0
  6
CONTINUOUS
 10
5.656200
 20
3.092760
  0
VERTEX
  8
0
  6
CONTINUOUS
 10
5.009400
 20
2.707320
  0
VERTEX
  8
0
  6
CONTINUOUS
 10
5.013800
 20
2.757040
  0
SEQEND
  8
0
  0
SOLID
  8
0
 62
    15
 10
5.009400
 20
2.707320
 11
5.656200
 21
3.092760
 12
5.009400
 22
2.684880
 13
5.656200
 23
3.070760
  0
POLYLINE
  8
0
  6
CONTINUOUS
 66
     1
 40
0.000000
 41
0.000000
  0
VERTEX
  8
0
  6
CONTINUOUS
 10
5.009400
 20
2.707320
  0
VERTEX
  8
0
  6
CONTINUOUS
 10
5.656200
 20
3.092760
  0
VERTEX
  8
0
  6
CONTINUOUS
 10
5.656200
 20
3.070760
  0
VERTEX
  8
0
  6
CONTINUOUS
 10
5.009400
 20
2.684880
  0
VERTEX
  8
0
  6
CONTINUOUS
 10
5.009400
 20
2.707320
  0
SEQEND
  8
0
  0
POLYLINE
  8
0
  6
CONTINUOUS
 66
     1
 40
0.000000
 41
0.000000
  0
VERTEX
  8
0
  6
CONTINUOUS
 10
5.009400
 20
2.684880
  0
VERTEX
  8
0
  6
CONTINUOUS
 10
5.656200
 20
3.070760
  0
VERTEX
  8
0
  6
CONTINUOUS
 10
5.009400
 20
2.684880
  0
SEQEND
  8
0
  0
POLYLINE
  8
0
  6
CONTINUOUS
 66
     1
 40
0.000000
 41
0.000000
  0
VERTEX
  8
0
  6
CONTINUOUS
 10
5.009400
 20
2.684880
  0
VERTEX
  8
0
  6
CONTINUOUS
 10
4.792480
 20
2.684880
  0
VERTEX
  8
0
  6
CONTINUOUS
 10
4.792480
 20
4.315960
  0
VERTEX
  8
0
  6
CONTINUOUS
 10
5.428720
 20
4.315960
  0
VERTEX
  8
0
  6
CONTINUOUS
 10
5.428720
 20
3.805560
  0
VERTEX
  8
0
  6
CONTINUOUS
 10
5.396160
 20
3.800280
  0
VERTEX
  8
0
  6
CONTINUOUS
 10
5.369320
 20
3.792800
  0
VERTEX
  8
0
  6
CONTINUOUS
 10
5.347760
 20
3.781800
  0
VERTEX
  8
0
  6
CONTINUOUS
 10
5.331040
 20
3.766400
  0
VERTEX
  8
0
  6
CONTINUOUS
 10
5.318720
 20
3.744400
  0
VERTEX
  8
0
  6
CONTINUOUS
 10
5.309920
 20
3.714920
  0
VERTEX
  8
0
  6
CONTINUOUS
 10
5.304640
 20
3.677080
  0
VERTEX
  8
0
  6
CONTINUOUS
 10
5.302000
 20
3.628680
  0
VERTEX
  8
0
  6
CONTINUOUS
 10
5.302000
 20
3.365560
  0
VERTEX
  8
0
  6
CONTINUOUS
 10
5.199480
 20
3.365560
  0
VERTEX
  8
0
  6
CONTINUOUS
 10
5.199920
 20
3.353680
  0
VERTEX
  8
0
  6
CONTINUOUS
 10
5.222360
 20
3.329480
  0
VERTEX
  8
0
  6
CONTINUOUS
 10
5.239520
 20
3.304400
  0
VERTEX
  8
0
  6
CONTINUOUS
 10
5.251840
 20
3.278880
  0
VERTEX
  8
0
  6
CONTINUOUS
 10
5.260200
 20
3.252920
  0
VERTEX
  8
0
  6
CONTINUOUS
 10
5.264160
 20
3.227400
  0
VERTEX
  8
0
  6
CONTINUOUS
 10
5.264600
 20
3.201880
  0
VERTEX
  8
0
  6
CONTINUOUS
 10
5.257120
 20
3.153480
  0
VERTEX
  8
0
  6
CONTINUOUS
 10
5.240400
 20
3.109920
  0
VERTEX
  8
0
  6
CONTINUOUS
 10
5.218840
 20
3.073400
  0
VERTEX
  8
0
  6
CONTINUOUS
 10
5.195080
 20
3.046120
  0
VERTEX
  8
0
  6
CONTINUOUS
 10
5.183640
 20
3.036440
  0
VERTEX
  8
0
  6
CONTINUOUS
 10
5.173080
 20
3.030280
  0
VERTEX
  8
0
  6
CONTINUOUS
 10
5.162520
 20
3.025880
  0
VERTEX
  8
0
  6
CONTINUOUS
 10
5.151520
 20
3.021040
  0
VERTEX
  8
0
  6
CONTINUOUS
 10
5.127760
 20
3.009160
  0
VERTEX
  8
0
  6
CONTINUOUS
 10
5.103120
 20
2.992000
  0
VERTEX
  8
0
  6
CONTINUOUS
 10
5.078480
 20
2.965600
  0
VERTEX
  8
0
  6
CONTINUOUS
 10
5.067040
 20
2.948000
  0
VERTEX
  8
0
  6
CONTINUOUS
 10
5.055600
 20
2.927320
  0
VERTEX
  8
0
  6
CONTINUOUS
 10
5.045480
 20
2.902680
  0
VERTEX
  8
0
  6
CONTINUOUS
 10
5.035800
 20
2.873640
  0
VERTEX
  8
0
  6
CONTINUOUS
 10
5.027000
 20
2.839760
  0
VERTEX
  8
0
  6
CONTINUOUS
 10
5.019960
 20
2.801480
  0
VERTEX
  8
0
  6
CONTINUOUS
 10
5.013800
 20
2.757040
  0
VERTEX
  8
0
  6
CONTINUOUS
 10
5.009400
 20
2.707320
  0
VERTEX
  8
0
  6
CONTINUOUS
 10
5.009400
 20
2.684880
  0
SEQEND
  8
0
  0
SOLID
  8
0
 62
    15
 10
6.150760
 20
4.768280
 11
6.794480
 21
5.146240
 12
6.138440
 22
4.725160
 13
6.782160
 23
5.103120
  0
POLYLINE
  8
0
  6
CONTINUOUS
 66
     1
 40
0.000000
 41
0.000000
  0
VERTEX
  8
0
  6
CONTINUOUS
 10
6.150760
 20
4.768280
  0
VERTEX
  8
0
  6
CONTINUOUS
 10
6.794480
 20
5.146240
  0
VERTEX
  8
0
  6
CONTINUOUS
 10
6.782160
 20
5.103120
  0
VERTEX
  8
0
  6
CONTINUOUS
 10
6.138440
 20
4.725160
  0
VERTEX
  8
0
  6
CONTINUOUS
 10
6.150760
 20
4.768280
  0
SEQEND
  8
0
  0
SOLID
  8
0
 62
    15
 10
5.840560
 20
5.166480
 11
6.484280
 21
5.544440
 12
5.890720
 22
5.164280
 13
6.534440
 23
5.542240
  0
POLYLINE
  8
0
  6
CONTINUOUS
 66
     1
 40
0.000000
 41
0.000000
  0
VERTEX
  8
0
  6
CONTINUOUS
 10
5.840560
 20
5.166480
  0
VERTEX
  8
0
  6
CONTINUOUS
 10
6.484280
 20
5.544440
  0
VERTEX
  8
0
  6
CONTINUOUS
 10
6.534440
 20
5.542240
  0
VERTEX
  8
0
  6
CONTINUOUS
 10
5.890720
 20
5.164280
  0
VERTEX
  8
0
  6
CONTINUOUS
 10
5.840560
 20
5.166480
  0
SEQEND
  8
0
  0
SOLID
  8
0
 62
    15
 10
5.890720
 20
5.164280
 11
6.534440
 21
5.542240
 12
5.935160
 22
5.158120
 13
6.579320
 23
5.536080
  0
POLYLINE
  8
0
  6
CONTINUOUS
 66
     1
 40
0.000000
 41
0.000000
  0
VERTEX
  8
0
  6
CONTINUOUS
 10
5.890720
 20
5.164280
  0
VERTEX
  8
0
  6
CONTINUOUS
 10
6.534440
 20
5.542240
  0
VERTEX
  8
0
  6
CONTINUOUS
 10
6.579320
 20
5.536080
  0
VERTEX
  8
0
  6
CONTINUOUS
 10
5.935160
 20
5.158120
  0
VERTEX
  8
0
  6
CONTINUOUS
 10
5.890720
 20
5.164280
  0
SEQEND
  8
0
  0
SOLID
  8
0
 62
    15
 10
5.935160
 20
5.158120
 11
6.579320
 21
5.536080
 12
5.974760
 22
5.148000
 13
6.618920
 23
5.525960
  0
POLYLINE
  8
0
  6
CONTINUOUS
 66
     1
 40
0.000000
 41
0.000000
  0
VERTEX
  8
0
  6
CONTINUOUS
 10
5.935160
 20
5.158120
  0
VERTEX
  8
0
  6
CONTINUOUS
 10
6.579320
 20
5.536080
  0
VERTEX
  8
0
  6
CONTINUOUS
 10
6.618920
 20
5.525960
  0
VERTEX
  8
0
  6
CONTINUOUS
 10
5.974760
 20
5.148000
  0
VERTEX
  8
0
  6
CONTINUOUS
 10
5.935160
 20
5.158120
  0
SEQEND
  8
0
  0
SOLID
  8
0
 62
    15
 10
5.974760
 20
5.148000
 11
6.618920
 21
5.525960
 12
6.009520
 22
5.134360
 13
6.653680
 23
5.512320
  0
POLYLINE
  8
0
  6
CONTINUOUS
 66
     1
 40
0.000000
 41
0.000000
  0
VERTEX
  8
0
  6
CONTINUOUS
 10
5.974760
 20
5.148000
  0
VERTEX
  8
0
  6
CONTINUOUS
 10
6.618920
 20
5.525960
  0
VERTEX
  8
0
  6
CONTINUOUS
 10
6.653680
 20
5.512320
  0
VERTEX
  8
0
  6
CONTINUOUS
 10
6.009520
 20
5.134360
  0
VERTEX
  8
0
  6
CONTINUOUS
 10
5.974760
 20
5.148000
  0
SEQEND
  8
0
  0
SOLID
  8
0
 62
    15
 10
6.009520
 20
5.134360
 11
6.653680
 21
5.512320
 12
6.039880
 22
5.118080
 13
6.683600
 23
5.495600
  0
POLYLINE
  8
0
  6
CONTINUOUS
 66
     1
 40
0.000000
 41
0.000000
  0
VERTEX
  8
0
  6
CONTINUOUS
 10
6.009520
 20
5.134360
  0
VERTEX
  8
0
  6
CONTINUOUS
 10
6.653680
 20
5.512320
  0
VERTEX
  8
0
  6
CONTINUOUS
 10
6.683600
 20
5.495600
  0
VERTEX
  8
0
  6
CONTINUOUS
 10
6.039880
 20
5.118080
  0
VERTEX
  8
0
  6
CONTINUOUS
 10
6.009520
 20
5.134360
  0
SEQEND
  8
0
  0
SOLID
  8
0
 62
    15
 10
6.039880
 20
5.118080
 11
6.683600
 21
5.495600
 12
6.065840
 22
5.098720
 13
6.710000
 23
5.476680
  0
POLYLINE
  8
0
  6
CONTINUOUS
 66
     1
 40
0.000000
 41
0.000000
  0
VERTEX
  8
0
  6
CONTINUOUS
 10
6.039880
 20
5.118080
  0
VERTEX
  8
0
  6
CONTINUOUS
 10
6.683600
 20
5.495600
  0
VERTEX
  8
0
  6
CONTINUOUS
 10
6.710000
 20
5.476680
  0
VERTEX
  8
0
  6
CONTINUOUS
 10
6.065840
 20
5.098720
  0
VERTEX
  8
0
  6
CONTINUOUS
 10
6.039880
 20
5.118080
  0
SEQEND
  8
0
  0
SOLID
  8
0
 62
    15
 10
6.065840
 20
5.098720
 11
6.710000
 21
5.476680
 12
6.088280
 22
5.077160
 13
6.732000
 23
5.455120
  0
POLYLINE
  8
0
  6
CONTINUOUS
 66
     1
 40
0.000000
 41
0.000000
  0
VERTEX
  8
0
  6
CONTINUOUS
 10
6.065840
 20
5.098720
  0
VERTEX
  8
0
  6
CONTINUOUS
 10
6.710000
 20
5.476680
  0
VERTEX
  8
0
  6
CONTINUOUS
 10
6.732000
 20
5.455120
  0
VERTEX
  8
0
  6
CONTINUOUS
 10
6.088280
 20
5.077160
  0
VERTEX
  8
0
  6
CONTINUOUS
 10
6.065840
 20
5.098720
  0
SEQEND
  8
0
  0
SOLID
  8
0
 62
    15
 10
6.088280
 20
5.077160
 11
6.732000
 21
5.455120
 12
6.106760
 22
5.054280
 13
6.750480
 23
5.432240
  0
POLYLINE
  8
0
  6
CONTINUOUS
 66
     1
 40
0.000000
 41
0.000000
  0
VERTEX
  8
0
  6
CONTINUOUS
 10
6.088280
 20
5.077160
  0
VERTEX
  8
0
  6
CONTINUOUS
 10
6.732000
 20
5.455120
  0
VERTEX
  8
0
  6
CONTINUOUS
 10
6.750480
 20
5.432240
  0
VERTEX
  8
0
  6
CONTINUOUS
 10
6.106760
 20
5.054280
  0
VERTEX
  8
0
  6
CONTINUOUS
 10
6.088280
 20
5.077160
  0
SEQEND
  8
0
  0
SOLID
  8
0
 62
    15
 10
6.106760
 20
5.054280
 11
6.750480
 21
5.432240
 12
6.134040
 22
5.004120
 13
6.778200
 23
5.382080
  0
POLYLINE
  8
0
  6
CONTINUOUS
 66
     1
 40
0.000000
 41
0.000000
  0
VERTEX
  8
0
  6
CONTINUOUS
 10
6.106760
 20
5.054280
  0
VERTEX
  8
0
  6
CONTINUOUS
 10
6.750480
 20
5.432240
  0
VERTEX
  8
0
  6
CONTINUOUS
 10
6.778200
 20
5.382080
  0
VERTEX
  8
0
  6
CONTINUOUS
 10
6.134040
 20
5.004120
  0
VERTEX
  8
0
  6
CONTINUOUS
 10
6.106760
 20
5.054280
  0
SEQEND
  8
0
  0
SOLID
  8
0
 62
    15
 10
6.134040
 20
5.004120
 11
6.778200
 21
5.382080
 12
6.150760
 22
4.952200
 13
6.794480
 23
5.330160
  0
POLYLINE
  8
0
  6
CONTINUOUS
 66
     1
 40
0.000000
 41
0.000000
  0
VERTEX
  8
0
  6
CONTINUOUS
 10
6.134040
 20
5.004120
  0
VERTEX
  8
0
  6
CONTINUOUS
 10
6.778200
 20
5.382080
  0
VERTEX
  8
0
  6
CONTINUOUS
 10
6.794480
 20
5.330160
  0
VERTEX
  8
0
  6
CONTINUOUS
 10
6.150760
 20
4.952200
  0
VERTEX
  8
0
  6
CONTINUOUS
 10
6.134040
 20
5.004120
  0
SEQEND
  8
0
  0
SOLID
  8
0
 62
    15
 10
6.150760
 20
4.952200
 11
6.794480
 21
5.330160
 12
6.158680
 22
4.901160
 13
6.802840
 23
5.279120
  0
POLYLINE
  8
0
  6
CONTINUOUS
 66
     1
 40
0.000000
 41
0.000000
  0
VERTEX
  8
0
  6
CONTINUOUS
 10
6.150760
 20
4.952200
  0
VERTEX
  8
0
  6
CONTINUOUS
 10
6.794480
 20
5.330160
  0
VERTEX
  8
0
  6
CONTINUOUS
 10
6.802840
 20
5.279120
  0
VERTEX
  8
0
  6
CONTINUOUS
 10
6.158680
 20
4.901160
  0
VERTEX
  8
0
  6
CONTINUOUS
 10
6.150760
 20
4.952200
  0
SEQEND
  8
0
  0
SOLID
  8
0
 62
    15
 10
6.158680
 20
4.901160
 11
6.802840
 21
5.279120
 12
6.160880
 22
4.854960
 13
6.804600
 23
5.232920
  0
POLYLINE
  8
0
  6
CONTINUOUS
 66
     1
 40
0.000000
 41
0.000000
  0
VERTEX
  8
0
  6
CONTINUOUS
 10
6.158680
 20
4.901160
  0
VERTEX
  8
0
  6
CONTINUOUS
 10
6.802840
 20
5.279120
  0
VERTEX
  8
0
  6
CONTINUOUS
 10
6.804600
 20
5.232920
  0
VERTEX
  8
0
  6
CONTINUOUS
 10
6.160880
 20
4.854960
  0
VERTEX
  8
0
  6
CONTINUOUS
 10
6.158680
 20
4.901160
  0
SEQEND
  8
0
  0
SOLID
  8
0
 62
    15
 10
6.160880
 20
4.854960
 11
6.804600
 21
5.232920
 12
6.158240
 22
4.811840
 13
6.801960
 23
5.189800
  0
POLYLINE
  8
0
  6
CONTINUOUS
 66
     1
 40
0.000000
 41
0.000000
  0
VERTEX
  8
0
  6
CONTINUOUS
 10
6.160880
 20
4.854960
  0
VERTEX
  8
0
  6
CONTINUOUS
 10
6.804600
 20
5.232920
  0
VERTEX
  8
0
  6
CONTINUOUS
 10
6.801960
 20
5.189800
  0
VERTEX
  8
0
  6
CONTINUOUS
 10
6.158240
 20
4.811840
  0
VERTEX
  8
0
  6
CONTINUOUS
 10
6.160880
 20
4.854960
  0
SEQEND
  8
0
  0
SOLID
  8
0
 62
    15
 10
6.158240
 20
4.811840
 11
6.801960
 21
5.189800
 12
6.150760
 22
4.768280
 13
6.794480
 23
5.146240
  0
POLYLINE
  8
0
  6
CONTINUOUS
 66
     1
 40
0.000000
 41
0.000000
  0
VERTEX
  8
0
  6
CONTINUOUS
 10
6.158240
 20
4.811840
  0
VERTEX
  8
0
  6
CONTINUOUS
 10
6.801960
 20
5.189800
  0
VERTEX
  8
0
  6
CONTINUOUS
 10
6.794480
 20
5.146240
  0
VERTEX
  8
0
  6
CONTINUOUS
 10
6.150760
 20
4.768280
  0
VERTEX
  8
0
  6
CONTINUOUS
 10
6.158240
 20
4.811840
  0
SEQEND
  8
0
  0
SOLID
  8
0
 62
    15
 10
3.994320
 20
5.166480
 11
4.638040
 21
5.544440
 12
5.840560
 22
5.166480
 13
6.484280
 23
5.544440
  0
POLYLINE
  8
0
  6
CONTINUOUS
 66
     1
 40
0.000000
 41
0.000000
  0
VERTEX
  8
0
  6
CONTINUOUS
 10
3.994320
 20
5.166480
  0
VERTEX
  8
0
  6
CONTINUOUS
 10
4.638040
 20
5.544440
  0
VERTEX
  8
0
  6
CONTINUOUS
 10
6.484280
 20
5.544440
  0
VERTEX
  8
0
  6
CONTINUOUS
 10
5.840560
 20
5.166480
  0
VERTEX
  8
0
  6
CONTINUOUS
 10
3.994320
 20
5.166480
  0
SEQEND
  8
0
  0
SOLID
  8
0
 62
    15
 10
6.138440
 20
4.725160
 11
6.782160
 21
5.103120
 12
6.120840
 22
4.683360
 13
6.764560
 23
5.061320
  0
POLYLINE
  8
0
  6
CONTINUOUS
 66
     1
 40
0.000000
 41
0.000000
  0
VERTEX
  8
0
  6
CONTINUOUS
 10
6.138440
 20
4.725160
  0
VERTEX
  8
0
  6
CONTINUOUS
 10
6.782160
 20
5.103120
  0
VERTEX
  8
0
  6
CONTINUOUS
 10
6.764560
 20
5.061320
  0
VERTEX
  8
0
  6
CONTINUOUS
 10
6.120840
 20
4.683360
  0
VERTEX
  8
0
  6
CONTINUOUS
 10
6.138440
 20
4.725160
  0
SEQEND
  8
0
  0
SOLID
  8
0
 62
    15
 10
6.120840
 20
4.683360
 11
6.764560
 21
5.061320
 12
6.097960
 22
4.642880
 13
6.742120
 23
5.020840
  0
POLYLINE
  8
0
  6
CONTINUOUS
 66
     1
 40
0.000000
 41
0.000000
  0
VERTEX
  8
0
  6
CONTINUOUS
 10
6.120840
 20
4.683360
  0
VERTEX
  8
0
  6
CONTINUOUS
 10
6.764560
 20
5.061320
  0
VERTEX
  8
0
  6
CONTINUOUS
 10
6.742120
 20
5.020840
  0
VERTEX
  8
0
  6
CONTINUOUS
 10
6.097960
 20
4.642880
  0
VERTEX
  8
0
  6
CONTINUOUS
 10
6.120840
 20
4.683360
  0
SEQEND
  8
0
  0
SOLID
  8
0
 62
    15
 10
6.097960
 20
4.642880
 11
6.742120
 21
5.020840
 12
6.070240
 22
4.605040
 13
6.713960
 23
4.982560
  0
POLYLINE
  8
0
  6
CONTINUOUS
 66
     1
 40
0.000000
 41
0.000000
  0
VERTEX
  8
0
  6
CONTINUOUS
 10
6.097960
 20
4.642880
  0
VERTEX
  8
0
  6
CONTINUOUS
 10
6.742120
 20
5.020840
  0
VERTEX
  8
0
  6
CONTINUOUS
 10
6.713960
 20
4.982560
  0
VERTEX
  8
0
  6
CONTINUOUS
 10
6.070240
 20
4.605040
  0
VERTEX
  8
0
  6
CONTINUOUS
 10
6.097960
 20
4.642880
  0
SEQEND
  8
0
  0
SOLID
  8
0
 62
    15
 10
6.070240
 20
4.605040
 11
6.713960
 21
4.982560
 12
6.036800
 22
4.569840
 13
6.680520
 23
4.947360
  0
POLYLINE
  8
0
  6
CONTINUOUS
 66
     1
 40
0.000000
 41
0.000000
  0
VERTEX
  8
0
  6
CONTINUOUS
 10
6.070240
 20
4.605040
  0
VERTEX
  8
0
  6
CONTINUOUS
 10
6.713960
 20
4.982560
  0
VERTEX
  8
0
  6
CONTINUOUS
 10
6.680520
 20
4.947360
  0
VERTEX
  8
0
  6
CONTINUOUS
 10
6.036800
 20
4.569840
  0
VERTEX
  8
0
  6
CONTINUOUS
 10
6.070240
 20
4.605040
  0
SEQEND
  8
0
  0
SOLID
  8
0
 62
    15
 10
6.036800
 20
4.569840
 11
6.680520
 21
4.947360
 12
5.997640
 22
4.537720
 13
6.641360
 23
4.915680
  0
POLYLINE
  8
0
  6
CONTINUOUS
 66
     1
 40
0.000000
 41
0.000000
  0
VERTEX
  8
0
  6
CONTINUOUS
 10
6.036800
 20
4.569840
  0
VERTEX
  8
0
  6
CONTINUOUS
 10
6.680520
 20
4.947360
  0
VERTEX
  8
0
  6
CONTINUOUS
 10
6.641360
 20
4.915680
  0
VERTEX
  8
0
  6
CONTINUOUS
 10
5.997640
 20
4.537720
  0
VERTEX
  8
0
  6
CONTINUOUS
 10
6.036800
 20
4.569840
  0
SEQEND
  8
0
  0
SOLID
  8
0
 62
    15
 10
5.997640
 20
4.537720
 11
6.641360
 21
4.915680
 12
5.962880
 22
4.505600
 13
6.606600
 23
4.883560
  0
POLYLINE
  8
0
  6
CONTINUOUS
 66
     1
 40
0.000000
 41
0.000000
  0
VERTEX
  8
0
  6
CONTINUOUS
 10
5.997640
 20
4.537720
  0
VERTEX
  8
0
  6
CONTINUOUS
 10
6.641360
 20
4.915680
  0
VERTEX
  8
0
  6
CONTINUOUS
 10
6.606600
 20
4.883560
  0
VERTEX
  8
0
  6
CONTINUOUS
 10
5.962880
 20
4.505600
  0
VERTEX
  8
0
  6
CONTINUOUS
 10
5.997640
 20
4.537720
  0
SEQEND
  8
0
  0
SOLID
  8
0
 62
    15
 10
5.962880
 20
4.505600
 11
6.606600
 21
4.883560
 12
5.940000
 22
4.469960
 13
6.583720
 23
4.847920
  0
POLYLINE
  8
0
  6
CONTINUOUS
 66
     1
 40
0.000000
 41
0.000000
  0
VERTEX
  8
0
  6
CONTINUOUS
 10
5.962880
 20
4.505600
  0
VERTEX
  8
0
  6
CONTINUOUS
 10
6.606600
 20
4.883560
  0
VERTEX
  8
0
  6
CONTINUOUS
 10
6.583720
 20
4.847920
  0
VERTEX
  8
0
  6
CONTINUOUS
 10
5.940000
 20
4.469960
  0
VERTEX
  8
0
  6
CONTINUOUS
 10
5.962880
 20
4.505600
  0
SEQEND
  8
0
  0
SOLID
  8
0
 62
    15
 10
5.940000
 20
4.469960
 11
6.583720
 21
4.847920
 12
5.927240
 22
4.433000
 13
6.570960
 23
4.810960
  0
POLYLINE
  8
0
  6
CONTINUOUS
 66
     1
 40
0.000000
 41
0.000000
  0
VERTEX
  8
0
  6
CONTINUOUS
 10
5.940000
 20
4.469960
  0
VERTEX
  8
0
  6
CONTINUOUS
 10
6.583720
 20
4.847920
  0
VERTEX
  8
0
  6
CONTINUOUS
 10
6.570960
 20
4.810960
  0
VERTEX
  8
0
  6
CONTINUOUS
 10
5.927240
 20
4.433000
  0
VERTEX
  8
0
  6
CONTINUOUS
 10
5.940000
 20
4.469960
  0
SEQEND
  8
0
  0
SOLID
  8
0
 62
    15
 10
5.927240
 20
4.433000
 11
6.570960
 21
4.810960
 12
5.921960
 22
4.397360
 13
6.566120
 23
4.775320
  0
POLYLINE
  8
0
  6
CONTINUOUS
 66
     1
 40
0.000000
 41
0.000000
  0
VERTEX
  8
0
  6
CONTINUOUS
 10
5.927240
 20
4.433000
  0
VERTEX
  8
0
  6
CONTINUOUS
 10
6.570960
 20
4.810960
  0
VERTEX
  8
0
  6
CONTINUOUS
 10
6.566120
 20
4.775320
  0
VERTEX
  8
0
  6
CONTINUOUS
 10
5.921960
 20
4.397360
  0
VERTEX
  8
0
  6
CONTINUOUS
 10
5.927240
 20
4.433000
  0
SEQEND
  8
0
  0
SOLID
  8
0
 62
    15
 10
5.921960
 20
4.397360
 11
6.566120
 21
4.775320
 12
5.921960
 22
4.365240
 13
6.565680
 23
4.743200
  0
POLYLINE
  8
0
  6
CONTINUOUS
 66
     1
 40
0.000000
 41
0.000000
  0
VERTEX
  8
0
  6
CONTINUOUS
 10
5.921960
 20
4.397360
  0
VERTEX
  8
0
  6
CONTINUOUS
 10
6.566120
 20
4.775320
  0
VERTEX
  8
0
  6
CONTINUOUS
 10
6.565680
 20
4.743200
  0
VERTEX
  8
0
  6
CONTINUOUS
 10
5.921960
 20
4.365240
  0
VERTEX
  8
0
  6
CONTINUOUS
 10
5.921960
 20
4.397360
  0
SEQEND
  8
0
  0
SOLID
  8
0
 62
    15
 10
5.921960
 20
4.365240
 11
6.565680
 21
4.743200
 12
5.924600
 22
4.338400
 13
6.568320
 23
4.716360
  0
POLYLINE
  8
0
  6
CONTINUOUS
 66
     1
 40
0.000000
 41
0.000000
  0
VERTEX
  8
0
  6
CONTINUOUS
 10
5.921960
 20
4.365240
  0
VERTEX
  8
0
  6
CONTINUOUS
 10
6.565680
 20
4.743200
  0
VERTEX
  8
0
  6
CONTINUOUS
 10
6.568320
 20
4.716360
  0
VERTEX
  8
0
  6
CONTINUOUS
 10
5.924600
 20
4.338400
  0
VERTEX
  8
0
  6
CONTINUOUS
 10
5.921960
 20
4.365240
  0
SEQEND
  8
0
  0
SOLID
  8
0
 62
    15
 10
5.924600
 20
4.338400
 11
6.568320
 21
4.716360
 12
5.926800
 22
4.323440
 13
6.570520
 23
4.701400
  0
POLYLINE
  8
0
  6
CONTINUOUS
 66
     1
 40
0.000000
 41
0.000000
  0
VERTEX
  8
0
  6
CONTINUOUS
 10
5.924600
 20
4.338400
  0
VERTEX
  8
0
  6
CONTINUOUS
 10
6.568320
 20
4.716360
  0
VERTEX
  8
0
  6
CONTINUOUS
 10
6.570520
 20
4.701400
  0
VERTEX
  8
0
  6
CONTINUOUS
 10
5.926800
 20
4.323440
  0
VERTEX
  8
0
  6
CONTINUOUS
 10
5.924600
 20
4.338400
  0
SEQEND
  8
0
  0
SOLID
  8
0
 62
    15
 10
5.926800
 20
4.323440
 11
6.570520
 21
4.701400
 12
5.927240
 22
4.319920
 13
6.571400
 23
4.697880
  0
POLYLINE
  8
0
  6
CONTINUOUS
 66
     1
 40
0.000000
 41
0.000000
  0
VERTEX
  8
0
  6
CONTINUOUS
 10
5.926800
 20
4.323440
  0
VERTEX
  8
0
  6
CONTINUOUS
 10
6.570520
 20
4.701400
  0
VERTEX
  8
0
  6
CONTINUOUS
 10
6.571400
 20
4.697880
  0
VERTEX
  8
0
  6
CONTINUOUS
 10
5.927240
 20
4.319920
  0
VERTEX
  8
0
  6
CONTINUOUS
 10
5.926800
 20
4.323440
  0
SEQEND
  8
0
  0
SOLID
  8
0
 62
    15
 10
5.927240
 20
4.319920
 11
6.571400
 21
4.697880
 12
5.928120
 22
4.311560
 13
6.572280
 23
4.689520
  0
POLYLINE
  8
0
  6
CONTINUOUS
 66
     1
 40
0.000000
 41
0.000000
  0
VERTEX
  8
0
  6
CONTINUOUS
 10
5.927240
 20
4.319920
  0
VERTEX
  8
0
  6
CONTINUOUS
 10
6.571400
 20
4.697880
  0
VERTEX
  8
0
  6
CONTINUOUS
 10
6.572280
 20
4.689520
  0
VERTEX
  8
0
  6
CONTINUOUS
 10
5.928120
 20
4.311560
  0
VERTEX
  8
0
  6
CONTINUOUS
 10
5.927240
 20
4.319920
  0
SEQEND
  8
0
  0
POLYLINE
  8
0
  6
CONTINUOUS
 66
     1
 40
0.000000
 41
0.000000
  0
VERTEX
  8
0
  6
CONTINUOUS
 10
5.924160
 20
4.311560
  0
VERTEX
  8
0
  6
CONTINUOUS
 10
3.994320
 20
4.311560
  0
VERTEX
  8
0
  6
CONTINUOUS
 10
3.994320
 20
5.166480
  0
VERTEX
  8
0
  6
CONTINUOUS
 10
5.840560
 20
5.166480
  0
VERTEX
  8
0
  6
CONTINUOUS
 10
5.890720
 20
5.164280
  0
VERTEX
  8
0
  6
CONTINUOUS
 10
5.935160
 20
5.158120
  0
VERTEX
  8
0
  6
CONTINUOUS
 10
5.974760
 20
5.148000
  0
VERTEX
  8
0
  6
CONTINUOUS
 10
6.009520
 20
5.134360
  0
VERTEX
  8
0
  6
CONTINUOUS
 10
6.039880
 20
5.118080
  0
VERTEX
  8
0
  6
CONTINUOUS
 10
6.065840
 20
5.098720
  0
VERTEX
  8
0
  6
CONTINUOUS
 10
6.088280
 20
5.077160
  0
VERTEX
  8
0
  6
CONTINUOUS
 10
6.106760
 20
5.054280
  0
VERTEX
  8
0
  6
CONTINUOUS
 10
6.134040
 20
5.004120
  0
VERTEX
  8
0
  6
CONTINUOUS
 10
6.150760
 20
4.952200
  0
VERTEX
  8
0
  6
CONTINUOUS
 10
6.158680
 20
4.901160
  0
VERTEX
  8
0
  6
CONTINUOUS
 10
6.160880
 20
4.854960
  0
VERTEX
  8
0
  6
CONTINUOUS
 10
6.158240
 20
4.811840
  0
VERTEX
  8
0
  6
CONTINUOUS
 10
6.150760
 20
4.768280
  0
VERTEX
  8
0
  6
CONTINUOUS
 10
6.138440
 20
4.725160
  0
VERTEX
  8
0
  6
CONTINUOUS
 10
6.120840
 20
4.683360
  0
VERTEX
  8
0
  6
CONTINUOUS
 10
6.097960
 20
4.642880
  0
VERTEX
  8
0
  6
CONTINUOUS
 10
6.070240
 20
4.605040
  0
VERTEX
  8
0
  6
CONTINUOUS
 10
6.036800
 20
4.569840
  0
VERTEX
  8
0
  6
CONTINUOUS
 10
5.997640
 20
4.537720
  0
VERTEX
  8
0
  6
CONTINUOUS
 10
5.962880
 20
4.505600
  0
VERTEX
  8
0
  6
CONTINUOUS
 10
5.940000
 20
4.469960
  0
VERTEX
  8
0
  6
CONTINUOUS
 10
5.927240
 20
4.433000
  0
VERTEX
  8
0
  6
CONTINUOUS
 10
5.921960
 20
4.397360
  0
VERTEX
  8
0
  6
CONTINUOUS
 10
5.921960
 20
4.365240
  0
VERTEX
  8
0
  6
CONTINUOUS
 10
5.924600
 20
4.338400
  0
VERTEX
  8
0
  6
CONTINUOUS
 10
5.926800
 20
4.323440
  0
VERTEX
  8
0
  6
CONTINUOUS
 10
5.927240
 20
4.319920
  0
VERTEX
  8
0
  6
CONTINUOUS
 10
5.928120
 20
4.311560
  0
VERTEX
  8
0
  6
CONTINUOUS
 10
5.924160
 20
4.311560
  0
SEQEND
  8
0
  0
TEXT
  8
0
 10
4.045360
 20
4.463800
 40
0.137894
  1
580
 41
1.000000
  7
SN0
 71
     0
 72
     5
 11
4.323486
 21
4.463800
  0
TEXT
  8
0
 10
4.851440
 20
4.119720
 40
0.137894
  1
579
 41
1.000000
  7
SN0
 71
     0
 72
     5
 11
5.129566
 21
4.119720
  0
TEXT
  8
0
 10
4.045800
 20
4.119720
 40
0.137894
  1
581
 41
1.000000
  7
SN0
 71
     0
 72
     5
 11
4.323926
 21
4.119720
  0
ENDSEC
  0
EOF
