  0
SECTION
  2
HEADER
  9
$ACADVER
  1
AC1006
  9
$EXTMIN
 10
3.993440
 20
0.689480
  9
$EXTMAX
 10
7.543800
 20
9.745120
  9
$LTSCALE
 40
0.044000
  9
$PDMODE
 70
    35
  9
$PDSIZE
 40
0.035200
  0
ENDSEC
  0
SECTION
  2
TABLES
  0
TABLE
  2
LTYPE
 70
     9
  0
LTYPE
  2
CONTINUOUS
 70
    64
  3
Solid line
 72
    65
 73
     0
 40
0.000000
  0
LTYPE
  2
DASHED
 70
    64
  3
__ __ __ __ __ __ __ __ __ __ __ __ __ __ __
 72
    65
 73
     2
 40
0.000330
 49
0.000220
 49
-0.000110
  0
LTYPE
  2
HIDDEN
 70
    64
  3
 _ _ _ _ _ _ _ _ _ _ _ _ _ _ _ _ _ _ _ _ _ _
 72
    65
 73
     2
 40
0.000165
 49
0.000110
 49
-0.000055
  0
LTYPE
  2
CENTER
 70
    64
  3
____ _ ____ _ ____ _ ____ _ ____ _ ____ _ ____
 72
    65
 73
     4
 40
0.000880
 49
0.000550
 49
-0.000110
 49
0.000110
 49
-0.000110
  0
LTYPE
  2
PHANTOM
 70
    64
  3
_____ _ _ _____ _ _ _____ _ _ _____ _ _ ____
 72
    65
 73
     6
 40
0.001100
 49
0.000550
 49
-0.000110
 49
0.000110
 49
-0.000110
 49
0.000110
 49
-0.000110
  0
LTYPE
  2
DOT
 70
    64
  3
...............................................
 72
    65
 73
     2
 40
0.000110
 49
0.000000
 49
-0.000110
  0
LTYPE
  2
DASHDOT
 70
    64
  3
__ . __ . __ . __ . __ . __ . __ . __ . __ . __
 72
    65
 73
     4
 40
0.000440
 49
0.000220
 49
-0.000110
 49
0.000000
 49
-0.000110
  0
LTYPE
  2
BORDER
 70
    64
  3
__ __ . __ __ . __ __ . __ __ . __ __ . __ __
 72
    65
 73
     6
 40
0.000770
 49
0.000220
 49
-0.000110
 49
0.000220
 49
-0.000110
 49
0.000000
 49
-0.000110
  0
LTYPE
  2
DIVIDE
 70
    64
  3
__ . . __ . . __ . . __ . . __ . . __ . . __
 72
    65
 73
     6
 40
0.000550
 49
0.000220
 49
-0.000110
 49
0.000000
 49
-0.000110
 49
0.000000
 49
-0.000110
  0
LTYPE
  2
DOTDOT
 70
    64
  3
 . .  . .  . .  . .  . .  . . 
 72
    65
 73
     5
 40
0.000242
 49
-0.000110
 49
0.000000
 49
-0.000110
 49
0.000000
 49
-0.000110
  0
ENDTAB
  0
TABLE
  2
STYLE
 70
     2
  0
STYLE
 70
     0
  2
SN0
 40
0.000000
 41
0.000440
 50
0.000000
 71
     0
 42
0.000000
  3
ROMAND
  0
STYLE
 70
    68
  2
SV0
 40
0.000000
 41
0.000440
 50
0.000000
 71
     0
 42
0.000000
  3
ROMAND
  0
ENDTAB
  0
TABLE
  2
LAYER
 70
     3
  0
LAYER
  2
FOREGROUND
 70
    64
 62
     7
  6
CONTINUOUS
  0
LAYER
  2
BACKGROUND
 70
    65
 62
    -7
  6
CONTINUOUS
  0
LAYER
  2
0
 70
    64
 62
     7
  6
CONTINUOUS
  0
ENDTAB
  0
ENDSEC
  0
SECTION
  2
ENTITIES
  0
POLYLINE
  8
FOREGROUND
  6
CONTINUOUS
 66
     1
 40
0.000000
 41
0.000000
  0
VERTEX
  8
FOREGROUND
  6
CONTINUOUS
 10
0.000000
 20
10.434600
  0
VERTEX
  8
FOREGROUND
  6
CONTINUOUS
 10
8.499920
 20
10.434600
  0
VERTEX
  8
FOREGROUND
  6
CONTINUOUS
 10
8.499920
 20
-0.565400
  0
VERTEX
  8
FOREGROUND
  6
CONTINUOUS
 10
0.000000
 20
-0.565400
  0
VERTEX
  8
FOREGROUND
  6
CONTINUOUS
 10
0.000000
 20
10.434600
  0
SEQEND
  8
0
  0
POLYLINE
  8
FOREGROUND
  6
CONTINUOUS
 66
     1
 40
0.000000
 41
0.000000
  0
VERTEX
  8
FOREGROUND
  6
CONTINUOUS
 10
0.000000
 20
10.434600
  0
VERTEX
  8
FOREGROUND
  6
CONTINUOUS
 10
8.499920
 20
10.434600
  0
VERTEX
  8
FOREGROUND
  6
CONTINUOUS
 10
8.499920
 20
-0.565400
  0
VERTEX
  8
FOREGROUND
  6
CONTINUOUS
 10
0.000000
 20
-0.565400
  0
VERTEX
  8
FOREGROUND
  6
CONTINUOUS
 10
0.000000
 20
10.434600
  0
SEQEND
  8
0
  0
SOLID
  8
0
 62
    15
 10
4.326960
 20
1.360920
 11
4.964960
 21
1.731400
 12
4.287800
 22
1.319120
 13
4.925800
 23
1.690040
  0
POLYLINE
  8
0
  6
CONTINUOUS
 66
     1
 40
0.000000
 41
0.000000
  0
VERTEX
  8
0
  6
CONTINUOUS
 10
4.326960
 20
1.360920
  0
VERTEX
  8
0
  6
CONTINUOUS
 10
4.964960
 20
1.731400
  0
VERTEX
  8
0
  6
CONTINUOUS
 10
4.925800
 20
1.690040
  0
VERTEX
  8
0
  6
CONTINUOUS
 10
4.287800
 20
1.319120
  0
VERTEX
  8
0
  6
CONTINUOUS
 10
4.326960
 20
1.360920
  0
SEQEND
  8
0
  0
SOLID
  8
0
 62
    15
 10
4.747160
 20
2.517240
 11
5.385600
 21
2.887720
 12
4.724280
 22
2.495680
 13
5.362720
 23
2.866160
  0
POLYLINE
  8
0
  6
CONTINUOUS
 66
     1
 40
0.000000
 41
0.000000
  0
VERTEX
  8
0
  6
CONTINUOUS
 10
4.747160
 20
2.517240
  0
VERTEX
  8
0
  6
CONTINUOUS
 10
5.385600
 20
2.887720
  0
VERTEX
  8
0
  6
CONTINUOUS
 10
5.362720
 20
2.866160
  0
VERTEX
  8
0
  6
CONTINUOUS
 10
4.724280
 20
2.495680
  0
VERTEX
  8
0
  6
CONTINUOUS
 10
4.747160
 20
2.517240
  0
SEQEND
  8
0
  0
SOLID
  8
0
 62
    15
 10
4.724280
 20
2.495680
 11
5.362720
 21
2.866160
 12
4.702720
 22
2.469280
 13
5.340720
 23
2.839760
  0
POLYLINE
  8
0
  6
CONTINUOUS
 66
     1
 40
0.000000
 41
0.000000
  0
VERTEX
  8
0
  6
CONTINUOUS
 10
4.724280
 20
2.495680
  0
VERTEX
  8
0
  6
CONTINUOUS
 10
5.362720
 20
2.866160
  0
VERTEX
  8
0
  6
CONTINUOUS
 10
5.340720
 20
2.839760
  0
VERTEX
  8
0
  6
CONTINUOUS
 10
4.702720
 20
2.469280
  0
VERTEX
  8
0
  6
CONTINUOUS
 10
4.724280
 20
2.495680
  0
SEQEND
  8
0
  0
SOLID
  8
0
 62
    15
 10
4.702720
 20
2.469280
 11
5.340720
 21
2.839760
 12
4.682920
 22
2.437600
 13
5.321360
 23
2.808520
  0
POLYLINE
  8
0
  6
CONTINUOUS
 66
     1
 40
0.000000
 41
0.000000
  0
VERTEX
  8
0
  6
CONTINUOUS
 10
4.702720
 20
2.469280
  0
VERTEX
  8
0
  6
CONTINUOUS
 10
5.340720
 20
2.839760
  0
VERTEX
  8
0
  6
CONTINUOUS
 10
5.321360
 20
2.808520
  0
VERTEX
  8
0
  6
CONTINUOUS
 10
4.682920
 20
2.437600
  0
VERTEX
  8
0
  6
CONTINUOUS
 10
4.702720
 20
2.469280
  0
SEQEND
  8
0
  0
SOLID
  8
0
 62
    15
 10
4.682920
 20
2.437600
 11
5.321360
 21
2.808520
 12
4.665760
 22
2.399760
 13
5.304200
 23
2.770240
  0
POLYLINE
  8
0
  6
CONTINUOUS
 66
     1
 40
0.000000
 41
0.000000
  0
VERTEX
  8
0
  6
CONTINUOUS
 10
4.682920
 20
2.437600
  0
VERTEX
  8
0
  6
CONTINUOUS
 10
5.321360
 20
2.808520
  0
VERTEX
  8
0
  6
CONTINUOUS
 10
5.304200
 20
2.770240
  0
VERTEX
  8
0
  6
CONTINUOUS
 10
4.665760
 20
2.399760
  0
VERTEX
  8
0
  6
CONTINUOUS
 10
4.682920
 20
2.437600
  0
SEQEND
  8
0
  0
SOLID
  8
0
 62
    15
 10
4.665760
 20
2.399760
 11
5.304200
 21
2.770240
 12
4.651680
 22
2.354000
 13
5.290120
 23
2.724920
  0
POLYLINE
  8
0
  6
CONTINUOUS
 66
     1
 40
0.000000
 41
0.000000
  0
VERTEX
  8
0
  6
CONTINUOUS
 10
4.665760
 20
2.399760
  0
VERTEX
  8
0
  6
CONTINUOUS
 10
5.304200
 20
2.770240
  0
VERTEX
  8
0
  6
CONTINUOUS
 10
5.290120
 20
2.724920
  0
VERTEX
  8
0
  6
CONTINUOUS
 10
4.651680
 20
2.354000
  0
VERTEX
  8
0
  6
CONTINUOUS
 10
4.665760
 20
2.399760
  0
SEQEND
  8
0
  0
SOLID
  8
0
 62
    15
 10
4.651680
 20
2.354000
 11
5.290120
 21
2.724920
 12
4.641560
 22
2.300320
 13
5.280000
 23
2.670800
  0
POLYLINE
  8
0
  6
CONTINUOUS
 66
     1
 40
0.000000
 41
0.000000
  0
VERTEX
  8
0
  6
CONTINUOUS
 10
4.651680
 20
2.354000
  0
VERTEX
  8
0
  6
CONTINUOUS
 10
5.290120
 20
2.724920
  0
VERTEX
  8
0
  6
CONTINUOUS
 10
5.280000
 20
2.670800
  0
VERTEX
  8
0
  6
CONTINUOUS
 10
4.641560
 20
2.300320
  0
VERTEX
  8
0
  6
CONTINUOUS
 10
4.651680
 20
2.354000
  0
SEQEND
  8
0
  0
SOLID
  8
0
 62
    15
 10
4.512640
 20
2.042920
 11
5.151080
 21
2.413400
 12
4.512640
 22
1.953160
 13
5.151080
 23
2.323640
  0
POLYLINE
  8
0
  6
CONTINUOUS
 66
     1
 40
0.000000
 41
0.000000
  0
VERTEX
  8
0
  6
CONTINUOUS
 10
4.512640
 20
2.042920
  0
VERTEX
  8
0
  6
CONTINUOUS
 10
5.151080
 20
2.413400
  0
VERTEX
  8
0
  6
CONTINUOUS
 10
5.151080
 20
2.323640
  0
VERTEX
  8
0
  6
CONTINUOUS
 10
4.512640
 20
1.953160
  0
VERTEX
  8
0
  6
CONTINUOUS
 10
4.512640
 20
2.042920
  0
SEQEND
  8
0
  0
SOLID
  8
0
 62
    15
 10
4.641560
 20
2.300320
 11
5.280000
 21
2.670800
 12
4.641560
 22
2.042920
 13
5.280000
 23
2.413400
  0
POLYLINE
  8
0
  6
CONTINUOUS
 66
     1
 40
0.000000
 41
0.000000
  0
VERTEX
  8
0
  6
CONTINUOUS
 10
4.641560
 20
2.300320
  0
VERTEX
  8
0
  6
CONTINUOUS
 10
5.280000
 20
2.670800
  0
VERTEX
  8
0
  6
CONTINUOUS
 10
5.280000
 20
2.413400
  0
VERTEX
  8
0
  6
CONTINUOUS
 10
4.641560
 20
2.042920
  0
VERTEX
  8
0
  6
CONTINUOUS
 10
4.641560
 20
2.300320
  0
SEQEND
  8
0
  0
SOLID
  8
0
 62
    15
 10
4.512640
 20
1.953160
 11
5.151080
 21
2.323640
 12
4.574680
 22
1.921920
 13
5.213120
 23
2.292840
  0
POLYLINE
  8
0
  6
CONTINUOUS
 66
     1
 40
0.000000
 41
0.000000
  0
VERTEX
  8
0
  6
CONTINUOUS
 10
4.512640
 20
1.953160
  0
VERTEX
  8
0
  6
CONTINUOUS
 10
5.151080
 20
2.323640
  0
VERTEX
  8
0
  6
CONTINUOUS
 10
5.213120
 20
2.292840
  0
VERTEX
  8
0
  6
CONTINUOUS
 10
4.574680
 20
1.921920
  0
VERTEX
  8
0
  6
CONTINUOUS
 10
4.512640
 20
1.953160
  0
SEQEND
  8
0
  0
SOLID
  8
0
 62
    15
 10
4.574680
 20
1.921920
 11
5.213120
 21
2.292840
 12
4.623080
 22
1.888920
 13
5.261520
 23
2.259840
  0
POLYLINE
  8
0
  6
CONTINUOUS
 66
     1
 40
0.000000
 41
0.000000
  0
VERTEX
  8
0
  6
CONTINUOUS
 10
4.574680
 20
1.921920
  0
VERTEX
  8
0
  6
CONTINUOUS
 10
5.213120
 20
2.292840
  0
VERTEX
  8
0
  6
CONTINUOUS
 10
5.261520
 20
2.259840
  0
VERTEX
  8
0
  6
CONTINUOUS
 10
4.623080
 20
1.888920
  0
VERTEX
  8
0
  6
CONTINUOUS
 10
4.574680
 20
1.921920
  0
SEQEND
  8
0
  0
SOLID
  8
0
 62
    15
 10
4.623080
 20
1.888920
 11
5.261520
 21
2.259840
 12
4.659600
 22
1.854600
 13
5.298040
 23
2.225080
  0
POLYLINE
  8
0
  6
CONTINUOUS
 66
     1
 40
0.000000
 41
0.000000
  0
VERTEX
  8
0
  6
CONTINUOUS
 10
4.623080
 20
1.888920
  0
VERTEX
  8
0
  6
CONTINUOUS
 10
5.261520
 20
2.259840
  0
VERTEX
  8
0
  6
CONTINUOUS
 10
5.298040
 20
2.225080
  0
VERTEX
  8
0
  6
CONTINUOUS
 10
4.659600
 20
1.854600
  0
VERTEX
  8
0
  6
CONTINUOUS
 10
4.623080
 20
1.888920
  0
SEQEND
  8
0
  0
SOLID
  8
0
 62
    15
 10
4.659600
 20
1.854600
 11
5.298040
 21
2.225080
 12
4.685120
 22
1.818960
 13
5.323560
 23
2.189440
  0
POLYLINE
  8
0
  6
CONTINUOUS
 66
     1
 40
0.000000
 41
0.000000
  0
VERTEX
  8
0
  6
CONTINUOUS
 10
4.659600
 20
1.854600
  0
VERTEX
  8
0
  6
CONTINUOUS
 10
5.298040
 20
2.225080
  0
VERTEX
  8
0
  6
CONTINUOUS
 10
5.323560
 20
2.189440
  0
VERTEX
  8
0
  6
CONTINUOUS
 10
4.685120
 20
1.818960
  0
VERTEX
  8
0
  6
CONTINUOUS
 10
4.659600
 20
1.854600
  0
SEQEND
  8
0
  0
SOLID
  8
0
 62
    15
 10
4.685120
 20
1.818960
 11
5.323560
 21
2.189440
 12
4.700960
 22
1.782440
 13
5.338960
 23
2.152920
  0
POLYLINE
  8
0
  6
CONTINUOUS
 66
     1
 40
0.000000
 41
0.000000
  0
VERTEX
  8
0
  6
CONTINUOUS
 10
4.685120
 20
1.818960
  0
VERTEX
  8
0
  6
CONTINUOUS
 10
5.323560
 20
2.189440
  0
VERTEX
  8
0
  6
CONTINUOUS
 10
5.338960
 20
2.152920
  0
VERTEX
  8
0
  6
CONTINUOUS
 10
4.700960
 20
1.782440
  0
VERTEX
  8
0
  6
CONTINUOUS
 10
4.685120
 20
1.818960
  0
SEQEND
  8
0
  0
SOLID
  8
0
 62
    15
 10
4.700960
 20
1.782440
 11
5.338960
 21
2.152920
 12
4.707560
 22
1.745920
 13
5.346000
 23
2.116400
  0
POLYLINE
  8
0
  6
CONTINUOUS
 66
     1
 40
0.000000
 41
0.000000
  0
VERTEX
  8
0
  6
CONTINUOUS
 10
4.700960
 20
1.782440
  0
VERTEX
  8
0
  6
CONTINUOUS
 10
5.338960
 20
2.152920
  0
VERTEX
  8
0
  6
CONTINUOUS
 10
5.346000
 20
2.116400
  0
VERTEX
  8
0
  6
CONTINUOUS
 10
4.707560
 20
1.745920
  0
VERTEX
  8
0
  6
CONTINUOUS
 10
4.700960
 20
1.782440
  0
SEQEND
  8
0
  0
SOLID
  8
0
 62
    15
 10
4.707560
 20
1.745920
 11
5.346000
 21
2.116400
 12
4.707120
 22
1.709840
 13
5.345120
 23
2.080320
  0
POLYLINE
  8
0
  6
CONTINUOUS
 66
     1
 40
0.000000
 41
0.000000
  0
VERTEX
  8
0
  6
CONTINUOUS
 10
4.707560
 20
1.745920
  0
VERTEX
  8
0
  6
CONTINUOUS
 10
5.346000
 20
2.116400
  0
VERTEX
  8
0
  6
CONTINUOUS
 10
5.345120
 20
2.080320
  0
VERTEX
  8
0
  6
CONTINUOUS
 10
4.707120
 20
1.709840
  0
VERTEX
  8
0
  6
CONTINUOUS
 10
4.707560
 20
1.745920
  0
SEQEND
  8
0
  0
SOLID
  8
0
 62
    15
 10
4.707120
 20
1.709840
 11
5.345120
 21
2.080320
 12
4.699640
 22
1.674200
 13
5.338080
 23
2.045120
  0
POLYLINE
  8
0
  6
CONTINUOUS
 66
     1
 40
0.000000
 41
0.000000
  0
VERTEX
  8
0
  6
CONTINUOUS
 10
4.707120
 20
1.709840
  0
VERTEX
  8
0
  6
CONTINUOUS
 10
5.345120
 20
2.080320
  0
VERTEX
  8
0
  6
CONTINUOUS
 10
5.338080
 20
2.045120
  0
VERTEX
  8
0
  6
CONTINUOUS
 10
4.699640
 20
1.674200
  0
VERTEX
  8
0
  6
CONTINUOUS
 10
4.707120
 20
1.709840
  0
SEQEND
  8
0
  0
SOLID
  8
0
 62
    15
 10
4.699640
 20
1.674200
 11
5.338080
 21
2.045120
 12
4.687320
 22
1.640320
 13
5.325760
 23
2.010800
  0
POLYLINE
  8
0
  6
CONTINUOUS
 66
     1
 40
0.000000
 41
0.000000
  0
VERTEX
  8
0
  6
CONTINUOUS
 10
4.699640
 20
1.674200
  0
VERTEX
  8
0
  6
CONTINUOUS
 10
5.338080
 20
2.045120
  0
VERTEX
  8
0
  6
CONTINUOUS
 10
5.325760
 20
2.010800
  0
VERTEX
  8
0
  6
CONTINUOUS
 10
4.687320
 20
1.640320
  0
VERTEX
  8
0
  6
CONTINUOUS
 10
4.699640
 20
1.674200
  0
SEQEND
  8
0
  0
SOLID
  8
0
 62
    15
 10
4.687320
 20
1.640320
 11
5.325760
 21
2.010800
 12
4.670600
 22
1.607760
 13
5.309040
 23
1.978240
  0
POLYLINE
  8
0
  6
CONTINUOUS
 66
     1
 40
0.000000
 41
0.000000
  0
VERTEX
  8
0
  6
CONTINUOUS
 10
4.687320
 20
1.640320
  0
VERTEX
  8
0
  6
CONTINUOUS
 10
5.325760
 20
2.010800
  0
VERTEX
  8
0
  6
CONTINUOUS
 10
5.309040
 20
1.978240
  0
VERTEX
  8
0
  6
CONTINUOUS
 10
4.670600
 20
1.607760
  0
VERTEX
  8
0
  6
CONTINUOUS
 10
4.687320
 20
1.640320
  0
SEQEND
  8
0
  0
SOLID
  8
0
 62
    15
 10
4.670600
 20
1.607760
 11
5.309040
 21
1.978240
 12
4.629680
 22
1.550120
 13
5.267680
 23
1.921040
  0
POLYLINE
  8
0
  6
CONTINUOUS
 66
     1
 40
0.000000
 41
0.000000
  0
VERTEX
  8
0
  6
CONTINUOUS
 10
4.670600
 20
1.607760
  0
VERTEX
  8
0
  6
CONTINUOUS
 10
5.309040
 20
1.978240
  0
VERTEX
  8
0
  6
CONTINUOUS
 10
5.267680
 20
1.921040
  0
VERTEX
  8
0
  6
CONTINUOUS
 10
4.629680
 20
1.550120
  0
VERTEX
  8
0
  6
CONTINUOUS
 10
4.670600
 20
1.607760
  0
SEQEND
  8
0
  0
SOLID
  8
0
 62
    15
 10
4.629680
 20
1.550120
 11
5.267680
 21
1.921040
 12
4.585240
 22
1.505680
 13
5.223680
 23
1.876160
  0
POLYLINE
  8
0
  6
CONTINUOUS
 66
     1
 40
0.000000
 41
0.000000
  0
VERTEX
  8
0
  6
CONTINUOUS
 10
4.629680
 20
1.550120
  0
VERTEX
  8
0
  6
CONTINUOUS
 10
5.267680
 20
1.921040
  0
VERTEX
  8
0
  6
CONTINUOUS
 10
5.223680
 20
1.876160
  0
VERTEX
  8
0
  6
CONTINUOUS
 10
4.585240
 20
1.505680
  0
VERTEX
  8
0
  6
CONTINUOUS
 10
4.629680
 20
1.550120
  0
SEQEND
  8
0
  0
SOLID
  8
0
 62
    15
 10
4.565000
 20
1.489400
 11
5.203440
 21
1.859880
 12
4.547400
 22
1.477520
 13
5.185840
 23
1.848440
  0
POLYLINE
  8
0
  6
CONTINUOUS
 66
     1
 40
0.000000
 41
0.000000
  0
VERTEX
  8
0
  6
CONTINUOUS
 10
4.565000
 20
1.489400
  0
VERTEX
  8
0
  6
CONTINUOUS
 10
5.203440
 20
1.859880
  0
VERTEX
  8
0
  6
CONTINUOUS
 10
5.185840
 20
1.848440
  0
VERTEX
  8
0
  6
CONTINUOUS
 10
4.547400
 20
1.477520
  0
VERTEX
  8
0
  6
CONTINUOUS
 10
4.565000
 20
1.489400
  0
SEQEND
  8
0
  0
SOLID
  8
0
 62
    15
 10
4.585240
 20
1.505680
 11
5.223680
 21
1.876160
 12
4.565000
 22
1.489400
 13
5.203440
 23
1.859880
  0
POLYLINE
  8
0
  6
CONTINUOUS
 66
     1
 40
0.000000
 41
0.000000
  0
VERTEX
  8
0
  6
CONTINUOUS
 10
4.585240
 20
1.505680
  0
VERTEX
  8
0
  6
CONTINUOUS
 10
5.223680
 20
1.876160
  0
VERTEX
  8
0
  6
CONTINUOUS
 10
5.203440
 20
1.859880
  0
VERTEX
  8
0
  6
CONTINUOUS
 10
4.565000
 20
1.489400
  0
VERTEX
  8
0
  6
CONTINUOUS
 10
4.585240
 20
1.505680
  0
SEQEND
  8
0
  0
SOLID
  8
0
 62
    15
 10
4.794240
 20
2.552000
 11
5.432240
 21
2.922480
 12
4.747160
 22
2.517240
 13
5.385600
 23
2.887720
  0
POLYLINE
  8
0
  6
CONTINUOUS
 66
     1
 40
0.000000
 41
0.000000
  0
VERTEX
  8
0
  6
CONTINUOUS
 10
4.794240
 20
2.552000
  0
VERTEX
  8
0
  6
CONTINUOUS
 10
5.432240
 20
2.922480
  0
VERTEX
  8
0
  6
CONTINUOUS
 10
5.385600
 20
2.887720
  0
VERTEX
  8
0
  6
CONTINUOUS
 10
4.747160
 20
2.517240
  0
VERTEX
  8
0
  6
CONTINUOUS
 10
4.794240
 20
2.552000
  0
SEQEND
  8
0
  0
SOLID
  8
0
 62
    15
 10
4.371840
 20
1.393480
 11
5.010280
 21
1.764400
 12
4.326960
 22
1.360920
 13
4.964960
 23
1.731400
  0
POLYLINE
  8
0
  6
CONTINUOUS
 66
     1
 40
0.000000
 41
0.000000
  0
VERTEX
  8
0
  6
CONTINUOUS
 10
4.371840
 20
1.393480
  0
VERTEX
  8
0
  6
CONTINUOUS
 10
5.010280
 20
1.764400
  0
VERTEX
  8
0
  6
CONTINUOUS
 10
4.964960
 20
1.731400
  0
VERTEX
  8
0
  6
CONTINUOUS
 10
4.326960
 20
1.360920
  0
VERTEX
  8
0
  6
CONTINUOUS
 10
4.371840
 20
1.393480
  0
SEQEND
  8
0
  0
SOLID
  8
0
 62
    15
 10
4.287800
 20
1.319120
 11
4.925800
 21
1.690040
 12
4.271080
 22
1.294480
 13
4.909520
 23
1.665400
  0
POLYLINE
  8
0
  6
CONTINUOUS
 66
     1
 40
0.000000
 41
0.000000
  0
VERTEX
  8
0
  6
CONTINUOUS
 10
4.287800
 20
1.319120
  0
VERTEX
  8
0
  6
CONTINUOUS
 10
4.925800
 20
1.690040
  0
VERTEX
  8
0
  6
CONTINUOUS
 10
4.909520
 20
1.665400
  0
VERTEX
  8
0
  6
CONTINUOUS
 10
4.271080
 20
1.294480
  0
VERTEX
  8
0
  6
CONTINUOUS
 10
4.287800
 20
1.319120
  0
SEQEND
  8
0
  0
SOLID
  8
0
 62
    15
 10
4.271080
 20
1.294480
 11
4.909520
 21
1.665400
 12
4.257880
 22
1.266760
 13
4.896320
 23
1.637680
  0
POLYLINE
  8
0
  6
CONTINUOUS
 66
     1
 40
0.000000
 41
0.000000
  0
VERTEX
  8
0
  6
CONTINUOUS
 10
4.271080
 20
1.294480
  0
VERTEX
  8
0
  6
CONTINUOUS
 10
4.909520
 20
1.665400
  0
VERTEX
  8
0
  6
CONTINUOUS
 10
4.896320
 20
1.637680
  0
VERTEX
  8
0
  6
CONTINUOUS
 10
4.257880
 20
1.266760
  0
VERTEX
  8
0
  6
CONTINUOUS
 10
4.271080
 20
1.294480
  0
SEQEND
  8
0
  0
SOLID
  8
0
 62
    15
 10
4.257880
 20
1.266760
 11
4.896320
 21
1.637680
 12
4.247760
 22
1.235960
 13
4.885760
 23
1.606440
  0
POLYLINE
  8
0
  6
CONTINUOUS
 66
     1
 40
0.000000
 41
0.000000
  0
VERTEX
  8
0
  6
CONTINUOUS
 10
4.257880
 20
1.266760
  0
VERTEX
  8
0
  6
CONTINUOUS
 10
4.896320
 20
1.637680
  0
VERTEX
  8
0
  6
CONTINUOUS
 10
4.885760
 20
1.606440
  0
VERTEX
  8
0
  6
CONTINUOUS
 10
4.247760
 20
1.235960
  0
VERTEX
  8
0
  6
CONTINUOUS
 10
4.257880
 20
1.266760
  0
SEQEND
  8
0
  0
SOLID
  8
0
 62
    15
 10
4.247760
 20
1.235960
 11
4.885760
 21
1.606440
 12
4.240720
 22
1.201640
 13
4.879160
 23
1.572120
  0
POLYLINE
  8
0
  6
CONTINUOUS
 66
     1
 40
0.000000
 41
0.000000
  0
VERTEX
  8
0
  6
CONTINUOUS
 10
4.247760
 20
1.235960
  0
VERTEX
  8
0
  6
CONTINUOUS
 10
4.885760
 20
1.606440
  0
VERTEX
  8
0
  6
CONTINUOUS
 10
4.879160
 20
1.572120
  0
VERTEX
  8
0
  6
CONTINUOUS
 10
4.240720
 20
1.201640
  0
VERTEX
  8
0
  6
CONTINUOUS
 10
4.247760
 20
1.235960
  0
SEQEND
  8
0
  0
SOLID
  8
0
 62
    15
 10
4.240720
 20
1.201640
 11
4.879160
 21
1.572120
 12
4.246440
 22
1.185360
 13
4.884440
 23
1.555840
  0
POLYLINE
  8
0
  6
CONTINUOUS
 66
     1
 40
0.000000
 41
0.000000
  0
VERTEX
  8
0
  6
CONTINUOUS
 10
4.240720
 20
1.201640
  0
VERTEX
  8
0
  6
CONTINUOUS
 10
4.879160
 20
1.572120
  0
VERTEX
  8
0
  6
CONTINUOUS
 10
4.884440
 20
1.555840
  0
VERTEX
  8
0
  6
CONTINUOUS
 10
4.246440
 20
1.185360
  0
VERTEX
  8
0
  6
CONTINUOUS
 10
4.240720
 20
1.201640
  0
SEQEND
  8
0
  0
SOLID
  8
0
 62
    15
 10
4.246440
 20
1.185360
 11
4.884440
 21
1.555840
 12
4.255240
 22
1.172160
 13
4.893240
 23
1.543080
  0
POLYLINE
  8
0
  6
CONTINUOUS
 66
     1
 40
0.000000
 41
0.000000
  0
VERTEX
  8
0
  6
CONTINUOUS
 10
4.246440
 20
1.185360
  0
VERTEX
  8
0
  6
CONTINUOUS
 10
4.884440
 20
1.555840
  0
VERTEX
  8
0
  6
CONTINUOUS
 10
4.893240
 20
1.543080
  0
VERTEX
  8
0
  6
CONTINUOUS
 10
4.255240
 20
1.172160
  0
VERTEX
  8
0
  6
CONTINUOUS
 10
4.246440
 20
1.185360
  0
SEQEND
  8
0
  0
SOLID
  8
0
 62
    15
 10
4.255240
 20
1.172160
 11
4.893240
 21
1.543080
 12
4.281200
 22
1.152800
 13
4.919200
 23
1.523720
  0
POLYLINE
  8
0
  6
CONTINUOUS
 66
     1
 40
0.000000
 41
0.000000
  0
VERTEX
  8
0
  6
CONTINUOUS
 10
4.255240
 20
1.172160
  0
VERTEX
  8
0
  6
CONTINUOUS
 10
4.893240
 20
1.543080
  0
VERTEX
  8
0
  6
CONTINUOUS
 10
4.919200
 20
1.523720
  0
VERTEX
  8
0
  6
CONTINUOUS
 10
4.281200
 20
1.152800
  0
VERTEX
  8
0
  6
CONTINUOUS
 10
4.255240
 20
1.172160
  0
SEQEND
  8
0
  0
SOLID
  8
0
 62
    15
 10
4.281200
 20
1.152800
 11
4.919200
 21
1.523720
 12
4.315080
 22
1.136520
 13
4.953520
 23
1.507440
  0
POLYLINE
  8
0
  6
CONTINUOUS
 66
     1
 40
0.000000
 41
0.000000
  0
VERTEX
  8
0
  6
CONTINUOUS
 10
4.281200
 20
1.152800
  0
VERTEX
  8
0
  6
CONTINUOUS
 10
4.919200
 20
1.523720
  0
VERTEX
  8
0
  6
CONTINUOUS
 10
4.953520
 20
1.507440
  0
VERTEX
  8
0
  6
CONTINUOUS
 10
4.315080
 20
1.136520
  0
VERTEX
  8
0
  6
CONTINUOUS
 10
4.281200
 20
1.152800
  0
SEQEND
  8
0
  0
SOLID
  8
0
 62
    15
 10
4.315080
 20
1.136520
 11
4.953520
 21
1.507440
 12
4.354240
 22
1.116720
 13
4.992240
 23
1.487200
  0
POLYLINE
  8
0
  6
CONTINUOUS
 66
     1
 40
0.000000
 41
0.000000
  0
VERTEX
  8
0
  6
CONTINUOUS
 10
4.315080
 20
1.136520
  0
VERTEX
  8
0
  6
CONTINUOUS
 10
4.953520
 20
1.507440
  0
VERTEX
  8
0
  6
CONTINUOUS
 10
4.992240
 20
1.487200
  0
VERTEX
  8
0
  6
CONTINUOUS
 10
4.354240
 20
1.116720
  0
VERTEX
  8
0
  6
CONTINUOUS
 10
4.315080
 20
1.136520
  0
SEQEND
  8
0
  0
SOLID
  8
0
 62
    15
 10
4.354240
 20
1.116720
 11
4.992240
 21
1.487200
 12
4.363920
 22
1.108360
 13
5.001920
 23
1.479280
  0
POLYLINE
  8
0
  6
CONTINUOUS
 66
     1
 40
0.000000
 41
0.000000
  0
VERTEX
  8
0
  6
CONTINUOUS
 10
4.354240
 20
1.116720
  0
VERTEX
  8
0
  6
CONTINUOUS
 10
4.992240
 20
1.487200
  0
VERTEX
  8
0
  6
CONTINUOUS
 10
5.001920
 20
1.479280
  0
VERTEX
  8
0
  6
CONTINUOUS
 10
4.363920
 20
1.108360
  0
VERTEX
  8
0
  6
CONTINUOUS
 10
4.354240
 20
1.116720
  0
SEQEND
  8
0
  0
SOLID
  8
0
 62
    15
 10
4.363920
 20
1.108360
 11
5.001920
 21
1.479280
 12
4.372720
 22
1.096040
 13
5.011160
 23
1.466520
  0
POLYLINE
  8
0
  6
CONTINUOUS
 66
     1
 40
0.000000
 41
0.000000
  0
VERTEX
  8
0
  6
CONTINUOUS
 10
4.363920
 20
1.108360
  0
VERTEX
  8
0
  6
CONTINUOUS
 10
5.001920
 20
1.479280
  0
VERTEX
  8
0
  6
CONTINUOUS
 10
5.011160
 20
1.466520
  0
VERTEX
  8
0
  6
CONTINUOUS
 10
4.372720
 20
1.096040
  0
VERTEX
  8
0
  6
CONTINUOUS
 10
4.363920
 20
1.108360
  0
SEQEND
  8
0
  0
SOLID
  8
0
 62
    15
 10
4.372720
 20
1.096040
 11
5.011160
 21
1.466520
 12
4.387240
 22
1.060840
 13
5.025240
 23
1.431320
  0
POLYLINE
  8
0
  6
CONTINUOUS
 66
     1
 40
0.000000
 41
0.000000
  0
VERTEX
  8
0
  6
CONTINUOUS
 10
4.372720
 20
1.096040
  0
VERTEX
  8
0
  6
CONTINUOUS
 10
5.011160
 20
1.466520
  0
VERTEX
  8
0
  6
CONTINUOUS
 10
5.025240
 20
1.431320
  0
VERTEX
  8
0
  6
CONTINUOUS
 10
4.387240
 20
1.060840
  0
VERTEX
  8
0
  6
CONTINUOUS
 10
4.372720
 20
1.096040
  0
SEQEND
  8
0
  0
SOLID
  8
0
 62
    15
 10
4.387240
 20
1.060840
 11
5.025240
 21
1.431320
 12
4.393840
 22
1.016400
 13
5.032280
 23
1.386880
  0
POLYLINE
  8
0
  6
CONTINUOUS
 66
     1
 40
0.000000
 41
0.000000
  0
VERTEX
  8
0
  6
CONTINUOUS
 10
4.387240
 20
1.060840
  0
VERTEX
  8
0
  6
CONTINUOUS
 10
5.025240
 20
1.431320
  0
VERTEX
  8
0
  6
CONTINUOUS
 10
5.032280
 20
1.386880
  0
VERTEX
  8
0
  6
CONTINUOUS
 10
4.393840
 20
1.016400
  0
VERTEX
  8
0
  6
CONTINUOUS
 10
4.387240
 20
1.060840
  0
SEQEND
  8
0
  0
SOLID
  8
0
 62
    15
 10
4.393840
 20
1.016400
 11
5.032280
 21
1.386880
 12
4.390760
 22
0.967120
 13
5.029200
 23
1.337600
  0
POLYLINE
  8
0
  6
CONTINUOUS
 66
     1
 40
0.000000
 41
0.000000
  0
VERTEX
  8
0
  6
CONTINUOUS
 10
4.393840
 20
1.016400
  0
VERTEX
  8
0
  6
CONTINUOUS
 10
5.032280
 20
1.386880
  0
VERTEX
  8
0
  6
CONTINUOUS
 10
5.029200
 20
1.337600
  0
VERTEX
  8
0
  6
CONTINUOUS
 10
4.390760
 20
0.967120
  0
VERTEX
  8
0
  6
CONTINUOUS
 10
4.393840
 20
1.016400
  0
SEQEND
  8
0
  0
SOLID
  8
0
 62
    15
 10
4.390760
 20
0.967120
 11
5.029200
 21
1.337600
 12
4.374480
 22
0.918280
 13
5.012920
 23
1.289200
  0
POLYLINE
  8
0
  6
CONTINUOUS
 66
     1
 40
0.000000
 41
0.000000
  0
VERTEX
  8
0
  6
CONTINUOUS
 10
4.390760
 20
0.967120
  0
VERTEX
  8
0
  6
CONTINUOUS
 10
5.029200
 20
1.337600
  0
VERTEX
  8
0
  6
CONTINUOUS
 10
5.012920
 20
1.289200
  0
VERTEX
  8
0
  6
CONTINUOUS
 10
4.374480
 20
0.918280
  0
VERTEX
  8
0
  6
CONTINUOUS
 10
4.390760
 20
0.967120
  0
SEQEND
  8
0
  0
SOLID
  8
0
 62
    15
 10
4.220040
 20
0.822360
 11
4.858480
 21
1.193280
 12
4.220040
 22
0.689480
 13
4.858480
 23
1.060400
  0
POLYLINE
  8
0
  6
CONTINUOUS
 66
     1
 40
0.000000
 41
0.000000
  0
VERTEX
  8
0
  6
CONTINUOUS
 10
4.220040
 20
0.822360
  0
VERTEX
  8
0
  6
CONTINUOUS
 10
4.858480
 20
1.193280
  0
VERTEX
  8
0
  6
CONTINUOUS
 10
4.858480
 20
1.060400
  0
VERTEX
  8
0
  6
CONTINUOUS
 10
4.220040
 20
0.689480
  0
VERTEX
  8
0
  6
CONTINUOUS
 10
4.220040
 20
0.822360
  0
SEQEND
  8
0
  0
SOLID
  8
0
 62
    15
 10
4.342360
 20
0.874720
 11
4.980800
 21
1.245200
 12
4.319480
 22
0.856240
 13
4.957920
 23
1.227160
  0
POLYLINE
  8
0
  6
CONTINUOUS
 66
     1
 40
0.000000
 41
0.000000
  0
VERTEX
  8
0
  6
CONTINUOUS
 10
4.342360
 20
0.874720
  0
VERTEX
  8
0
  6
CONTINUOUS
 10
4.980800
 20
1.245200
  0
VERTEX
  8
0
  6
CONTINUOUS
 10
4.957920
 20
1.227160
  0
VERTEX
  8
0
  6
CONTINUOUS
 10
4.319480
 20
0.856240
  0
VERTEX
  8
0
  6
CONTINUOUS
 10
4.342360
 20
0.874720
  0
SEQEND
  8
0
  0
SOLID
  8
0
 62
    15
 10
4.360400
 20
0.895840
 11
4.998840
 21
1.266320
 12
4.342360
 22
0.874720
 13
4.980800
 23
1.245200
  0
POLYLINE
  8
0
  6
CONTINUOUS
 66
     1
 40
0.000000
 41
0.000000
  0
VERTEX
  8
0
  6
CONTINUOUS
 10
4.360400
 20
0.895840
  0
VERTEX
  8
0
  6
CONTINUOUS
 10
4.998840
 20
1.266320
  0
VERTEX
  8
0
  6
CONTINUOUS
 10
4.980800
 20
1.245200
  0
VERTEX
  8
0
  6
CONTINUOUS
 10
4.342360
 20
0.874720
  0
VERTEX
  8
0
  6
CONTINUOUS
 10
4.360400
 20
0.895840
  0
SEQEND
  8
0
  0
SOLID
  8
0
 62
    15
 10
4.374480
 20
0.918280
 11
5.012920
 21
1.289200
 12
4.360400
 22
0.895840
 13
4.998840
 23
1.266320
  0
POLYLINE
  8
0
  6
CONTINUOUS
 66
     1
 40
0.000000
 41
0.000000
  0
VERTEX
  8
0
  6
CONTINUOUS
 10
4.374480
 20
0.918280
  0
VERTEX
  8
0
  6
CONTINUOUS
 10
5.012920
 20
1.289200
  0
VERTEX
  8
0
  6
CONTINUOUS
 10
4.998840
 20
1.266320
  0
VERTEX
  8
0
  6
CONTINUOUS
 10
4.360400
 20
0.895840
  0
VERTEX
  8
0
  6
CONTINUOUS
 10
4.374480
 20
0.918280
  0
SEQEND
  8
0
  0
SOLID
  8
0
 62
    15
 10
3.996960
 20
4.365240
 11
4.635400
 21
4.735720
 12
4.794680
 22
4.365240
 13
5.433120
 23
4.735720
  0
POLYLINE
  8
0
  6
CONTINUOUS
 66
     1
 40
0.000000
 41
0.000000
  0
VERTEX
  8
0
  6
CONTINUOUS
 10
3.996960
 20
4.365240
  0
VERTEX
  8
0
  6
CONTINUOUS
 10
4.635400
 20
4.735720
  0
VERTEX
  8
0
  6
CONTINUOUS
 10
5.433120
 20
4.735720
  0
VERTEX
  8
0
  6
CONTINUOUS
 10
4.794680
 20
4.365240
  0
VERTEX
  8
0
  6
CONTINUOUS
 10
3.996960
 20
4.365240
  0
SEQEND
  8
0
  0
SOLID
  8
0
 62
    15
 10
4.794680
 20
4.365240
 11
5.433120
 21
4.735720
 12
4.794240
 22
2.552000
 13
5.432240
 23
2.922480
  0
POLYLINE
  8
0
  6
CONTINUOUS
 66
     1
 40
0.000000
 41
0.000000
  0
VERTEX
  8
0
  6
CONTINUOUS
 10
4.794680
 20
4.365240
  0
VERTEX
  8
0
  6
CONTINUOUS
 10
5.433120
 20
4.735720
  0
VERTEX
  8
0
  6
CONTINUOUS
 10
5.432240
 20
2.922480
  0
VERTEX
  8
0
  6
CONTINUOUS
 10
4.794240
 20
2.552000
  0
VERTEX
  8
0
  6
CONTINUOUS
 10
4.794680
 20
4.365240
  0
SEQEND
  8
0
  0
POLYLINE
  8
0
  6
CONTINUOUS
 66
     1
 40
0.000000
 41
0.000000
  0
VERTEX
  8
0
  6
CONTINUOUS
 10
4.794240
 20
2.552000
  0
VERTEX
  8
0
  6
CONTINUOUS
 10
4.747160
 20
2.517240
  0
VERTEX
  8
0
  6
CONTINUOUS
 10
4.724280
 20
2.495680
  0
VERTEX
  8
0
  6
CONTINUOUS
 10
4.702720
 20
2.469280
  0
VERTEX
  8
0
  6
CONTINUOUS
 10
4.682920
 20
2.437600
  0
VERTEX
  8
0
  6
CONTINUOUS
 10
4.665760
 20
2.399760
  0
VERTEX
  8
0
  6
CONTINUOUS
 10
4.651680
 20
2.354000
  0
VERTEX
  8
0
  6
CONTINUOUS
 10
4.641560
 20
2.300320
  0
VERTEX
  8
0
  6
CONTINUOUS
 10
4.641560
 20
2.042920
  0
VERTEX
  8
0
  6
CONTINUOUS
 10
4.512640
 20
2.042920
  0
VERTEX
  8
0
  6
CONTINUOUS
 10
4.512640
 20
1.953160
  0
VERTEX
  8
0
  6
CONTINUOUS
 10
4.574680
 20
1.921920
  0
VERTEX
  8
0
  6
CONTINUOUS
 10
4.623080
 20
1.888920
  0
VERTEX
  8
0
  6
CONTINUOUS
 10
4.659600
 20
1.854600
  0
VERTEX
  8
0
  6
CONTINUOUS
 10
4.685120
 20
1.818960
  0
VERTEX
  8
0
  6
CONTINUOUS
 10
4.700960
 20
1.782440
  0
VERTEX
  8
0
  6
CONTINUOUS
 10
4.707560
 20
1.745920
  0
VERTEX
  8
0
  6
CONTINUOUS
 10
4.707120
 20
1.709840
  0
VERTEX
  8
0
  6
CONTINUOUS
 10
4.699640
 20
1.674200
  0
VERTEX
  8
0
  6
CONTINUOUS
 10
4.687320
 20
1.640320
  0
VERTEX
  8
0
  6
CONTINUOUS
 10
4.670600
 20
1.607760
  0
VERTEX
  8
0
  6
CONTINUOUS
 10
4.629680
 20
1.550120
  0
VERTEX
  8
0
  6
CONTINUOUS
 10
4.585240
 20
1.505680
  0
VERTEX
  8
0
  6
CONTINUOUS
 10
4.565000
 20
1.489400
  0
VERTEX
  8
0
  6
CONTINUOUS
 10
4.547400
 20
1.477520
  0
VERTEX
  8
0
  6
CONTINUOUS
 10
4.511320
 20
1.459480
  0
VERTEX
  8
0
  6
CONTINUOUS
 10
4.420240
 20
1.419880
  0
VERTEX
  8
0
  6
CONTINUOUS
 10
4.371840
 20
1.393480
  0
VERTEX
  8
0
  6
CONTINUOUS
 10
4.326960
 20
1.360920
  0
VERTEX
  8
0
  6
CONTINUOUS
 10
4.287800
 20
1.319120
  0
VERTEX
  8
0
  6
CONTINUOUS
 10
4.271080
 20
1.294480
  0
VERTEX
  8
0
  6
CONTINUOUS
 10
4.257880
 20
1.266760
  0
VERTEX
  8
0
  6
CONTINUOUS
 10
4.247760
 20
1.235960
  0
VERTEX
  8
0
  6
CONTINUOUS
 10
4.240720
 20
1.201640
  0
VERTEX
  8
0
  6
CONTINUOUS
 10
4.246440
 20
1.185360
  0
VERTEX
  8
0
  6
CONTINUOUS
 10
4.255240
 20
1.172160
  0
VERTEX
  8
0
  6
CONTINUOUS
 10
4.281200
 20
1.152800
  0
VERTEX
  8
0
  6
CONTINUOUS
 10
4.354240
 20
1.116720
  0
VERTEX
  8
0
  6
CONTINUOUS
 10
4.363920
 20
1.108360
  0
VERTEX
  8
0
  6
CONTINUOUS
 10
4.372720
 20
1.096040
  0
VERTEX
  8
0
  6
CONTINUOUS
 10
4.387240
 20
1.060840
  0
VERTEX
  8
0
  6
CONTINUOUS
 10
4.393840
 20
1.016400
  0
VERTEX
  8
0
  6
CONTINUOUS
 10
4.390760
 20
0.967120
  0
VERTEX
  8
0
  6
CONTINUOUS
 10
4.374480
 20
0.918280
  0
VERTEX
  8
0
  6
CONTINUOUS
 10
4.360400
 20
0.895840
  0
VERTEX
  8
0
  6
CONTINUOUS
 10
4.342360
 20
0.874720
  0
VERTEX
  8
0
  6
CONTINUOUS
 10
4.319480
 20
0.856240
  0
VERTEX
  8
0
  6
CONTINUOUS
 10
4.291760
 20
0.841280
  0
VERTEX
  8
0
  6
CONTINUOUS
 10
4.258760
 20
0.829840
  0
VERTEX
  8
0
  6
CONTINUOUS
 10
4.220040
 20
0.822360
  0
VERTEX
  8
0
  6
CONTINUOUS
 10
4.220040
 20
0.689480
  0
VERTEX
  8
0
  6
CONTINUOUS
 10
3.996960
 20
0.689480
  0
VERTEX
  8
0
  6
CONTINUOUS
 10
3.996960
 20
4.365240
  0
VERTEX
  8
0
  6
CONTINUOUS
 10
4.794680
 20
4.365240
  0
VERTEX
  8
0
  6
CONTINUOUS
 10
4.794240
 20
2.552000
  0
SEQEND
  8
0
  0
SOLID
  8
0
 62
    15
 10
5.257120
 20
3.186920
 11
5.903920
 21
3.572800
 12
5.240400
 22
3.143360
 13
5.887200
 23
3.528800
  0
POLYLINE
  8
0
  6
CONTINUOUS
 66
     1
 40
0.000000
 41
0.000000
  0
VERTEX
  8
0
  6
CONTINUOUS
 10
5.257120
 20
3.186920
  0
VERTEX
  8
0
  6
CONTINUOUS
 10
5.903920
 20
3.572800
  0
VERTEX
  8
0
  6
CONTINUOUS
 10
5.887200
 20
3.528800
  0
VERTEX
  8
0
  6
CONTINUOUS
 10
5.240400
 20
3.143360
  0
VERTEX
  8
0
  6
CONTINUOUS
 10
5.257120
 20
3.186920
  0
SEQEND
  8
0
  0
SOLID
  8
0
 62
    15
 10
5.347760
 20
3.815240
 11
5.994560
 21
4.201120
 12
5.331040
 22
3.799840
 13
5.977840
 23
4.185280
  0
POLYLINE
  8
0
  6
CONTINUOUS
 66
     1
 40
0.000000
 41
0.000000
  0
VERTEX
  8
0
  6
CONTINUOUS
 10
5.347760
 20
3.815240
  0
VERTEX
  8
0
  6
CONTINUOUS
 10
5.994560
 20
4.201120
  0
VERTEX
  8
0
  6
CONTINUOUS
 10
5.977840
 20
4.185280
  0
VERTEX
  8
0
  6
CONTINUOUS
 10
5.331040
 20
3.799840
  0
VERTEX
  8
0
  6
CONTINUOUS
 10
5.347760
 20
3.815240
  0
SEQEND
  8
0
  0
SOLID
  8
0
 62
    15
 10
5.331040
 20
3.799840
 11
5.977840
 21
4.185280
 12
5.318720
 22
3.777840
 13
5.965520
 23
4.163280
  0
POLYLINE
  8
0
  6
CONTINUOUS
 66
     1
 40
0.000000
 41
0.000000
  0
VERTEX
  8
0
  6
CONTINUOUS
 10
5.331040
 20
3.799840
  0
VERTEX
  8
0
  6
CONTINUOUS
 10
5.977840
 20
4.185280
  0
VERTEX
  8
0
  6
CONTINUOUS
 10
5.965520
 20
4.163280
  0
VERTEX
  8
0
  6
CONTINUOUS
 10
5.318720
 20
3.777840
  0
VERTEX
  8
0
  6
CONTINUOUS
 10
5.331040
 20
3.799840
  0
SEQEND
  8
0
  0
SOLID
  8
0
 62
    15
 10
5.318720
 20
3.777840
 11
5.965520
 21
4.163280
 12
5.309920
 22
3.748360
 13
5.956720
 23
4.134240
  0
POLYLINE
  8
0
  6
CONTINUOUS
 66
     1
 40
0.000000
 41
0.000000
  0
VERTEX
  8
0
  6
CONTINUOUS
 10
5.318720
 20
3.777840
  0
VERTEX
  8
0
  6
CONTINUOUS
 10
5.965520
 20
4.163280
  0
VERTEX
  8
0
  6
CONTINUOUS
 10
5.956720
 20
4.134240
  0
VERTEX
  8
0
  6
CONTINUOUS
 10
5.309920
 20
3.748360
  0
VERTEX
  8
0
  6
CONTINUOUS
 10
5.318720
 20
3.777840
  0
SEQEND
  8
0
  0
SOLID
  8
0
 62
    15
 10
5.428720
 20
4.349400
 11
6.075960
 21
4.735280
 12
5.428720
 22
3.839000
 13
6.075960
 23
4.224440
  0
POLYLINE
  8
0
  6
CONTINUOUS
 66
     1
 40
0.000000
 41
0.000000
  0
VERTEX
  8
0
  6
CONTINUOUS
 10
5.428720
 20
4.349400
  0
VERTEX
  8
0
  6
CONTINUOUS
 10
6.075960
 20
4.735280
  0
VERTEX
  8
0
  6
CONTINUOUS
 10
6.075960
 20
4.224440
  0
VERTEX
  8
0
  6
CONTINUOUS
 10
5.428720
 20
3.839000
  0
VERTEX
  8
0
  6
CONTINUOUS
 10
5.428720
 20
4.349400
  0
SEQEND
  8
0
  0
SOLID
  8
0
 62
    15
 10
5.309920
 20
3.748360
 11
5.956720
 21
4.134240
 12
5.304640
 22
3.710520
 13
5.951440
 23
4.095960
  0
POLYLINE
  8
0
  6
CONTINUOUS
 66
     1
 40
0.000000
 41
0.000000
  0
VERTEX
  8
0
  6
CONTINUOUS
 10
5.309920
 20
3.748360
  0
VERTEX
  8
0
  6
CONTINUOUS
 10
5.956720
 20
4.134240
  0
VERTEX
  8
0
  6
CONTINUOUS
 10
5.951440
 20
4.095960
  0
VERTEX
  8
0
  6
CONTINUOUS
 10
5.304640
 20
3.710520
  0
VERTEX
  8
0
  6
CONTINUOUS
 10
5.309920
 20
3.748360
  0
SEQEND
  8
0
  0
SOLID
  8
0
 62
    15
 10
5.304640
 20
3.710520
 11
5.951440
 21
4.095960
 12
5.302000
 22
3.662120
 13
5.948800
 23
4.048000
  0
POLYLINE
  8
0
  6
CONTINUOUS
 66
     1
 40
0.000000
 41
0.000000
  0
VERTEX
  8
0
  6
CONTINUOUS
 10
5.304640
 20
3.710520
  0
VERTEX
  8
0
  6
CONTINUOUS
 10
5.951440
 20
4.095960
  0
VERTEX
  8
0
  6
CONTINUOUS
 10
5.948800
 20
4.048000
  0
VERTEX
  8
0
  6
CONTINUOUS
 10
5.302000
 20
3.662120
  0
VERTEX
  8
0
  6
CONTINUOUS
 10
5.304640
 20
3.710520
  0
SEQEND
  8
0
  0
SOLID
  8
0
 62
    15
 10
5.199480
 20
3.399000
 11
5.846720
 21
3.784880
 12
5.199920
 22
3.387120
 13
5.846720
 23
3.773000
  0
POLYLINE
  8
0
  6
CONTINUOUS
 66
     1
 40
0.000000
 41
0.000000
  0
VERTEX
  8
0
  6
CONTINUOUS
 10
5.199480
 20
3.399000
  0
VERTEX
  8
0
  6
CONTINUOUS
 10
5.846720
 20
3.784880
  0
VERTEX
  8
0
  6
CONTINUOUS
 10
5.846720
 20
3.773000
  0
VERTEX
  8
0
  6
CONTINUOUS
 10
5.199920
 20
3.387120
  0
VERTEX
  8
0
  6
CONTINUOUS
 10
5.199480
 20
3.399000
  0
SEQEND
  8
0
  0
SOLID
  8
0
 62
     7
 10
5.199920
 20
3.387120
 11
5.846720
 21
3.773000
 12
5.222360
 22
3.362920
 13
5.869160
 23
3.748360
  0
POLYLINE
  8
0
  6
CONTINUOUS
 66
     1
 40
0.000000
 41
0.000000
  0
VERTEX
  8
0
  6
CONTINUOUS
 10
5.199920
 20
3.387120
  0
VERTEX
  8
0
  6
CONTINUOUS
 10
5.846720
 20
3.773000
  0
VERTEX
  8
0
  6
CONTINUOUS
 10
5.869160
 20
3.748360
  0
VERTEX
  8
0
  6
CONTINUOUS
 10
5.222360
 20
3.362920
  0
VERTEX
  8
0
  6
CONTINUOUS
 10
5.199920
 20
3.387120
  0
SEQEND
  8
0
  0
SOLID
  8
0
 62
     7
 10
5.222360
 20
3.362920
 11
5.869160
 21
3.748360
 12
5.239520
 22
3.337840
 13
5.886320
 23
3.723280
  0
POLYLINE
  8
0
  6
CONTINUOUS
 66
     1
 40
0.000000
 41
0.000000
  0
VERTEX
  8
0
  6
CONTINUOUS
 10
5.222360
 20
3.362920
  0
VERTEX
  8
0
  6
CONTINUOUS
 10
5.869160
 20
3.748360
  0
VERTEX
  8
0
  6
CONTINUOUS
 10
5.886320
 20
3.723280
  0
VERTEX
  8
0
  6
CONTINUOUS
 10
5.239520
 20
3.337840
  0
VERTEX
  8
0
  6
CONTINUOUS
 10
5.222360
 20
3.362920
  0
SEQEND
  8
0
  0
SOLID
  8
0
 62
    15
 10
5.302000
 20
3.662120
 11
5.948800
 21
4.048000
 12
5.302000
 22
3.399000
 13
5.948800
 23
3.784880
  0
POLYLINE
  8
0
  6
CONTINUOUS
 66
     1
 40
0.000000
 41
0.000000
  0
VERTEX
  8
0
  6
CONTINUOUS
 10
5.302000
 20
3.662120
  0
VERTEX
  8
0
  6
CONTINUOUS
 10
5.948800
 20
4.048000
  0
VERTEX
  8
0
  6
CONTINUOUS
 10
5.948800
 20
3.784880
  0
VERTEX
  8
0
  6
CONTINUOUS
 10
5.302000
 20
3.399000
  0
VERTEX
  8
0
  6
CONTINUOUS
 10
5.302000
 20
3.662120
  0
SEQEND
  8
0
  0
SOLID
  8
0
 62
     7
 10
5.239520
 20
3.337840
 11
5.886320
 21
3.723280
 12
5.251840
 22
3.312320
 13
5.898640
 23
3.697760
  0
POLYLINE
  8
0
  6
CONTINUOUS
 66
     1
 40
0.000000
 41
0.000000
  0
VERTEX
  8
0
  6
CONTINUOUS
 10
5.239520
 20
3.337840
  0
VERTEX
  8
0
  6
CONTINUOUS
 10
5.886320
 20
3.723280
  0
VERTEX
  8
0
  6
CONTINUOUS
 10
5.898640
 20
3.697760
  0
VERTEX
  8
0
  6
CONTINUOUS
 10
5.251840
 20
3.312320
  0
VERTEX
  8
0
  6
CONTINUOUS
 10
5.239520
 20
3.337840
  0
SEQEND
  8
0
  0
SOLID
  8
0
 62
     7
 10
5.251840
 20
3.312320
 11
5.898640
 21
3.697760
 12
5.260200
 22
3.286360
 13
5.907000
 23
3.672240
  0
POLYLINE
  8
0
  6
CONTINUOUS
 66
     1
 40
0.000000
 41
0.000000
  0
VERTEX
  8
0
  6
CONTINUOUS
 10
5.251840
 20
3.312320
  0
VERTEX
  8
0
  6
CONTINUOUS
 10
5.898640
 20
3.697760
  0
VERTEX
  8
0
  6
CONTINUOUS
 10
5.907000
 20
3.672240
  0
VERTEX
  8
0
  6
CONTINUOUS
 10
5.260200
 20
3.286360
  0
VERTEX
  8
0
  6
CONTINUOUS
 10
5.251840
 20
3.312320
  0
SEQEND
  8
0
  0
SOLID
  8
0
 62
    15
 10
5.260200
 20
3.286360
 11
5.907000
 21
3.672240
 12
5.264160
 22
3.260840
 13
5.910960
 23
3.646280
  0
POLYLINE
  8
0
  6
CONTINUOUS
 66
     1
 40
0.000000
 41
0.000000
  0
VERTEX
  8
0
  6
CONTINUOUS
 10
5.260200
 20
3.286360
  0
VERTEX
  8
0
  6
CONTINUOUS
 10
5.907000
 20
3.672240
  0
VERTEX
  8
0
  6
CONTINUOUS
 10
5.910960
 20
3.646280
  0
VERTEX
  8
0
  6
CONTINUOUS
 10
5.264160
 20
3.260840
  0
VERTEX
  8
0
  6
CONTINUOUS
 10
5.260200
 20
3.286360
  0
SEQEND
  8
0
  0
SOLID
  8
0
 62
    15
 10
5.264160
 20
3.260840
 11
5.910960
 21
3.646280
 12
5.264600
 22
3.235320
 13
5.911400
 23
3.621200
  0
POLYLINE
  8
0
  6
CONTINUOUS
 66
     1
 40
0.000000
 41
0.000000
  0
VERTEX
  8
0
  6
CONTINUOUS
 10
5.264160
 20
3.260840
  0
VERTEX
  8
0
  6
CONTINUOUS
 10
5.910960
 20
3.646280
  0
VERTEX
  8
0
  6
CONTINUOUS
 10
5.911400
 20
3.621200
  0
VERTEX
  8
0
  6
CONTINUOUS
 10
5.264600
 20
3.235320
  0
VERTEX
  8
0
  6
CONTINUOUS
 10
5.264160
 20
3.260840
  0
SEQEND
  8
0
  0
SOLID
  8
0
 62
    15
 10
5.264600
 20
3.235320
 11
5.911400
 21
3.621200
 12
5.257120
 22
3.186920
 13
5.903920
 23
3.572800
  0
POLYLINE
  8
0
  6
CONTINUOUS
 66
     1
 40
0.000000
 41
0.000000
  0
VERTEX
  8
0
  6
CONTINUOUS
 10
5.264600
 20
3.235320
  0
VERTEX
  8
0
  6
CONTINUOUS
 10
5.911400
 20
3.621200
  0
VERTEX
  8
0
  6
CONTINUOUS
 10
5.903920
 20
3.572800
  0
VERTEX
  8
0
  6
CONTINUOUS
 10
5.257120
 20
3.186920
  0
VERTEX
  8
0
  6
CONTINUOUS
 10
5.264600
 20
3.235320
  0
SEQEND
  8
0
  0
SOLID
  8
0
 62
    15
 10
4.792480
 20
4.349400
 11
5.439280
 21
4.735280
 12
5.428720
 22
4.349400
 13
6.075960
 23
4.735280
  0
POLYLINE
  8
0
  6
CONTINUOUS
 66
     1
 40
0.000000
 41
0.000000
  0
VERTEX
  8
0
  6
CONTINUOUS
 10
4.792480
 20
4.349400
  0
VERTEX
  8
0
  6
CONTINUOUS
 10
5.439280
 20
4.735280
  0
VERTEX
  8
0
  6
CONTINUOUS
 10
6.075960
 20
4.735280
  0
VERTEX
  8
0
  6
CONTINUOUS
 10
5.428720
 20
4.349400
  0
VERTEX
  8
0
  6
CONTINUOUS
 10
4.792480
 20
4.349400
  0
SEQEND
  8
0
  0
SOLID
  8
0
 62
    15
 10
5.240400
 20
3.143360
 11
5.887200
 21
3.528800
 12
5.218840
 22
3.106840
 13
5.865640
 23
3.492280
  0
POLYLINE
  8
0
  6
CONTINUOUS
 66
     1
 40
0.000000
 41
0.000000
  0
VERTEX
  8
0
  6
CONTINUOUS
 10
5.240400
 20
3.143360
  0
VERTEX
  8
0
  6
CONTINUOUS
 10
5.887200
 20
3.528800
  0
VERTEX
  8
0
  6
CONTINUOUS
 10
5.865640
 20
3.492280
  0
VERTEX
  8
0
  6
CONTINUOUS
 10
5.218840
 20
3.106840
  0
VERTEX
  8
0
  6
CONTINUOUS
 10
5.240400
 20
3.143360
  0
SEQEND
  8
0
  0
SOLID
  8
0
 62
    15
 10
5.127760
 20
3.042600
 11
5.774560
 21
3.428480
 12
5.103120
 22
3.025440
 13
5.749920
 23
3.410880
  0
POLYLINE
  8
0
  6
CONTINUOUS
 66
     1
 40
0.000000
 41
0.000000
  0
VERTEX
  8
0
  6
CONTINUOUS
 10
5.127760
 20
3.042600
  0
VERTEX
  8
0
  6
CONTINUOUS
 10
5.774560
 20
3.428480
  0
VERTEX
  8
0
  6
CONTINUOUS
 10
5.749920
 20
3.410880
  0
VERTEX
  8
0
  6
CONTINUOUS
 10
5.103120
 20
3.025440
  0
VERTEX
  8
0
  6
CONTINUOUS
 10
5.127760
 20
3.042600
  0
SEQEND
  8
0
  0
SOLID
  8
0
 62
    15
 10
5.103120
 20
3.025440
 11
5.749920
 21
3.410880
 12
5.078480
 22
2.999040
 13
5.725720
 23
3.384920
  0
POLYLINE
  8
0
  6
CONTINUOUS
 66
     1
 40
0.000000
 41
0.000000
  0
VERTEX
  8
0
  6
CONTINUOUS
 10
5.103120
 20
3.025440
  0
VERTEX
  8
0
  6
CONTINUOUS
 10
5.749920
 20
3.410880
  0
VERTEX
  8
0
  6
CONTINUOUS
 10
5.725720
 20
3.384920
  0
VERTEX
  8
0
  6
CONTINUOUS
 10
5.078480
 20
2.999040
  0
VERTEX
  8
0
  6
CONTINUOUS
 10
5.103120
 20
3.025440
  0
SEQEND
  8
0
  0
SOLID
  8
0
 62
    15
 10
5.183640
 20
3.069880
 11
5.830440
 21
3.455760
 12
5.173080
 22
3.063720
 13
5.819880
 23
3.449160
  0
POLYLINE
  8
0
  6
CONTINUOUS
 66
     1
 40
0.000000
 41
0.000000
  0
VERTEX
  8
0
  6
CONTINUOUS
 10
5.183640
 20
3.069880
  0
VERTEX
  8
0
  6
CONTINUOUS
 10
5.830440
 20
3.455760
  0
VERTEX
  8
0
  6
CONTINUOUS
 10
5.819880
 20
3.449160
  0
VERTEX
  8
0
  6
CONTINUOUS
 10
5.173080
 20
3.063720
  0
VERTEX
  8
0
  6
CONTINUOUS
 10
5.183640
 20
3.069880
  0
SEQEND
  8
0
  0
SOLID
  8
0
 62
    15
 10
5.218840
 20
3.106840
 11
5.865640
 21
3.492280
 12
5.195080
 22
3.079560
 13
5.841880
 23
3.465000
  0
POLYLINE
  8
0
  6
CONTINUOUS
 66
     1
 40
0.000000
 41
0.000000
  0
VERTEX
  8
0
  6
CONTINUOUS
 10
5.218840
 20
3.106840
  0
VERTEX
  8
0
  6
CONTINUOUS
 10
5.865640
 20
3.492280
  0
VERTEX
  8
0
  6
CONTINUOUS
 10
5.841880
 20
3.465000
  0
VERTEX
  8
0
  6
CONTINUOUS
 10
5.195080
 20
3.079560
  0
VERTEX
  8
0
  6
CONTINUOUS
 10
5.218840
 20
3.106840
  0
SEQEND
  8
0
  0
SOLID
  8
0
 62
    15
 10
5.195080
 20
3.079560
 11
5.841880
 21
3.465000
 12
5.183640
 22
3.069880
 13
5.830440
 23
3.455760
  0
POLYLINE
  8
0
  6
CONTINUOUS
 66
     1
 40
0.000000
 41
0.000000
  0
VERTEX
  8
0
  6
CONTINUOUS
 10
5.195080
 20
3.079560
  0
VERTEX
  8
0
  6
CONTINUOUS
 10
5.841880
 20
3.465000
  0
VERTEX
  8
0
  6
CONTINUOUS
 10
5.830440
 20
3.455760
  0
VERTEX
  8
0
  6
CONTINUOUS
 10
5.183640
 20
3.069880
  0
VERTEX
  8
0
  6
CONTINUOUS
 10
5.195080
 20
3.079560
  0
SEQEND
  8
0
  0
SOLID
  8
0
 62
    15
 10
5.078480
 20
2.999040
 11
5.725720
 21
3.384920
 12
5.067040
 22
2.981440
 13
5.713840
 23
3.367320
  0
POLYLINE
  8
0
  6
CONTINUOUS
 66
     1
 40
0.000000
 41
0.000000
  0
VERTEX
  8
0
  6
CONTINUOUS
 10
5.078480
 20
2.999040
  0
VERTEX
  8
0
  6
CONTINUOUS
 10
5.725720
 20
3.384920
  0
VERTEX
  8
0
  6
CONTINUOUS
 10
5.713840
 20
3.367320
  0
VERTEX
  8
0
  6
CONTINUOUS
 10
5.067040
 20
2.981440
  0
VERTEX
  8
0
  6
CONTINUOUS
 10
5.078480
 20
2.999040
  0
SEQEND
  8
0
  0
SOLID
  8
0
 62
    15
 10
5.067040
 20
2.981440
 11
5.713840
 21
3.367320
 12
5.055600
 22
2.960760
 13
5.702840
 23
3.346200
  0
POLYLINE
  8
0
  6
CONTINUOUS
 66
     1
 40
0.000000
 41
0.000000
  0
VERTEX
  8
0
  6
CONTINUOUS
 10
5.067040
 20
2.981440
  0
VERTEX
  8
0
  6
CONTINUOUS
 10
5.713840
 20
3.367320
  0
VERTEX
  8
0
  6
CONTINUOUS
 10
5.702840
 20
3.346200
  0
VERTEX
  8
0
  6
CONTINUOUS
 10
5.055600
 20
2.960760
  0
VERTEX
  8
0
  6
CONTINUOUS
 10
5.067040
 20
2.981440
  0
SEQEND
  8
0
  0
SOLID
  8
0
 62
    15
 10
5.055600
 20
2.960760
 11
5.702840
 21
3.346200
 12
5.045480
 22
2.936120
 13
5.692280
 23
3.321560
  0
POLYLINE
  8
0
  6
CONTINUOUS
 66
     1
 40
0.000000
 41
0.000000
  0
VERTEX
  8
0
  6
CONTINUOUS
 10
5.055600
 20
2.960760
  0
VERTEX
  8
0
  6
CONTINUOUS
 10
5.702840
 20
3.346200
  0
VERTEX
  8
0
  6
CONTINUOUS
 10
5.692280
 20
3.321560
  0
VERTEX
  8
0
  6
CONTINUOUS
 10
5.045480
 20
2.936120
  0
VERTEX
  8
0
  6
CONTINUOUS
 10
5.055600
 20
2.960760
  0
SEQEND
  8
0
  0
SOLID
  8
0
 62
    15
 10
5.045480
 20
2.936120
 11
5.692280
 21
3.321560
 12
5.035800
 22
2.907080
 13
5.682600
 23
3.292520
  0
POLYLINE
  8
0
  6
CONTINUOUS
 66
     1
 40
0.000000
 41
0.000000
  0
VERTEX
  8
0
  6
CONTINUOUS
 10
5.045480
 20
2.936120
  0
VERTEX
  8
0
  6
CONTINUOUS
 10
5.692280
 20
3.321560
  0
VERTEX
  8
0
  6
CONTINUOUS
 10
5.682600
 20
3.292520
  0
VERTEX
  8
0
  6
CONTINUOUS
 10
5.035800
 20
2.907080
  0
VERTEX
  8
0
  6
CONTINUOUS
 10
5.045480
 20
2.936120
  0
SEQEND
  8
0
  0
SOLID
  8
0
 62
    15
 10
5.035800
 20
2.907080
 11
5.682600
 21
3.292520
 12
5.027000
 22
2.873200
 13
5.673800
 23
3.259080
  0
POLYLINE
  8
0
  6
CONTINUOUS
 66
     1
 40
0.000000
 41
0.000000
  0
VERTEX
  8
0
  6
CONTINUOUS
 10
5.035800
 20
2.907080
  0
VERTEX
  8
0
  6
CONTINUOUS
 10
5.682600
 20
3.292520
  0
VERTEX
  8
0
  6
CONTINUOUS
 10
5.673800
 20
3.259080
  0
VERTEX
  8
0
  6
CONTINUOUS
 10
5.027000
 20
2.873200
  0
VERTEX
  8
0
  6
CONTINUOUS
 10
5.035800
 20
2.907080
  0
SEQEND
  8
0
  0
SOLID
  8
0
 62
    15
 10
5.027000
 20
2.873200
 11
5.673800
 21
3.259080
 12
5.019960
 22
2.834920
 13
5.666760
 23
3.220360
  0
POLYLINE
  8
0
  6
CONTINUOUS
 66
     1
 40
0.000000
 41
0.000000
  0
VERTEX
  8
0
  6
CONTINUOUS
 10
5.027000
 20
2.873200
  0
VERTEX
  8
0
  6
CONTINUOUS
 10
5.673800
 20
3.259080
  0
VERTEX
  8
0
  6
CONTINUOUS
 10
5.666760
 20
3.220360
  0
VERTEX
  8
0
  6
CONTINUOUS
 10
5.019960
 20
2.834920
  0
VERTEX
  8
0
  6
CONTINUOUS
 10
5.027000
 20
2.873200
  0
SEQEND
  8
0
  0
SOLID
  8
0
 62
    15
 10
5.019960
 20
2.834920
 11
5.666760
 21
3.220360
 12
5.013800
 22
2.790480
 13
5.660600
 23
3.176360
  0
POLYLINE
  8
0
  6
CONTINUOUS
 66
     1
 40
0.000000
 41
0.000000
  0
VERTEX
  8
0
  6
CONTINUOUS
 10
5.019960
 20
2.834920
  0
VERTEX
  8
0
  6
CONTINUOUS
 10
5.666760
 20
3.220360
  0
VERTEX
  8
0
  6
CONTINUOUS
 10
5.660600
 20
3.176360
  0
VERTEX
  8
0
  6
CONTINUOUS
 10
5.013800
 20
2.790480
  0
VERTEX
  8
0
  6
CONTINUOUS
 10
5.019960
 20
2.834920
  0
SEQEND
  8
0
  0
SOLID
  8
0
 62
    15
 10
5.013800
 20
2.790480
 11
5.660600
 21
3.176360
 12
5.009400
 22
2.740760
 13
5.656200
 23
3.126200
  0
POLYLINE
  8
0
  6
CONTINUOUS
 66
     1
 40
0.000000
 41
0.000000
  0
VERTEX
  8
0
  6
CONTINUOUS
 10
5.013800
 20
2.790480
  0
VERTEX
  8
0
  6
CONTINUOUS
 10
5.660600
 20
3.176360
  0
VERTEX
  8
0
  6
CONTINUOUS
 10
5.656200
 20
3.126200
  0
VERTEX
  8
0
  6
CONTINUOUS
 10
5.009400
 20
2.740760
  0
VERTEX
  8
0
  6
CONTINUOUS
 10
5.013800
 20
2.790480
  0
SEQEND
  8
0
  0
SOLID
  8
0
 62
    15
 10
5.009400
 20
2.740760
 11
5.656200
 21
3.126200
 12
5.009400
 22
2.718320
 13
5.656200
 23
3.104200
  0
POLYLINE
  8
0
  6
CONTINUOUS
 66
     1
 40
0.000000
 41
0.000000
  0
VERTEX
  8
0
  6
CONTINUOUS
 10
5.009400
 20
2.740760
  0
VERTEX
  8
0
  6
CONTINUOUS
 10
5.656200
 20
3.126200
  0
VERTEX
  8
0
  6
CONTINUOUS
 10
5.656200
 20
3.104200
  0
VERTEX
  8
0
  6
CONTINUOUS
 10
5.009400
 20
2.718320
  0
VERTEX
  8
0
  6
CONTINUOUS
 10
5.009400
 20
2.740760
  0
SEQEND
  8
0
  0
POLYLINE
  8
0
  6
CONTINUOUS
 66
     1
 40
0.000000
 41
0.000000
  0
VERTEX
  8
0
  6
CONTINUOUS
 10
5.009400
 20
2.718320
  0
VERTEX
  8
0
  6
CONTINUOUS
 10
5.656200
 20
3.104200
  0
VERTEX
  8
0
  6
CONTINUOUS
 10
5.009400
 20
2.718320
  0
SEQEND
  8
0
  0
POLYLINE
  8
0
  6
CONTINUOUS
 66
     1
 40
0.000000
 41
0.000000
  0
VERTEX
  8
0
  6
CONTINUOUS
 10
5.009400
 20
2.718320
  0
VERTEX
  8
0
  6
CONTINUOUS
 10
4.792480
 20
2.718320
  0
VERTEX
  8
0
  6
CONTINUOUS
 10
4.792480
 20
4.349400
  0
VERTEX
  8
0
  6
CONTINUOUS
 10
5.428720
 20
4.349400
  0
VERTEX
  8
0
  6
CONTINUOUS
 10
5.428720
 20
3.839000
  0
VERTEX
  8
0
  6
CONTINUOUS
 10
5.396160
 20
3.833720
  0
VERTEX
  8
0
  6
CONTINUOUS
 10
5.369320
 20
3.826240
  0
VERTEX
  8
0
  6
CONTINUOUS
 10
5.347760
 20
3.815240
  0
VERTEX
  8
0
  6
CONTINUOUS
 10
5.331040
 20
3.799840
  0
VERTEX
  8
0
  6
CONTINUOUS
 10
5.318720
 20
3.777840
  0
VERTEX
  8
0
  6
CONTINUOUS
 10
5.309920
 20
3.748360
  0
VERTEX
  8
0
  6
CONTINUOUS
 10
5.304640
 20
3.710520
  0
VERTEX
  8
0
  6
CONTINUOUS
 10
5.302000
 20
3.662120
  0
VERTEX
  8
0
  6
CONTINUOUS
 10
5.302000
 20
3.399000
  0
VERTEX
  8
0
  6
CONTINUOUS
 10
5.199480
 20
3.399000
  0
VERTEX
  8
0
  6
CONTINUOUS
 10
5.199920
 20
3.387120
  0
VERTEX
  8
0
  6
CONTINUOUS
 10
5.222360
 20
3.362920
  0
VERTEX
  8
0
  6
CONTINUOUS
 10
5.239520
 20
3.337840
  0
VERTEX
  8
0
  6
CONTINUOUS
 10
5.251840
 20
3.312320
  0
VERTEX
  8
0
  6
CONTINUOUS
 10
5.260200
 20
3.286360
  0
VERTEX
  8
0
  6
CONTINUOUS
 10
5.264160
 20
3.260840
  0
VERTEX
  8
0
  6
CONTINUOUS
 10
5.264600
 20
3.235320
  0
VERTEX
  8
0
  6
CONTINUOUS
 10
5.257120
 20
3.186920
  0
VERTEX
  8
0
  6
CONTINUOUS
 10
5.240400
 20
3.143360
  0
VERTEX
  8
0
  6
CONTINUOUS
 10
5.218840
 20
3.106840
  0
VERTEX
  8
0
  6
CONTINUOUS
 10
5.195080
 20
3.079560
  0
VERTEX
  8
0
  6
CONTINUOUS
 10
5.183640
 20
3.069880
  0
VERTEX
  8
0
  6
CONTINUOUS
 10
5.173080
 20
3.063720
  0
VERTEX
  8
0
  6
CONTINUOUS
 10
5.162520
 20
3.059320
  0
VERTEX
  8
0
  6
CONTINUOUS
 10
5.151520
 20
3.054480
  0
VERTEX
  8
0
  6
CONTINUOUS
 10
5.127760
 20
3.042600
  0
VERTEX
  8
0
  6
CONTINUOUS
 10
5.103120
 20
3.025440
  0
VERTEX
  8
0
  6
CONTINUOUS
 10
5.078480
 20
2.999040
  0
VERTEX
  8
0
  6
CONTINUOUS
 10
5.067040
 20
2.981440
  0
VERTEX
  8
0
  6
CONTINUOUS
 10
5.055600
 20
2.960760
  0
VERTEX
  8
0
  6
CONTINUOUS
 10
5.045480
 20
2.936120
  0
VERTEX
  8
0
  6
CONTINUOUS
 10
5.035800
 20
2.907080
  0
VERTEX
  8
0
  6
CONTINUOUS
 10
5.027000
 20
2.873200
  0
VERTEX
  8
0
  6
CONTINUOUS
 10
5.019960
 20
2.834920
  0
VERTEX
  8
0
  6
CONTINUOUS
 10
5.013800
 20
2.790480
  0
VERTEX
  8
0
  6
CONTINUOUS
 10
5.009400
 20
2.740760
  0
VERTEX
  8
0
  6
CONTINUOUS
 10
5.009400
 20
2.718320
  0
SEQEND
  8
0
  0
SOLID
  8
0
 62
    15
 10
6.150760
 20
4.801720
 11
6.794480
 21
5.179680
 12
6.138440
 22
4.758600
 13
6.782160
 23
5.136560
  0
POLYLINE
  8
0
  6
CONTINUOUS
 66
     1
 40
0.000000
 41
0.000000
  0
VERTEX
  8
0
  6
CONTINUOUS
 10
6.150760
 20
4.801720
  0
VERTEX
  8
0
  6
CONTINUOUS
 10
6.794480
 20
5.179680
  0
VERTEX
  8
0
  6
CONTINUOUS
 10
6.782160
 20
5.136560
  0
VERTEX
  8
0
  6
CONTINUOUS
 10
6.138440
 20
4.758600
  0
VERTEX
  8
0
  6
CONTINUOUS
 10
6.150760
 20
4.801720
  0
SEQEND
  8
0
  0
SOLID
  8
0
 62
    15
 10
5.840560
 20
5.199920
 11
6.484280
 21
5.577880
 12
5.890720
 22
5.197720
 13
6.534440
 23
5.575680
  0
POLYLINE
  8
0
  6
CONTINUOUS
 66
     1
 40
0.000000
 41
0.000000
  0
VERTEX
  8
0
  6
CONTINUOUS
 10
5.840560
 20
5.199920
  0
VERTEX
  8
0
  6
CONTINUOUS
 10
6.484280
 20
5.577880
  0
VERTEX
  8
0
  6
CONTINUOUS
 10
6.534440
 20
5.575680
  0
VERTEX
  8
0
  6
CONTINUOUS
 10
5.890720
 20
5.197720
  0
VERTEX
  8
0
  6
CONTINUOUS
 10
5.840560
 20
5.199920
  0
SEQEND
  8
0
  0
SOLID
  8
0
 62
    15
 10
5.890720
 20
5.197720
 11
6.534440
 21
5.575680
 12
5.935160
 22
5.191560
 13
6.579320
 23
5.569520
  0
POLYLINE
  8
0
  6
CONTINUOUS
 66
     1
 40
0.000000
 41
0.000000
  0
VERTEX
  8
0
  6
CONTINUOUS
 10
5.890720
 20
5.197720
  0
VERTEX
  8
0
  6
CONTINUOUS
 10
6.534440
 20
5.575680
  0
VERTEX
  8
0
  6
CONTINUOUS
 10
6.579320
 20
5.569520
  0
VERTEX
  8
0
  6
CONTINUOUS
 10
5.935160
 20
5.191560
  0
VERTEX
  8
0
  6
CONTINUOUS
 10
5.890720
 20
5.197720
  0
SEQEND
  8
0
  0
SOLID
  8
0
 62
    15
 10
5.935160
 20
5.191560
 11
6.579320
 21
5.569520
 12
5.974760
 22
5.181440
 13
6.618920
 23
5.559400
  0
POLYLINE
  8
0
  6
CONTINUOUS
 66
     1
 40
0.000000
 41
0.000000
  0
VERTEX
  8
0
  6
CONTINUOUS
 10
5.935160
 20
5.191560
  0
VERTEX
  8
0
  6
CONTINUOUS
 10
6.579320
 20
5.569520
  0
VERTEX
  8
0
  6
CONTINUOUS
 10
6.618920
 20
5.559400
  0
VERTEX
  8
0
  6
CONTINUOUS
 10
5.974760
 20
5.181440
  0
VERTEX
  8
0
  6
CONTINUOUS
 10
5.935160
 20
5.191560
  0
SEQEND
  8
0
  0
SOLID
  8
0
 62
    15
 10
5.974760
 20
5.181440
 11
6.618920
 21
5.559400
 12
6.009520
 22
5.167800
 13
6.653680
 23
5.545760
  0
POLYLINE
  8
0
  6
CONTINUOUS
 66
     1
 40
0.000000
 41
0.000000
  0
VERTEX
  8
0
  6
CONTINUOUS
 10
5.974760
 20
5.181440
  0
VERTEX
  8
0
  6
CONTINUOUS
 10
6.618920
 20
5.559400
  0
VERTEX
  8
0
  6
CONTINUOUS
 10
6.653680
 20
5.545760
  0
VERTEX
  8
0
  6
CONTINUOUS
 10
6.009520
 20
5.167800
  0
VERTEX
  8
0
  6
CONTINUOUS
 10
5.974760
 20
5.181440
  0
SEQEND
  8
0
  0
SOLID
  8
0
 62
    15
 10
6.009520
 20
5.167800
 11
6.653680
 21
5.545760
 12
6.039880
 22
5.151520
 13
6.683600
 23
5.529040
  0
POLYLINE
  8
0
  6
CONTINUOUS
 66
     1
 40
0.000000
 41
0.000000
  0
VERTEX
  8
0
  6
CONTINUOUS
 10
6.009520
 20
5.167800
  0
VERTEX
  8
0
  6
CONTINUOUS
 10
6.653680
 20
5.545760
  0
VERTEX
  8
0
  6
CONTINUOUS
 10
6.683600
 20
5.529040
  0
VERTEX
  8
0
  6
CONTINUOUS
 10
6.039880
 20
5.151520
  0
VERTEX
  8
0
  6
CONTINUOUS
 10
6.009520
 20
5.167800
  0
SEQEND
  8
0
  0
SOLID
  8
0
 62
    15
 10
6.039880
 20
5.151520
 11
6.683600
 21
5.529040
 12
6.065840
 22
5.132160
 13
6.710000
 23
5.510120
  0
POLYLINE
  8
0
  6
CONTINUOUS
 66
     1
 40
0.000000
 41
0.000000
  0
VERTEX
  8
0
  6
CONTINUOUS
 10
6.039880
 20
5.151520
  0
VERTEX
  8
0
  6
CONTINUOUS
 10
6.683600
 20
5.529040
  0
VERTEX
  8
0
  6
CONTINUOUS
 10
6.710000
 20
5.510120
  0
VERTEX
  8
0
  6
CONTINUOUS
 10
6.065840
 20
5.132160
  0
VERTEX
  8
0
  6
CONTINUOUS
 10
6.039880
 20
5.151520
  0
SEQEND
  8
0
  0
SOLID
  8
0
 62
    15
 10
6.065840
 20
5.132160
 11
6.710000
 21
5.510120
 12
6.088280
 22
5.110600
 13
6.732000
 23
5.488560
  0
POLYLINE
  8
0
  6
CONTINUOUS
 66
     1
 40
0.000000
 41
0.000000
  0
VERTEX
  8
0
  6
CONTINUOUS
 10
6.065840
 20
5.132160
  0
VERTEX
  8
0
  6
CONTINUOUS
 10
6.710000
 20
5.510120
  0
VERTEX
  8
0
  6
CONTINUOUS
 10
6.732000
 20
5.488560
  0
VERTEX
  8
0
  6
CONTINUOUS
 10
6.088280
 20
5.110600
  0
VERTEX
  8
0
  6
CONTINUOUS
 10
6.065840
 20
5.132160
  0
SEQEND
  8
0
  0
SOLID
  8
0
 62
    15
 10
6.088280
 20
5.110600
 11
6.732000
 21
5.488560
 12
6.106760
 22
5.087720
 13
6.750480
 23
5.465680
  0
POLYLINE
  8
0
  6
CONTINUOUS
 66
     1
 40
0.000000
 41
0.000000
  0
VERTEX
  8
0
  6
CONTINUOUS
 10
6.088280
 20
5.110600
  0
VERTEX
  8
0
  6
CONTINUOUS
 10
6.732000
 20
5.488560
  0
VERTEX
  8
0
  6
CONTINUOUS
 10
6.750480
 20
5.465680
  0
VERTEX
  8
0
  6
CONTINUOUS
 10
6.106760
 20
5.087720
  0
VERTEX
  8
0
  6
CONTINUOUS
 10
6.088280
 20
5.110600
  0
SEQEND
  8
0
  0
SOLID
  8
0
 62
    15
 10
6.106760
 20
5.087720
 11
6.750480
 21
5.465680
 12
6.134040
 22
5.037560
 13
6.778200
 23
5.415520
  0
POLYLINE
  8
0
  6
CONTINUOUS
 66
     1
 40
0.000000
 41
0.000000
  0
VERTEX
  8
0
  6
CONTINUOUS
 10
6.106760
 20
5.087720
  0
VERTEX
  8
0
  6
CONTINUOUS
 10
6.750480
 20
5.465680
  0
VERTEX
  8
0
  6
CONTINUOUS
 10
6.778200
 20
5.415520
  0
VERTEX
  8
0
  6
CONTINUOUS
 10
6.134040
 20
5.037560
  0
VERTEX
  8
0
  6
CONTINUOUS
 10
6.106760
 20
5.087720
  0
SEQEND
  8
0
  0
SOLID
  8
0
 62
    15
 10
6.134040
 20
5.037560
 11
6.778200
 21
5.415520
 12
6.150760
 22
4.985640
 13
6.794480
 23
5.363600
  0
POLYLINE
  8
0
  6
CONTINUOUS
 66
     1
 40
0.000000
 41
0.000000
  0
VERTEX
  8
0
  6
CONTINUOUS
 10
6.134040
 20
5.037560
  0
VERTEX
  8
0
  6
CONTINUOUS
 10
6.778200
 20
5.415520
  0
VERTEX
  8
0
  6
CONTINUOUS
 10
6.794480
 20
5.363600
  0
VERTEX
  8
0
  6
CONTINUOUS
 10
6.150760
 20
4.985640
  0
VERTEX
  8
0
  6
CONTINUOUS
 10
6.134040
 20
5.037560
  0
SEQEND
  8
0
  0
SOLID
  8
0
 62
    15
 10
6.150760
 20
4.985640
 11
6.794480
 21
5.363600
 12
6.158680
 22
4.934600
 13
6.802840
 23
5.312560
  0
POLYLINE
  8
0
  6
CONTINUOUS
 66
     1
 40
0.000000
 41
0.000000
  0
VERTEX
  8
0
  6
CONTINUOUS
 10
6.150760
 20
4.985640
  0
VERTEX
  8
0
  6
CONTINUOUS
 10
6.794480
 20
5.363600
  0
VERTEX
  8
0
  6
CONTINUOUS
 10
6.802840
 20
5.312560
  0
VERTEX
  8
0
  6
CONTINUOUS
 10
6.158680
 20
4.934600
  0
VERTEX
  8
0
  6
CONTINUOUS
 10
6.150760
 20
4.985640
  0
SEQEND
  8
0
  0
SOLID
  8
0
 62
    15
 10
6.158680
 20
4.934600
 11
6.802840
 21
5.312560
 12
6.160880
 22
4.888400
 13
6.804600
 23
5.266360
  0
POLYLINE
  8
0
  6
CONTINUOUS
 66
     1
 40
0.000000
 41
0.000000
  0
VERTEX
  8
0
  6
CONTINUOUS
 10
6.158680
 20
4.934600
  0
VERTEX
  8
0
  6
CONTINUOUS
 10
6.802840
 20
5.312560
  0
VERTEX
  8
0
  6
CONTINUOUS
 10
6.804600
 20
5.266360
  0
VERTEX
  8
0
  6
CONTINUOUS
 10
6.160880
 20
4.888400
  0
VERTEX
  8
0
  6
CONTINUOUS
 10
6.158680
 20
4.934600
  0
SEQEND
  8
0
  0
SOLID
  8
0
 62
    15
 10
6.160880
 20
4.888400
 11
6.804600
 21
5.266360
 12
6.158240
 22
4.845280
 13
6.801960
 23
5.223240
  0
POLYLINE
  8
0
  6
CONTINUOUS
 66
     1
 40
0.000000
 41
0.000000
  0
VERTEX
  8
0
  6
CONTINUOUS
 10
6.160880
 20
4.888400
  0
VERTEX
  8
0
  6
CONTINUOUS
 10
6.804600
 20
5.266360
  0
VERTEX
  8
0
  6
CONTINUOUS
 10
6.801960
 20
5.223240
  0
VERTEX
  8
0
  6
CONTINUOUS
 10
6.158240
 20
4.845280
  0
VERTEX
  8
0
  6
CONTINUOUS
 10
6.160880
 20
4.888400
  0
SEQEND
  8
0
  0
SOLID
  8
0
 62
    15
 10
6.158240
 20
4.845280
 11
6.801960
 21
5.223240
 12
6.150760
 22
4.801720
 13
6.794480
 23
5.179680
  0
POLYLINE
  8
0
  6
CONTINUOUS
 66
     1
 40
0.000000
 41
0.000000
  0
VERTEX
  8
0
  6
CONTINUOUS
 10
6.158240
 20
4.845280
  0
VERTEX
  8
0
  6
CONTINUOUS
 10
6.801960
 20
5.223240
  0
VERTEX
  8
0
  6
CONTINUOUS
 10
6.794480
 20
5.179680
  0
VERTEX
  8
0
  6
CONTINUOUS
 10
6.150760
 20
4.801720
  0
VERTEX
  8
0
  6
CONTINUOUS
 10
6.158240
 20
4.845280
  0
SEQEND
  8
0
  0
SOLID
  8
0
 62
    15
 10
3.994320
 20
5.199920
 11
4.638040
 21
5.577880
 12
5.840560
 22
5.199920
 13
6.484280
 23
5.577880
  0
POLYLINE
  8
0
  6
CONTINUOUS
 66
     1
 40
0.000000
 41
0.000000
  0
VERTEX
  8
0
  6
CONTINUOUS
 10
3.994320
 20
5.199920
  0
VERTEX
  8
0
  6
CONTINUOUS
 10
4.638040
 20
5.577880
  0
VERTEX
  8
0
  6
CONTINUOUS
 10
6.484280
 20
5.577880
  0
VERTEX
  8
0
  6
CONTINUOUS
 10
5.840560
 20
5.199920
  0
VERTEX
  8
0
  6
CONTINUOUS
 10
3.994320
 20
5.199920
  0
SEQEND
  8
0
  0
SOLID
  8
0
 62
    15
 10
6.138440
 20
4.758600
 11
6.782160
 21
5.136560
 12
6.120840
 22
4.716800
 13
6.764560
 23
5.094760
  0
POLYLINE
  8
0
  6
CONTINUOUS
 66
     1
 40
0.000000
 41
0.000000
  0
VERTEX
  8
0
  6
CONTINUOUS
 10
6.138440
 20
4.758600
  0
VERTEX
  8
0
  6
CONTINUOUS
 10
6.782160
 20
5.136560
  0
VERTEX
  8
0
  6
CONTINUOUS
 10
6.764560
 20
5.094760
  0
VERTEX
  8
0
  6
CONTINUOUS
 10
6.120840
 20
4.716800
  0
VERTEX
  8
0
  6
CONTINUOUS
 10
6.138440
 20
4.758600
  0
SEQEND
  8
0
  0
SOLID
  8
0
 62
    15
 10
6.120840
 20
4.716800
 11
6.764560
 21
5.094760
 12
6.097960
 22
4.676320
 13
6.742120
 23
5.054280
  0
POLYLINE
  8
0
  6
CONTINUOUS
 66
     1
 40
0.000000
 41
0.000000
  0
VERTEX
  8
0
  6
CONTINUOUS
 10
6.120840
 20
4.716800
  0
VERTEX
  8
0
  6
CONTINUOUS
 10
6.764560
 20
5.094760
  0
VERTEX
  8
0
  6
CONTINUOUS
 10
6.742120
 20
5.054280
  0
VERTEX
  8
0
  6
CONTINUOUS
 10
6.097960
 20
4.676320
  0
VERTEX
  8
0
  6
CONTINUOUS
 10
6.120840
 20
4.716800
  0
SEQEND
  8
0
  0
SOLID
  8
0
 62
    15
 10
6.097960
 20
4.676320
 11
6.742120
 21
5.054280
 12
6.070240
 22
4.638480
 13
6.713960
 23
5.016000
  0
POLYLINE
  8
0
  6
CONTINUOUS
 66
     1
 40
0.000000
 41
0.000000
  0
VERTEX
  8
0
  6
CONTINUOUS
 10
6.097960
 20
4.676320
  0
VERTEX
  8
0
  6
CONTINUOUS
 10
6.742120
 20
5.054280
  0
VERTEX
  8
0
  6
CONTINUOUS
 10
6.713960
 20
5.016000
  0
VERTEX
  8
0
  6
CONTINUOUS
 10
6.070240
 20
4.638480
  0
VERTEX
  8
0
  6
CONTINUOUS
 10
6.097960
 20
4.676320
  0
SEQEND
  8
0
  0
SOLID
  8
0
 62
    15
 10
6.070240
 20
4.638480
 11
6.713960
 21
5.016000
 12
6.036800
 22
4.603280
 13
6.680520
 23
4.980800
  0
POLYLINE
  8
0
  6
CONTINUOUS
 66
     1
 40
0.000000
 41
0.000000
  0
VERTEX
  8
0
  6
CONTINUOUS
 10
6.070240
 20
4.638480
  0
VERTEX
  8
0
  6
CONTINUOUS
 10
6.713960
 20
5.016000
  0
VERTEX
  8
0
  6
CONTINUOUS
 10
6.680520
 20
4.980800
  0
VERTEX
  8
0
  6
CONTINUOUS
 10
6.036800
 20
4.603280
  0
VERTEX
  8
0
  6
CONTINUOUS
 10
6.070240
 20
4.638480
  0
SEQEND
  8
0
  0
SOLID
  8
0
 62
    15
 10
6.036800
 20
4.603280
 11
6.680520
 21
4.980800
 12
5.997640
 22
4.571160
 13
6.641360
 23
4.949120
  0
POLYLINE
  8
0
  6
CONTINUOUS
 66
     1
 40
0.000000
 41
0.000000
  0
VERTEX
  8
0
  6
CONTINUOUS
 10
6.036800
 20
4.603280
  0
VERTEX
  8
0
  6
CONTINUOUS
 10
6.680520
 20
4.980800
  0
VERTEX
  8
0
  6
CONTINUOUS
 10
6.641360
 20
4.949120
  0
VERTEX
  8
0
  6
CONTINUOUS
 10
5.997640
 20
4.571160
  0
VERTEX
  8
0
  6
CONTINUOUS
 10
6.036800
 20
4.603280
  0
SEQEND
  8
0
  0
SOLID
  8
0
 62
    15
 10
5.997640
 20
4.571160
 11
6.641360
 21
4.949120
 12
5.962880
 22
4.539040
 13
6.606600
 23
4.917000
  0
POLYLINE
  8
0
  6
CONTINUOUS
 66
     1
 40
0.000000
 41
0.000000
  0
VERTEX
  8
0
  6
CONTINUOUS
 10
5.997640
 20
4.571160
  0
VERTEX
  8
0
  6
CONTINUOUS
 10
6.641360
 20
4.949120
  0
VERTEX
  8
0
  6
CONTINUOUS
 10
6.606600
 20
4.917000
  0
VERTEX
  8
0
  6
CONTINUOUS
 10
5.962880
 20
4.539040
  0
VERTEX
  8
0
  6
CONTINUOUS
 10
5.997640
 20
4.571160
  0
SEQEND
  8
0
  0
SOLID
  8
0
 62
    15
 10
5.962880
 20
4.539040
 11
6.606600
 21
4.917000
 12
5.940000
 22
4.503400
 13
6.583720
 23
4.881360
  0
POLYLINE
  8
0
  6
CONTINUOUS
 66
     1
 40
0.000000
 41
0.000000
  0
VERTEX
  8
0
  6
CONTINUOUS
 10
5.962880
 20
4.539040
  0
VERTEX
  8
0
  6
CONTINUOUS
 10
6.606600
 20
4.917000
  0
VERTEX
  8
0
  6
CONTINUOUS
 10
6.583720
 20
4.881360
  0
VERTEX
  8
0
  6
CONTINUOUS
 10
5.940000
 20
4.503400
  0
VERTEX
  8
0
  6
CONTINUOUS
 10
5.962880
 20
4.539040
  0
SEQEND
  8
0
  0
SOLID
  8
0
 62
    15
 10
5.940000
 20
4.503400
 11
6.583720
 21
4.881360
 12
5.927240
 22
4.466440
 13
6.570960
 23
4.844400
  0
POLYLINE
  8
0
  6
CONTINUOUS
 66
     1
 40
0.000000
 41
0.000000
  0
VERTEX
  8
0
  6
CONTINUOUS
 10
5.940000
 20
4.503400
  0
VERTEX
  8
0
  6
CONTINUOUS
 10
6.583720
 20
4.881360
  0
VERTEX
  8
0
  6
CONTINUOUS
 10
6.570960
 20
4.844400
  0
VERTEX
  8
0
  6
CONTINUOUS
 10
5.927240
 20
4.466440
  0
VERTEX
  8
0
  6
CONTINUOUS
 10
5.940000
 20
4.503400
  0
SEQEND
  8
0
  0
SOLID
  8
0
 62
    15
 10
5.927240
 20
4.466440
 11
6.570960
 21
4.844400
 12
5.921960
 22
4.430800
 13
6.566120
 23
4.808760
  0
POLYLINE
  8
0
  6
CONTINUOUS
 66
     1
 40
0.000000
 41
0.000000
  0
VERTEX
  8
0
  6
CONTINUOUS
 10
5.927240
 20
4.466440
  0
VERTEX
  8
0
  6
CONTINUOUS
 10
6.570960
 20
4.844400
  0
VERTEX
  8
0
  6
CONTINUOUS
 10
6.566120
 20
4.808760
  0
VERTEX
  8
0
  6
CONTINUOUS
 10
5.921960
 20
4.430800
  0
VERTEX
  8
0
  6
CONTINUOUS
 10
5.927240
 20
4.466440
  0
SEQEND
  8
0
  0
SOLID
  8
0
 62
    15
 10
5.921960
 20
4.430800
 11
6.566120
 21
4.808760
 12
5.921960
 22
4.398680
 13
6.565680
 23
4.776640
  0
POLYLINE
  8
0
  6
CONTINUOUS
 66
     1
 40
0.000000
 41
0.000000
  0
VERTEX
  8
0
  6
CONTINUOUS
 10
5.921960
 20
4.430800
  0
VERTEX
  8
0
  6
CONTINUOUS
 10
6.566120
 20
4.808760
  0
VERTEX
  8
0
  6
CONTINUOUS
 10
6.565680
 20
4.776640
  0
VERTEX
  8
0
  6
CONTINUOUS
 10
5.921960
 20
4.398680
  0
VERTEX
  8
0
  6
CONTINUOUS
 10
5.921960
 20
4.430800
  0
SEQEND
  8
0
  0
SOLID
  8
0
 62
    15
 10
5.921960
 20
4.398680
 11
6.565680
 21
4.776640
 12
5.924600
 22
4.371840
 13
6.568320
 23
4.749800
  0
POLYLINE
  8
0
  6
CONTINUOUS
 66
     1
 40
0.000000
 41
0.000000
  0
VERTEX
  8
0
  6
CONTINUOUS
 10
5.921960
 20
4.398680
  0
VERTEX
  8
0
  6
CONTINUOUS
 10
6.565680
 20
4.776640
  0
VERTEX
  8
0
  6
CONTINUOUS
 10
6.568320
 20
4.749800
  0
VERTEX
  8
0
  6
CONTINUOUS
 10
5.924600
 20
4.371840
  0
VERTEX
  8
0
  6
CONTINUOUS
 10
5.921960
 20
4.398680
  0
SEQEND
  8
0
  0
SOLID
  8
0
 62
    15
 10
5.924600
 20
4.371840
 11
6.568320
 21
4.749800
 12
5.926800
 22
4.356880
 13
6.570520
 23
4.734840
  0
POLYLINE
  8
0
  6
CONTINUOUS
 66
     1
 40
0.000000
 41
0.000000
  0
VERTEX
  8
0
  6
CONTINUOUS
 10
5.924600
 20
4.371840
  0
VERTEX
  8
0
  6
CONTINUOUS
 10
6.568320
 20
4.749800
  0
VERTEX
  8
0
  6
CONTINUOUS
 10
6.570520
 20
4.734840
  0
VERTEX
  8
0
  6
CONTINUOUS
 10
5.926800
 20
4.356880
  0
VERTEX
  8
0
  6
CONTINUOUS
 10
5.924600
 20
4.371840
  0
SEQEND
  8
0
  0
SOLID
  8
0
 62
    15
 10
5.926800
 20
4.356880
 11
6.570520
 21
4.734840
 12
5.927240
 22
4.353360
 13
6.571400
 23
4.731320
  0
POLYLINE
  8
0
  6
CONTINUOUS
 66
     1
 40
0.000000
 41
0.000000
  0
VERTEX
  8
0
  6
CONTINUOUS
 10
5.926800
 20
4.356880
  0
VERTEX
  8
0
  6
CONTINUOUS
 10
6.570520
 20
4.734840
  0
VERTEX
  8
0
  6
CONTINUOUS
 10
6.571400
 20
4.731320
  0
VERTEX
  8
0
  6
CONTINUOUS
 10
5.927240
 20
4.353360
  0
VERTEX
  8
0
  6
CONTINUOUS
 10
5.926800
 20
4.356880
  0
SEQEND
  8
0
  0
SOLID
  8
0
 62
    15
 10
5.927240
 20
4.353360
 11
6.571400
 21
4.731320
 12
5.928120
 22
4.345000
 13
6.572280
 23
4.722960
  0
POLYLINE
  8
0
  6
CONTINUOUS
 66
     1
 40
0.000000
 41
0.000000
  0
VERTEX
  8
0
  6
CONTINUOUS
 10
5.927240
 20
4.353360
  0
VERTEX
  8
0
  6
CONTINUOUS
 10
6.571400
 20
4.731320
  0
VERTEX
  8
0
  6
CONTINUOUS
 10
6.572280
 20
4.722960
  0
VERTEX
  8
0
  6
CONTINUOUS
 10
5.928120
 20
4.345000
  0
VERTEX
  8
0
  6
CONTINUOUS
 10
5.927240
 20
4.353360
  0
SEQEND
  8
0
  0
POLYLINE
  8
0
  6
CONTINUOUS
 66
     1
 40
0.000000
 41
0.000000
  0
VERTEX
  8
0
  6
CONTINUOUS
 10
5.924160
 20
4.345000
  0
VERTEX
  8
0
  6
CONTINUOUS
 10
3.994320
 20
4.345000
  0
VERTEX
  8
0
  6
CONTINUOUS
 10
3.994320
 20
5.199920
  0
VERTEX
  8
0
  6
CONTINUOUS
 10
5.840560
 20
5.199920
  0
VERTEX
  8
0
  6
CONTINUOUS
 10
5.890720
 20
5.197720
  0
VERTEX
  8
0
  6
CONTINUOUS
 10
5.935160
 20
5.191560
  0
VERTEX
  8
0
  6
CONTINUOUS
 10
5.974760
 20
5.181440
  0
VERTEX
  8
0
  6
CONTINUOUS
 10
6.009520
 20
5.167800
  0
VERTEX
  8
0
  6
CONTINUOUS
 10
6.039880
 20
5.151520
  0
VERTEX
  8
0
  6
CONTINUOUS
 10
6.065840
 20
5.132160
  0
VERTEX
  8
0
  6
CONTINUOUS
 10
6.088280
 20
5.110600
  0
VERTEX
  8
0
  6
CONTINUOUS
 10
6.106760
 20
5.087720
  0
VERTEX
  8
0
  6
CONTINUOUS
 10
6.134040
 20
5.037560
  0
VERTEX
  8
0
  6
CONTINUOUS
 10
6.150760
 20
4.985640
  0
VERTEX
  8
0
  6
CONTINUOUS
 10
6.158680
 20
4.934600
  0
VERTEX
  8
0
  6
CONTINUOUS
 10
6.160880
 20
4.888400
  0
VERTEX
  8
0
  6
CONTINUOUS
 10
6.158240
 20
4.845280
  0
VERTEX
  8
0
  6
CONTINUOUS
 10
6.150760
 20
4.801720
  0
VERTEX
  8
0
  6
CONTINUOUS
 10
6.138440
 20
4.758600
  0
VERTEX
  8
0
  6
CONTINUOUS
 10
6.120840
 20
4.716800
  0
VERTEX
  8
0
  6
CONTINUOUS
 10
6.097960
 20
4.676320
  0
VERTEX
  8
0
  6
CONTINUOUS
 10
6.070240
 20
4.638480
  0
VERTEX
  8
0
  6
CONTINUOUS
 10
6.036800
 20
4.603280
  0
VERTEX
  8
0
  6
CONTINUOUS
 10
5.997640
 20
4.571160
  0
VERTEX
  8
0
  6
CONTINUOUS
 10
5.962880
 20
4.539040
  0
VERTEX
  8
0
  6
CONTINUOUS
 10
5.940000
 20
4.503400
  0
VERTEX
  8
0
  6
CONTINUOUS
 10
5.927240
 20
4.466440
  0
VERTEX
  8
0
  6
CONTINUOUS
 10
5.921960
 20
4.430800
  0
VERTEX
  8
0
  6
CONTINUOUS
 10
5.921960
 20
4.398680
  0
VERTEX
  8
0
  6
CONTINUOUS
 10
5.924600
 20
4.371840
  0
VERTEX
  8
0
  6
CONTINUOUS
 10
5.926800
 20
4.356880
  0
VERTEX
  8
0
  6
CONTINUOUS
 10
5.927240
 20
4.353360
  0
VERTEX
  8
0
  6
CONTINUOUS
 10
5.928120
 20
4.345000
  0
VERTEX
  8
0
  6
CONTINUOUS
 10
5.924160
 20
4.345000
  0
SEQEND
  8
0
  0
TEXT
  8
0
 10
4.045360
 20
4.497240
 40
0.138217
  1
580
 41
1.000000
  7
SN0
 71
     0
 72
     5
 11
4.323821
 21
4.497240
  0
TEXT
  8
0
 10
4.851440
 20
4.153160
 40
0.138217
  1
579
 41
1.000000
  7
SN0
 71
     0
 72
     5
 11
5.129901
 21
4.153160
  0
TEXT
  8
0
 10
4.045800
 20
4.153160
 40
0.138217
  1
581
 41
1.000000
  7
SN0
 71
     0
 72
     5
 11
4.324261
 21
4.153160
  0
POLYLINE
  8
0
  6
CONTINUOUS
 66
     1
 40
0.014080
 41
0.014080
  0
VERTEX
  8
0
  6
CONTINUOUS
 10
7.116560
 20
8.106560
  0
VERTEX
  8
0
  6
CONTINUOUS
 10
7.116560
 20
8.128560
  0
VERTEX
  8
0
  6
CONTINUOUS
 10
7.124040
 20
8.201600
  0
VERTEX
  8
0
  6
CONTINUOUS
 10
7.134600
 20
8.261440
  0
VERTEX
  8
0
  6
CONTINUOUS
 10
7.147800
 20
8.310280
  0
VERTEX
  8
0
  6
CONTINUOUS
 10
7.163200
 20
8.348560
  0
VERTEX
  8
0
  6
CONTINUOUS
 10
7.180360
 20
8.378920
  0
VERTEX
  8
0
  6
CONTINUOUS
 10
7.201480
 20
8.404880
  0
VERTEX
  8
0
  6
CONTINUOUS
 10
7.226120
 20
8.425120
  0
VERTEX
  8
0
  6
CONTINUOUS
 10
7.253400
 20
8.439640
  0
VERTEX
  8
0
  6
CONTINUOUS
 10
7.288600
 20
8.455920
  0
VERTEX
  8
0
  6
CONTINUOUS
 10
7.308400
 20
8.473520
  0
VERTEX
  8
0
  6
CONTINUOUS
 10
7.326440
 20
8.494640
  0
VERTEX
  8
0
  6
CONTINUOUS
 10
7.345800
 20
8.526320
  0
VERTEX
  8
0
  6
CONTINUOUS
 10
7.361200
 20
8.563720
  0
VERTEX
  8
0
  6
CONTINUOUS
 10
7.369560
 20
8.598920
  0
VERTEX
  8
0
  6
CONTINUOUS
 10
7.372640
 20
8.629720
  0
VERTEX
  8
0
  6
CONTINUOUS
 10
7.371320
 20
8.655240
  0
VERTEX
  8
0
  6
CONTINUOUS
 10
7.364280
 20
8.687360
  0
VERTEX
  8
0
  6
CONTINUOUS
 10
7.350640
 20
8.719480
  0
VERTEX
  8
0
  6
CONTINUOUS
 10
7.334800
 20
8.744560
  0
VERTEX
  8
0
  6
CONTINUOUS
 10
7.310600
 20
8.772280
  0
VERTEX
  8
0
  6
CONTINUOUS
 10
7.307080
 20
8.774920
  0
VERTEX
  8
0
  6
CONTINUOUS
 10
7.307080
 20
8.786800
  0
VERTEX
  8
0
  6
CONTINUOUS
 10
7.409600
 20
8.786800
  0
VERTEX
  8
0
  6
CONTINUOUS
 10
7.410040
 20
9.063120
  0
VERTEX
  8
0
  6
CONTINUOUS
 10
7.414440
 20
9.118560
  0
VERTEX
  8
0
  6
CONTINUOUS
 10
7.422360
 20
9.155960
  0
VERTEX
  8
0
  6
CONTINUOUS
 10
7.433360
 20
9.180160
  0
VERTEX
  8
0
  6
CONTINUOUS
 10
7.446560
 20
9.196440
  0
VERTEX
  8
0
  6
CONTINUOUS
 10
7.462840
 20
9.207880
  0
VERTEX
  8
0
  6
CONTINUOUS
 10
7.483080
 20
9.216680
  0
VERTEX
  8
0
  6
CONTINUOUS
 10
7.519600
 20
9.224600
  0
VERTEX
  8
0
  6
CONTINUOUS
 10
7.536320
 20
9.226800
  0
VERTEX
  8
0
  6
CONTINUOUS
 10
7.536320
 20
9.737200
  0
VERTEX
  8
0
  6
CONTINUOUS
 10
6.900080
 20
9.737640
  0
VERTEX
  8
0
  6
CONTINUOUS
 10
6.900080
 20
8.106560
  0
VERTEX
  8
0
  6
CONTINUOUS
 10
7.116560
 20
8.106560
  0
SEQEND
  8
0
  0
SOLID
  8
0
 62
    15
 10
5.429600
 20
8.172560
 11
6.076400
 21
8.558000
 12
5.412880
 22
8.129000
 13
6.059680
 23
8.514440
  0
POLYLINE
  8
0
  6
CONTINUOUS
 66
     1
 40
0.000000
 41
0.000000
  0
VERTEX
  8
0
  6
CONTINUOUS
 10
5.429600
 20
8.172560
  0
VERTEX
  8
0
  6
CONTINUOUS
 10
6.076400
 20
8.558000
  0
VERTEX
  8
0
  6
CONTINUOUS
 10
6.059680
 20
8.514440
  0
VERTEX
  8
0
  6
CONTINUOUS
 10
5.412880
 20
8.129000
  0
VERTEX
  8
0
  6
CONTINUOUS
 10
5.429600
 20
8.172560
  0
SEQEND
  8
0
  0
SOLID
  8
0
 62
    15
 10
5.520240
 20
8.800880
 11
6.167040
 21
9.186320
 12
5.503520
 22
8.785040
 13
6.150320
 23
9.170920
  0
POLYLINE
  8
0
  6
CONTINUOUS
 66
     1
 40
0.000000
 41
0.000000
  0
VERTEX
  8
0
  6
CONTINUOUS
 10
5.520240
 20
8.800880
  0
VERTEX
  8
0
  6
CONTINUOUS
 10
6.167040
 20
9.186320
  0
VERTEX
  8
0
  6
CONTINUOUS
 10
6.150320
 20
9.170920
  0
VERTEX
  8
0
  6
CONTINUOUS
 10
5.503520
 20
8.785040
  0
VERTEX
  8
0
  6
CONTINUOUS
 10
5.520240
 20
8.800880
  0
SEQEND
  8
0
  0
SOLID
  8
0
 62
    15
 10
5.503520
 20
8.785040
 11
6.150320
 21
9.170920
 12
5.490760
 22
8.763480
 13
6.138000
 23
9.148920
  0
POLYLINE
  8
0
  6
CONTINUOUS
 66
     1
 40
0.000000
 41
0.000000
  0
VERTEX
  8
0
  6
CONTINUOUS
 10
5.503520
 20
8.785040
  0
VERTEX
  8
0
  6
CONTINUOUS
 10
6.150320
 20
9.170920
  0
VERTEX
  8
0
  6
CONTINUOUS
 10
6.138000
 20
9.148920
  0
VERTEX
  8
0
  6
CONTINUOUS
 10
5.490760
 20
8.763480
  0
VERTEX
  8
0
  6
CONTINUOUS
 10
5.503520
 20
8.785040
  0
SEQEND
  8
0
  0
SOLID
  8
0
 62
    15
 10
5.490760
 20
8.763480
 11
6.138000
 21
9.148920
 12
5.482400
 22
8.734000
 13
6.129200
 23
9.119440
  0
POLYLINE
  8
0
  6
CONTINUOUS
 66
     1
 40
0.000000
 41
0.000000
  0
VERTEX
  8
0
  6
CONTINUOUS
 10
5.490760
 20
8.763480
  0
VERTEX
  8
0
  6
CONTINUOUS
 10
6.138000
 20
9.148920
  0
VERTEX
  8
0
  6
CONTINUOUS
 10
6.129200
 20
9.119440
  0
VERTEX
  8
0
  6
CONTINUOUS
 10
5.482400
 20
8.734000
  0
VERTEX
  8
0
  6
CONTINUOUS
 10
5.490760
 20
8.763480
  0
SEQEND
  8
0
  0
SOLID
  8
0
 62
    15
 10
5.601200
 20
9.335040
 11
6.248000
 21
9.720480
 12
5.601200
 22
8.824640
 13
6.248000
 23
9.210080
  0
POLYLINE
  8
0
  6
CONTINUOUS
 66
     1
 40
0.000000
 41
0.000000
  0
VERTEX
  8
0
  6
CONTINUOUS
 10
5.601200
 20
9.335040
  0
VERTEX
  8
0
  6
CONTINUOUS
 10
6.248000
 20
9.720480
  0
VERTEX
  8
0
  6
CONTINUOUS
 10
6.248000
 20
9.210080
  0
VERTEX
  8
0
  6
CONTINUOUS
 10
5.601200
 20
8.824640
  0
VERTEX
  8
0
  6
CONTINUOUS
 10
5.601200
 20
9.335040
  0
SEQEND
  8
0
  0
SOLID
  8
0
 62
    15
 10
5.482400
 20
8.734000
 11
6.129200
 21
9.119440
 12
5.477120
 22
8.695720
 13
6.123920
 23
9.081600
  0
POLYLINE
  8
0
  6
CONTINUOUS
 66
     1
 40
0.000000
 41
0.000000
  0
VERTEX
  8
0
  6
CONTINUOUS
 10
5.482400
 20
8.734000
  0
VERTEX
  8
0
  6
CONTINUOUS
 10
6.129200
 20
9.119440
  0
VERTEX
  8
0
  6
CONTINUOUS
 10
6.123920
 20
9.081600
  0
VERTEX
  8
0
  6
CONTINUOUS
 10
5.477120
 20
8.695720
  0
VERTEX
  8
0
  6
CONTINUOUS
 10
5.482400
 20
8.734000
  0
SEQEND
  8
0
  0
SOLID
  8
0
 62
    15
 10
5.477120
 20
8.695720
 11
6.123920
 21
9.081600
 12
5.474480
 22
8.647760
 13
6.121280
 23
9.033200
  0
POLYLINE
  8
0
  6
CONTINUOUS
 66
     1
 40
0.000000
 41
0.000000
  0
VERTEX
  8
0
  6
CONTINUOUS
 10
5.477120
 20
8.695720
  0
VERTEX
  8
0
  6
CONTINUOUS
 10
6.123920
 20
9.081600
  0
VERTEX
  8
0
  6
CONTINUOUS
 10
6.121280
 20
9.033200
  0
VERTEX
  8
0
  6
CONTINUOUS
 10
5.474480
 20
8.647760
  0
VERTEX
  8
0
  6
CONTINUOUS
 10
5.477120
 20
8.695720
  0
SEQEND
  8
0
  0
SOLID
  8
0
 62
    15
 10
5.371960
 20
8.384640
 11
6.018760
 21
8.770080
 12
5.371960
 22
8.372760
 13
6.018760
 23
8.758200
  0
POLYLINE
  8
0
  6
CONTINUOUS
 66
     1
 40
0.000000
 41
0.000000
  0
VERTEX
  8
0
  6
CONTINUOUS
 10
5.371960
 20
8.384640
  0
VERTEX
  8
0
  6
CONTINUOUS
 10
6.018760
 20
8.770080
  0
VERTEX
  8
0
  6
CONTINUOUS
 10
6.018760
 20
8.758200
  0
VERTEX
  8
0
  6
CONTINUOUS
 10
5.371960
 20
8.372760
  0
VERTEX
  8
0
  6
CONTINUOUS
 10
5.371960
 20
8.384640
  0
SEQEND
  8
0
  0
SOLID
  8
0
 62
    15
 10
5.371960
 20
8.372760
 11
6.018760
 21
8.758200
 12
5.394840
 22
8.348120
 13
6.041640
 23
8.734000
  0
POLYLINE
  8
0
  6
CONTINUOUS
 66
     1
 40
0.000000
 41
0.000000
  0
VERTEX
  8
0
  6
CONTINUOUS
 10
5.371960
 20
8.372760
  0
VERTEX
  8
0
  6
CONTINUOUS
 10
6.018760
 20
8.758200
  0
VERTEX
  8
0
  6
CONTINUOUS
 10
6.041640
 20
8.734000
  0
VERTEX
  8
0
  6
CONTINUOUS
 10
5.394840
 20
8.348120
  0
VERTEX
  8
0
  6
CONTINUOUS
 10
5.371960
 20
8.372760
  0
SEQEND
  8
0
  0
SOLID
  8
0
 62
    15
 10
5.394840
 20
8.348120
 11
6.041640
 21
8.734000
 12
5.412000
 22
8.323480
 13
6.058800
 23
8.708920
  0
POLYLINE
  8
0
  6
CONTINUOUS
 66
     1
 40
0.000000
 41
0.000000
  0
VERTEX
  8
0
  6
CONTINUOUS
 10
5.394840
 20
8.348120
  0
VERTEX
  8
0
  6
CONTINUOUS
 10
6.041640
 20
8.734000
  0
VERTEX
  8
0
  6
CONTINUOUS
 10
6.058800
 20
8.708920
  0
VERTEX
  8
0
  6
CONTINUOUS
 10
5.412000
 20
8.323480
  0
VERTEX
  8
0
  6
CONTINUOUS
 10
5.394840
 20
8.348120
  0
SEQEND
  8
0
  0
SOLID
  8
0
 62
    15
 10
5.474480
 20
8.647760
 11
6.121280
 21
9.033200
 12
5.474480
 22
8.384640
 13
6.121280
 23
8.770080
  0
POLYLINE
  8
0
  6
CONTINUOUS
 66
     1
 40
0.000000
 41
0.000000
  0
VERTEX
  8
0
  6
CONTINUOUS
 10
5.474480
 20
8.647760
  0
VERTEX
  8
0
  6
CONTINUOUS
 10
6.121280
 20
9.033200
  0
VERTEX
  8
0
  6
CONTINUOUS
 10
6.121280
 20
8.770080
  0
VERTEX
  8
0
  6
CONTINUOUS
 10
5.474480
 20
8.384640
  0
VERTEX
  8
0
  6
CONTINUOUS
 10
5.474480
 20
8.647760
  0
SEQEND
  8
0
  0
SOLID
  8
0
 62
    15
 10
5.412000
 20
8.323480
 11
6.058800
 21
8.708920
 12
5.424320
 22
8.297520
 13
6.071120
 23
8.683400
  0
POLYLINE
  8
0
  6
CONTINUOUS
 66
     1
 40
0.000000
 41
0.000000
  0
VERTEX
  8
0
  6
CONTINUOUS
 10
5.412000
 20
8.323480
  0
VERTEX
  8
0
  6
CONTINUOUS
 10
6.058800
 20
8.708920
  0
VERTEX
  8
0
  6
CONTINUOUS
 10
6.071120
 20
8.683400
  0
VERTEX
  8
0
  6
CONTINUOUS
 10
5.424320
 20
8.297520
  0
VERTEX
  8
0
  6
CONTINUOUS
 10
5.412000
 20
8.323480
  0
SEQEND
  8
0
  0
SOLID
  8
0
 62
    15
 10
5.424320
 20
8.297520
 11
6.071120
 21
8.683400
 12
5.432240
 22
8.272000
 13
6.079040
 23
8.657440
  0
POLYLINE
  8
0
  6
CONTINUOUS
 66
     1
 40
0.000000
 41
0.000000
  0
VERTEX
  8
0
  6
CONTINUOUS
 10
5.424320
 20
8.297520
  0
VERTEX
  8
0
  6
CONTINUOUS
 10
6.071120
 20
8.683400
  0
VERTEX
  8
0
  6
CONTINUOUS
 10
6.079040
 20
8.657440
  0
VERTEX
  8
0
  6
CONTINUOUS
 10
5.432240
 20
8.272000
  0
VERTEX
  8
0
  6
CONTINUOUS
 10
5.424320
 20
8.297520
  0
SEQEND
  8
0
  0
SOLID
  8
0
 62
    15
 10
5.432240
 20
8.272000
 11
6.079040
 21
8.657440
 12
5.436640
 22
8.246480
 13
6.083440
 23
8.631920
  0
POLYLINE
  8
0
  6
CONTINUOUS
 66
     1
 40
0.000000
 41
0.000000
  0
VERTEX
  8
0
  6
CONTINUOUS
 10
5.432240
 20
8.272000
  0
VERTEX
  8
0
  6
CONTINUOUS
 10
6.079040
 20
8.657440
  0
VERTEX
  8
0
  6
CONTINUOUS
 10
6.083440
 20
8.631920
  0
VERTEX
  8
0
  6
CONTINUOUS
 10
5.436640
 20
8.246480
  0
VERTEX
  8
0
  6
CONTINUOUS
 10
5.432240
 20
8.272000
  0
SEQEND
  8
0
  0
SOLID
  8
0
 62
    15
 10
5.436640
 20
8.246480
 11
6.083440
 21
8.631920
 12
5.437080
 22
8.220960
 13
6.083880
 23
8.606400
  0
POLYLINE
  8
0
  6
CONTINUOUS
 66
     1
 40
0.000000
 41
0.000000
  0
VERTEX
  8
0
  6
CONTINUOUS
 10
5.436640
 20
8.246480
  0
VERTEX
  8
0
  6
CONTINUOUS
 10
6.083440
 20
8.631920
  0
VERTEX
  8
0
  6
CONTINUOUS
 10
6.083880
 20
8.606400
  0
VERTEX
  8
0
  6
CONTINUOUS
 10
5.437080
 20
8.220960
  0
VERTEX
  8
0
  6
CONTINUOUS
 10
5.436640
 20
8.246480
  0
SEQEND
  8
0
  0
SOLID
  8
0
 62
    15
 10
5.437080
 20
8.220960
 11
6.083880
 21
8.606400
 12
5.429600
 22
8.172560
 13
6.076400
 23
8.558000
  0
POLYLINE
  8
0
  6
CONTINUOUS
 66
     1
 40
0.000000
 41
0.000000
  0
VERTEX
  8
0
  6
CONTINUOUS
 10
5.437080
 20
8.220960
  0
VERTEX
  8
0
  6
CONTINUOUS
 10
6.083880
 20
8.606400
  0
VERTEX
  8
0
  6
CONTINUOUS
 10
6.076400
 20
8.558000
  0
VERTEX
  8
0
  6
CONTINUOUS
 10
5.429600
 20
8.172560
  0
VERTEX
  8
0
  6
CONTINUOUS
 10
5.437080
 20
8.220960
  0
SEQEND
  8
0
  0
SOLID
  8
0
 62
    15
 10
4.964960
 20
9.335040
 11
5.611760
 21
9.720480
 12
5.601200
 22
9.335040
 13
6.248000
 23
9.720480
  0
POLYLINE
  8
0
  6
CONTINUOUS
 66
     1
 40
0.000000
 41
0.000000
  0
VERTEX
  8
0
  6
CONTINUOUS
 10
4.964960
 20
9.335040
  0
VERTEX
  8
0
  6
CONTINUOUS
 10
5.611760
 20
9.720480
  0
VERTEX
  8
0
  6
CONTINUOUS
 10
6.248000
 20
9.720480
  0
VERTEX
  8
0
  6
CONTINUOUS
 10
5.601200
 20
9.335040
  0
VERTEX
  8
0
  6
CONTINUOUS
 10
4.964960
 20
9.335040
  0
SEQEND
  8
0
  0
SOLID
  8
0
 62
    15
 10
5.412880
 20
8.129000
 11
6.059680
 21
8.514440
 12
5.390880
 22
8.092040
 13
6.038120
 23
8.477920
  0
POLYLINE
  8
0
  6
CONTINUOUS
 66
     1
 40
0.000000
 41
0.000000
  0
VERTEX
  8
0
  6
CONTINUOUS
 10
5.412880
 20
8.129000
  0
VERTEX
  8
0
  6
CONTINUOUS
 10
6.059680
 20
8.514440
  0
VERTEX
  8
0
  6
CONTINUOUS
 10
6.038120
 20
8.477920
  0
VERTEX
  8
0
  6
CONTINUOUS
 10
5.390880
 20
8.092040
  0
VERTEX
  8
0
  6
CONTINUOUS
 10
5.412880
 20
8.129000
  0
SEQEND
  8
0
  0
SOLID
  8
0
 62
    15
 10
5.300240
 20
8.028240
 11
5.947040
 21
8.413680
 12
5.275600
 22
8.010640
 13
5.922400
 23
8.396520
  0
POLYLINE
  8
0
  6
CONTINUOUS
 66
     1
 40
0.000000
 41
0.000000
  0
VERTEX
  8
0
  6
CONTINUOUS
 10
5.300240
 20
8.028240
  0
VERTEX
  8
0
  6
CONTINUOUS
 10
5.947040
 20
8.413680
  0
VERTEX
  8
0
  6
CONTINUOUS
 10
5.922400
 20
8.396520
  0
VERTEX
  8
0
  6
CONTINUOUS
 10
5.275600
 20
8.010640
  0
VERTEX
  8
0
  6
CONTINUOUS
 10
5.300240
 20
8.028240
  0
SEQEND
  8
0
  0
SOLID
  8
0
 62
    15
 10
5.275600
 20
8.010640
 11
5.922400
 21
8.396520
 12
5.250960
 22
7.984680
 13
5.897760
 23
8.370120
  0
POLYLINE
  8
0
  6
CONTINUOUS
 66
     1
 40
0.000000
 41
0.000000
  0
VERTEX
  8
0
  6
CONTINUOUS
 10
5.275600
 20
8.010640
  0
VERTEX
  8
0
  6
CONTINUOUS
 10
5.922400
 20
8.396520
  0
VERTEX
  8
0
  6
CONTINUOUS
 10
5.897760
 20
8.370120
  0
VERTEX
  8
0
  6
CONTINUOUS
 10
5.250960
 20
7.984680
  0
VERTEX
  8
0
  6
CONTINUOUS
 10
5.275600
 20
8.010640
  0
SEQEND
  8
0
  0
SOLID
  8
0
 62
    15
 10
5.356120
 20
8.055520
 11
6.002920
 21
8.440960
 12
5.345560
 22
8.049360
 13
5.992360
 23
8.434800
  0
POLYLINE
  8
0
  6
CONTINUOUS
 66
     1
 40
0.000000
 41
0.000000
  0
VERTEX
  8
0
  6
CONTINUOUS
 10
5.356120
 20
8.055520
  0
VERTEX
  8
0
  6
CONTINUOUS
 10
6.002920
 20
8.440960
  0
VERTEX
  8
0
  6
CONTINUOUS
 10
5.992360
 20
8.434800
  0
VERTEX
  8
0
  6
CONTINUOUS
 10
5.345560
 20
8.049360
  0
VERTEX
  8
0
  6
CONTINUOUS
 10
5.356120
 20
8.055520
  0
SEQEND
  8
0
  0
SOLID
  8
0
 62
    15
 10
5.390880
 20
8.092040
 11
6.038120
 21
8.477920
 12
5.367560
 22
8.064760
 13
6.014360
 23
8.450640
  0
POLYLINE
  8
0
  6
CONTINUOUS
 66
     1
 40
0.000000
 41
0.000000
  0
VERTEX
  8
0
  6
CONTINUOUS
 10
5.390880
 20
8.092040
  0
VERTEX
  8
0
  6
CONTINUOUS
 10
6.038120
 20
8.477920
  0
VERTEX
  8
0
  6
CONTINUOUS
 10
6.014360
 20
8.450640
  0
VERTEX
  8
0
  6
CONTINUOUS
 10
5.367560
 20
8.064760
  0
VERTEX
  8
0
  6
CONTINUOUS
 10
5.390880
 20
8.092040
  0
SEQEND
  8
0
  0
SOLID
  8
0
 62
    15
 10
5.367560
 20
8.064760
 11
6.014360
 21
8.450640
 12
5.356120
 22
8.055520
 13
6.002920
 23
8.440960
  0
POLYLINE
  8
0
  6
CONTINUOUS
 66
     1
 40
0.000000
 41
0.000000
  0
VERTEX
  8
0
  6
CONTINUOUS
 10
5.367560
 20
8.064760
  0
VERTEX
  8
0
  6
CONTINUOUS
 10
6.014360
 20
8.450640
  0
VERTEX
  8
0
  6
CONTINUOUS
 10
6.002920
 20
8.440960
  0
VERTEX
  8
0
  6
CONTINUOUS
 10
5.356120
 20
8.055520
  0
VERTEX
  8
0
  6
CONTINUOUS
 10
5.367560
 20
8.064760
  0
SEQEND
  8
0
  0
SOLID
  8
0
 62
    15
 10
5.250960
 20
7.984680
 11
5.897760
 21
8.370120
 12
5.239520
 22
7.967080
 13
5.886320
 23
8.352960
  0
POLYLINE
  8
0
  6
CONTINUOUS
 66
     1
 40
0.000000
 41
0.000000
  0
VERTEX
  8
0
  6
CONTINUOUS
 10
5.250960
 20
7.984680
  0
VERTEX
  8
0
  6
CONTINUOUS
 10
5.897760
 20
8.370120
  0
VERTEX
  8
0
  6
CONTINUOUS
 10
5.886320
 20
8.352960
  0
VERTEX
  8
0
  6
CONTINUOUS
 10
5.239520
 20
7.967080
  0
VERTEX
  8
0
  6
CONTINUOUS
 10
5.250960
 20
7.984680
  0
SEQEND
  8
0
  0
SOLID
  8
0
 62
    15
 10
5.239520
 20
7.967080
 11
5.886320
 21
8.352960
 12
5.228080
 22
7.946400
 13
5.874880
 23
8.331840
  0
POLYLINE
  8
0
  6
CONTINUOUS
 66
     1
 40
0.000000
 41
0.000000
  0
VERTEX
  8
0
  6
CONTINUOUS
 10
5.239520
 20
7.967080
  0
VERTEX
  8
0
  6
CONTINUOUS
 10
5.886320
 20
8.352960
  0
VERTEX
  8
0
  6
CONTINUOUS
 10
5.874880
 20
8.331840
  0
VERTEX
  8
0
  6
CONTINUOUS
 10
5.228080
 20
7.946400
  0
VERTEX
  8
0
  6
CONTINUOUS
 10
5.239520
 20
7.967080
  0
SEQEND
  8
0
  0
SOLID
  8
0
 62
    15
 10
5.228080
 20
7.946400
 11
5.874880
 21
8.331840
 12
5.217520
 22
7.921320
 13
5.864320
 23
8.307200
  0
POLYLINE
  8
0
  6
CONTINUOUS
 66
     1
 40
0.000000
 41
0.000000
  0
VERTEX
  8
0
  6
CONTINUOUS
 10
5.228080
 20
7.946400
  0
VERTEX
  8
0
  6
CONTINUOUS
 10
5.874880
 20
8.331840
  0
VERTEX
  8
0
  6
CONTINUOUS
 10
5.864320
 20
8.307200
  0
VERTEX
  8
0
  6
CONTINUOUS
 10
5.217520
 20
7.921320
  0
VERTEX
  8
0
  6
CONTINUOUS
 10
5.228080
 20
7.946400
  0
SEQEND
  8
0
  0
SOLID
  8
0
 62
    15
 10
5.217520
 20
7.921320
 11
5.864320
 21
8.307200
 12
5.208280
 22
7.892720
 13
5.855080
 23
8.278160
  0
POLYLINE
  8
0
  6
CONTINUOUS
 66
     1
 40
0.000000
 41
0.000000
  0
VERTEX
  8
0
  6
CONTINUOUS
 10
5.217520
 20
7.921320
  0
VERTEX
  8
0
  6
CONTINUOUS
 10
5.864320
 20
8.307200
  0
VERTEX
  8
0
  6
CONTINUOUS
 10
5.855080
 20
8.278160
  0
VERTEX
  8
0
  6
CONTINUOUS
 10
5.208280
 20
7.892720
  0
VERTEX
  8
0
  6
CONTINUOUS
 10
5.217520
 20
7.921320
  0
SEQEND
  8
0
  0
SOLID
  8
0
 62
    15
 10
5.208280
 20
7.892720
 11
5.855080
 21
8.278160
 12
5.199480
 22
7.858840
 13
5.846280
 23
8.244720
  0
POLYLINE
  8
0
  6
CONTINUOUS
 66
     1
 40
0.000000
 41
0.000000
  0
VERTEX
  8
0
  6
CONTINUOUS
 10
5.208280
 20
7.892720
  0
VERTEX
  8
0
  6
CONTINUOUS
 10
5.855080
 20
8.278160
  0
VERTEX
  8
0
  6
CONTINUOUS
 10
5.846280
 20
8.244720
  0
VERTEX
  8
0
  6
CONTINUOUS
 10
5.199480
 20
7.858840
  0
VERTEX
  8
0
  6
CONTINUOUS
 10
5.208280
 20
7.892720
  0
SEQEND
  8
0
  0
SOLID
  8
0
 62
    15
 10
5.199480
 20
7.858840
 11
5.846280
 21
8.244720
 12
5.192000
 22
7.820120
 13
5.838800
 23
8.206000
  0
POLYLINE
  8
0
  6
CONTINUOUS
 66
     1
 40
0.000000
 41
0.000000
  0
VERTEX
  8
0
  6
CONTINUOUS
 10
5.199480
 20
7.858840
  0
VERTEX
  8
0
  6
CONTINUOUS
 10
5.846280
 20
8.244720
  0
VERTEX
  8
0
  6
CONTINUOUS
 10
5.838800
 20
8.206000
  0
VERTEX
  8
0
  6
CONTINUOUS
 10
5.192000
 20
7.820120
  0
VERTEX
  8
0
  6
CONTINUOUS
 10
5.199480
 20
7.858840
  0
SEQEND
  8
0
  0
SOLID
  8
0
 62
    15
 10
5.192000
 20
7.820120
 11
5.838800
 21
8.206000
 12
5.186280
 22
7.776120
 13
5.833080
 23
8.161560
  0
POLYLINE
  8
0
  6
CONTINUOUS
 66
     1
 40
0.000000
 41
0.000000
  0
VERTEX
  8
0
  6
CONTINUOUS
 10
5.192000
 20
7.820120
  0
VERTEX
  8
0
  6
CONTINUOUS
 10
5.838800
 20
8.206000
  0
VERTEX
  8
0
  6
CONTINUOUS
 10
5.833080
 20
8.161560
  0
VERTEX
  8
0
  6
CONTINUOUS
 10
5.186280
 20
7.776120
  0
VERTEX
  8
0
  6
CONTINUOUS
 10
5.192000
 20
7.820120
  0
SEQEND
  8
0
  0
SOLID
  8
0
 62
    15
 10
5.186280
 20
7.776120
 11
5.833080
 21
8.161560
 12
5.181440
 22
7.725960
 13
5.828240
 23
8.111840
  0
POLYLINE
  8
0
  6
CONTINUOUS
 66
     1
 40
0.000000
 41
0.000000
  0
VERTEX
  8
0
  6
CONTINUOUS
 10
5.186280
 20
7.776120
  0
VERTEX
  8
0
  6
CONTINUOUS
 10
5.833080
 20
8.161560
  0
VERTEX
  8
0
  6
CONTINUOUS
 10
5.828240
 20
8.111840
  0
VERTEX
  8
0
  6
CONTINUOUS
 10
5.181440
 20
7.725960
  0
VERTEX
  8
0
  6
CONTINUOUS
 10
5.186280
 20
7.776120
  0
SEQEND
  8
0
  0
SOLID
  8
0
 62
    15
 10
5.181440
 20
7.725960
 11
5.828240
 21
8.111840
 12
5.181440
 22
7.703960
 13
5.828240
 23
8.089840
  0
POLYLINE
  8
0
  6
CONTINUOUS
 66
     1
 40
0.000000
 41
0.000000
  0
VERTEX
  8
0
  6
CONTINUOUS
 10
5.181440
 20
7.725960
  0
VERTEX
  8
0
  6
CONTINUOUS
 10
5.828240
 20
8.111840
  0
VERTEX
  8
0
  6
CONTINUOUS
 10
5.828240
 20
8.089840
  0
VERTEX
  8
0
  6
CONTINUOUS
 10
5.181440
 20
7.703960
  0
VERTEX
  8
0
  6
CONTINUOUS
 10
5.181440
 20
7.725960
  0
SEQEND
  8
0
  0
SOLID
  8
0
 62
    15
 10
5.181440
 20
7.703960
 11
5.828240
 21
8.089840
 12
5.181440
 22
7.703960
 13
5.828680
 23
8.089840
  0
POLYLINE
  8
0
  6
CONTINUOUS
 66
     1
 40
0.000000
 41
0.000000
  0
VERTEX
  8
0
  6
CONTINUOUS
 10
5.181440
 20
7.703960
  0
VERTEX
  8
0
  6
CONTINUOUS
 10
5.828240
 20
8.089840
  0
VERTEX
  8
0
  6
CONTINUOUS
 10
5.828680
 20
8.089840
  0
VERTEX
  8
0
  6
CONTINUOUS
 10
5.181440
 20
7.703960
  0
SEQEND
  8
0
  0
POLYLINE
  8
0
  6
CONTINUOUS
 66
     1
 40
0.000000
 41
0.000000
  0
VERTEX
  8
0
  6
CONTINUOUS
 10
5.181440
 20
7.703960
  0
VERTEX
  8
0
  6
CONTINUOUS
 10
4.964960
 20
7.703960
  0
VERTEX
  8
0
  6
CONTINUOUS
 10
4.964960
 20
9.335040
  0
VERTEX
  8
0
  6
CONTINUOUS
 10
5.601200
 20
9.335040
  0
VERTEX
  8
0
  6
CONTINUOUS
 10
5.601200
 20
8.824640
  0
VERTEX
  8
0
  6
CONTINUOUS
 10
5.568640
 20
8.819360
  0
VERTEX
  8
0
  6
CONTINUOUS
 10
5.541800
 20
8.811880
  0
VERTEX
  8
0
  6
CONTINUOUS
 10
5.520240
 20
8.800880
  0
VERTEX
  8
0
  6
CONTINUOUS
 10
5.503520
 20
8.785040
  0
VERTEX
  8
0
  6
CONTINUOUS
 10
5.490760
 20
8.763480
  0
VERTEX
  8
0
  6
CONTINUOUS
 10
5.482400
 20
8.734000
  0
VERTEX
  8
0
  6
CONTINUOUS
 10
5.477120
 20
8.695720
  0
VERTEX
  8
0
  6
CONTINUOUS
 10
5.474480
 20
8.647760
  0
VERTEX
  8
0
  6
CONTINUOUS
 10
5.474480
 20
8.384640
  0
VERTEX
  8
0
  6
CONTINUOUS
 10
5.371960
 20
8.384640
  0
VERTEX
  8
0
  6
CONTINUOUS
 10
5.371960
 20
8.372760
  0
VERTEX
  8
0
  6
CONTINUOUS
 10
5.394840
 20
8.348120
  0
VERTEX
  8
0
  6
CONTINUOUS
 10
5.412000
 20
8.323480
  0
VERTEX
  8
0
  6
CONTINUOUS
 10
5.424320
 20
8.297520
  0
VERTEX
  8
0
  6
CONTINUOUS
 10
5.432240
 20
8.272000
  0
VERTEX
  8
0
  6
CONTINUOUS
 10
5.436640
 20
8.246480
  0
VERTEX
  8
0
  6
CONTINUOUS
 10
5.437080
 20
8.220960
  0
VERTEX
  8
0
  6
CONTINUOUS
 10
5.429600
 20
8.172560
  0
VERTEX
  8
0
  6
CONTINUOUS
 10
5.412880
 20
8.129000
  0
VERTEX
  8
0
  6
CONTINUOUS
 10
5.390880
 20
8.092040
  0
VERTEX
  8
0
  6
CONTINUOUS
 10
5.367560
 20
8.064760
  0
VERTEX
  8
0
  6
CONTINUOUS
 10
5.356120
 20
8.055520
  0
VERTEX
  8
0
  6
CONTINUOUS
 10
5.345560
 20
8.049360
  0
VERTEX
  8
0
  6
CONTINUOUS
 10
5.335000
 20
8.044520
  0
VERTEX
  8
0
  6
CONTINUOUS
 10
5.324000
 20
8.039680
  0
VERTEX
  8
0
  6
CONTINUOUS
 10
5.300240
 20
8.028240
  0
VERTEX
  8
0
  6
CONTINUOUS
 10
5.275600
 20
8.010640
  0
VERTEX
  8
0
  6
CONTINUOUS
 10
5.250960
 20
7.984680
  0
VERTEX
  8
0
  6
CONTINUOUS
 10
5.239520
 20
7.967080
  0
VERTEX
  8
0
  6
CONTINUOUS
 10
5.228080
 20
7.946400
  0
VERTEX
  8
0
  6
CONTINUOUS
 10
5.217520
 20
7.921320
  0
VERTEX
  8
0
  6
CONTINUOUS
 10
5.208280
 20
7.892720
  0
VERTEX
  8
0
  6
CONTINUOUS
 10
5.199480
 20
7.858840
  0
VERTEX
  8
0
  6
CONTINUOUS
 10
5.192000
 20
7.820120
  0
VERTEX
  8
0
  6
CONTINUOUS
 10
5.186280
 20
7.776120
  0
VERTEX
  8
0
  6
CONTINUOUS
 10
5.181440
 20
7.725960
  0
VERTEX
  8
0
  6
CONTINUOUS
 10
5.181440
 20
7.703960
  0
SEQEND
  8
0
  0
TEXT
  8
0
 10
5.311240
 20
7.470760
 40
0.138217
  1
BA  579
 41
1.000000
  7
SN0
 71
     0
 72
     5
 11
5.903932
 21
7.470760
  0
TEXT
  8
0
 10
5.155480
 20
7.279360
 40
0.138217
  1
5/8" x 1-5/8"
 41
1.000000
  7
SN0
 71
     0
 72
     5
 11
6.061950
 21
7.279360
  0
ENDSEC
  0
EOF
