  0
SECTION
  2
HEADER
  9
$ACADVER
  1
AC1006
  9
$EXTMIN
 10
3.702160
 20
0.478280
  9
$EXTMAX
 10
7.085760
 20
5.944400
  9
$LTSCALE
 40
0.044000
  9
$PDMODE
 70
    35
  9
$PDSIZE
 40
0.035200
  0
ENDSEC
  0
SECTION
  2
TABLES
  0
TABLE
  2
LTYPE
 70
     9
  0
LTYPE
  2
CONTINUOUS
 70
    64
  3
Solid line
 72
    65
 73
     0
 40
0.000000
  0
LTYPE
  2
DASHED
 70
    64
  3
__ __ __ __ __ __ __ __ __ __ __ __ __ __ __
 72
    65
 73
     2
 40
0.000330
 49
0.000220
 49
-0.000110
  0
LTYPE
  2
HIDDEN
 70
    64
  3
 _ _ _ _ _ _ _ _ _ _ _ _ _ _ _ _ _ _ _ _ _ _
 72
    65
 73
     2
 40
0.000165
 49
0.000110
 49
-0.000055
  0
LTYPE
  2
CENTER
 70
    64
  3
____ _ ____ _ ____ _ ____ _ ____ _ ____ _ ____
 72
    65
 73
     4
 40
0.000880
 49
0.000550
 49
-0.000110
 49
0.000110
 49
-0.000110
  0
LTYPE
  2
PHANTOM
 70
    64
  3
_____ _ _ _____ _ _ _____ _ _ _____ _ _ ____
 72
    65
 73
     6
 40
0.001100
 49
0.000550
 49
-0.000110
 49
0.000110
 49
-0.000110
 49
0.000110
 49
-0.000110
  0
LTYPE
  2
DOT
 70
    64
  3
...............................................
 72
    65
 73
     2
 40
0.000110
 49
0.000000
 49
-0.000110
  0
LTYPE
  2
DASHDOT
 70
    64
  3
__ . __ . __ . __ . __ . __ . __ . __ . __ . __
 72
    65
 73
     4
 40
0.000440
 49
0.000220
 49
-0.000110
 49
0.000000
 49
-0.000110
  0
LTYPE
  2
BORDER
 70
    64
  3
__ __ . __ __ . __ __ . __ __ . __ __ . __ __
 72
    65
 73
     6
 40
0.000770
 49
0.000220
 49
-0.000110
 49
0.000220
 49
-0.000110
 49
0.000000
 49
-0.000110
  0
LTYPE
  2
DIVIDE
 70
    64
  3
__ . . __ . . __ . . __ . . __ . . __ . . __
 72
    65
 73
     6
 40
0.000550
 49
0.000220
 49
-0.000110
 49
0.000000
 49
-0.000110
 49
0.000000
 49
-0.000110
  0
LTYPE
  2
DOTDOT
 70
    64
  3
 . .  . .  . .  . .  . .  . . 
 72
    65
 73
     5
 40
0.000242
 49
-0.000110
 49
0.000000
 49
-0.000110
 49
0.000000
 49
-0.000110
  0
ENDTAB
  0
TABLE
  2
STYLE
 70
     2
  0
STYLE
 70
     0
  2
SN0
 40
0.000000
 41
0.000440
 50
0.000000
 71
     0
 42
0.000000
  3
ROMAND
  0
STYLE
 70
    68
  2
SV0
 40
0.000000
 41
0.000440
 50
0.000000
 71
     0
 42
0.000000
  3
ROMAND
  0
ENDTAB
  0
TABLE
  2
LAYER
 70
     3
  0
LAYER
  2
FOREGROUND
 70
    64
 62
     7
  6
CONTINUOUS
  0
LAYER
  2
BACKGROUND
 70
    65
 62
    -7
  6
CONTINUOUS
  0
LAYER
  2
0
 70
    64
 62
     7
  6
CONTINUOUS
  0
ENDTAB
  0
ENDSEC
  0
SECTION
  2
ENTITIES
  0
POLYLINE
  8
FOREGROUND
  6
CONTINUOUS
 66
     1
 40
0.000000
 41
0.000000
  0
VERTEX
  8
FOREGROUND
  6
CONTINUOUS
 10
0.000000
 20
6.422680
  0
VERTEX
  8
FOREGROUND
  6
CONTINUOUS
 10
8.499920
 20
6.422680
  0
VERTEX
  8
FOREGROUND
  6
CONTINUOUS
 10
8.499920
 20
-4.577320
  0
VERTEX
  8
FOREGROUND
  6
CONTINUOUS
 10
0.000000
 20
-4.577320
  0
VERTEX
  8
FOREGROUND
  6
CONTINUOUS
 10
0.000000
 20
6.422680
  0
SEQEND
  8
0
  0
POLYLINE
  8
FOREGROUND
  6
CONTINUOUS
 66
     1
 40
0.000000
 41
0.000000
  0
VERTEX
  8
FOREGROUND
  6
CONTINUOUS
 10
0.000000
 20
6.422680
  0
VERTEX
  8
FOREGROUND
  6
CONTINUOUS
 10
8.499920
 20
6.422680
  0
VERTEX
  8
FOREGROUND
  6
CONTINUOUS
 10
8.499920
 20
-4.577320
  0
VERTEX
  8
FOREGROUND
  6
CONTINUOUS
 10
0.000000
 20
-4.577320
  0
VERTEX
  8
FOREGROUND
  6
CONTINUOUS
 10
0.000000
 20
6.422680
  0
SEQEND
  8
0
  0
SOLID
  8
0
 62
    15
 10
4.003560
 20
2.810280
 11
4.631440
 21
3.158320
 12
4.008840
 22
2.740320
 13
4.636720
 23
3.088800
  0
POLYLINE
  8
0
  6
CONTINUOUS
 66
     1
 40
0.000000
 41
0.000000
  0
VERTEX
  8
0
  6
CONTINUOUS
 10
4.003560
 20
2.810280
  0
VERTEX
  8
0
  6
CONTINUOUS
 10
4.631440
 20
3.158320
  0
VERTEX
  8
0
  6
CONTINUOUS
 10
4.636720
 20
3.088800
  0
VERTEX
  8
0
  6
CONTINUOUS
 10
4.008840
 20
2.740320
  0
VERTEX
  8
0
  6
CONTINUOUS
 10
4.003560
 20
2.810280
  0
SEQEND
  8
0
  0
SOLID
  8
0
 62
    15
 10
3.780040
 20
4.236760
 11
4.407920
 21
4.584800
 12
3.801160
 22
4.232360
 13
4.429480
 23
4.580840
  0
POLYLINE
  8
0
  6
CONTINUOUS
 66
     1
 40
0.000000
 41
0.000000
  0
VERTEX
  8
0
  6
CONTINUOUS
 10
3.780040
 20
4.236760
  0
VERTEX
  8
0
  6
CONTINUOUS
 10
4.407920
 20
4.584800
  0
VERTEX
  8
0
  6
CONTINUOUS
 10
4.429480
 20
4.580840
  0
VERTEX
  8
0
  6
CONTINUOUS
 10
3.801160
 20
4.232360
  0
VERTEX
  8
0
  6
CONTINUOUS
 10
3.780040
 20
4.236760
  0
SEQEND
  8
0
  0
SOLID
  8
0
 62
    15
 10
3.801160
 20
4.232360
 11
4.429480
 21
4.580840
 12
3.819200
 22
4.225760
 13
4.447080
 23
4.574240
  0
POLYLINE
  8
0
  6
CONTINUOUS
 66
     1
 40
0.000000
 41
0.000000
  0
VERTEX
  8
0
  6
CONTINUOUS
 10
3.801160
 20
4.232360
  0
VERTEX
  8
0
  6
CONTINUOUS
 10
4.429480
 20
4.580840
  0
VERTEX
  8
0
  6
CONTINUOUS
 10
4.447080
 20
4.574240
  0
VERTEX
  8
0
  6
CONTINUOUS
 10
3.819200
 20
4.225760
  0
VERTEX
  8
0
  6
CONTINUOUS
 10
3.801160
 20
4.232360
  0
SEQEND
  8
0
  0
SOLID
  8
0
 62
    15
 10
3.819200
 20
4.225760
 11
4.447080
 21
4.574240
 12
3.833720
 22
4.216520
 13
4.462040
 23
4.565000
  0
POLYLINE
  8
0
  6
CONTINUOUS
 66
     1
 40
0.000000
 41
0.000000
  0
VERTEX
  8
0
  6
CONTINUOUS
 10
3.819200
 20
4.225760
  0
VERTEX
  8
0
  6
CONTINUOUS
 10
4.447080
 20
4.574240
  0
VERTEX
  8
0
  6
CONTINUOUS
 10
4.462040
 20
4.565000
  0
VERTEX
  8
0
  6
CONTINUOUS
 10
3.833720
 20
4.216520
  0
VERTEX
  8
0
  6
CONTINUOUS
 10
3.819200
 20
4.225760
  0
SEQEND
  8
0
  0
SOLID
  8
0
 62
    15
 10
3.833720
 20
4.216520
 11
4.462040
 21
4.565000
 12
3.855280
 22
4.191440
 13
4.483600
 23
4.539920
  0
POLYLINE
  8
0
  6
CONTINUOUS
 66
     1
 40
0.000000
 41
0.000000
  0
VERTEX
  8
0
  6
CONTINUOUS
 10
3.833720
 20
4.216520
  0
VERTEX
  8
0
  6
CONTINUOUS
 10
4.462040
 20
4.565000
  0
VERTEX
  8
0
  6
CONTINUOUS
 10
4.483600
 20
4.539920
  0
VERTEX
  8
0
  6
CONTINUOUS
 10
3.855280
 20
4.191440
  0
VERTEX
  8
0
  6
CONTINUOUS
 10
3.833720
 20
4.216520
  0
SEQEND
  8
0
  0
SOLID
  8
0
 62
    15
 10
3.855280
 20
4.191440
 11
4.483600
 21
4.539920
 12
3.868920
 22
4.158880
 13
4.497240
 23
4.507360
  0
POLYLINE
  8
0
  6
CONTINUOUS
 66
     1
 40
0.000000
 41
0.000000
  0
VERTEX
  8
0
  6
CONTINUOUS
 10
3.855280
 20
4.191440
  0
VERTEX
  8
0
  6
CONTINUOUS
 10
4.483600
 20
4.539920
  0
VERTEX
  8
0
  6
CONTINUOUS
 10
4.497240
 20
4.507360
  0
VERTEX
  8
0
  6
CONTINUOUS
 10
3.868920
 20
4.158880
  0
VERTEX
  8
0
  6
CONTINUOUS
 10
3.855280
 20
4.191440
  0
SEQEND
  8
0
  0
SOLID
  8
0
 62
    15
 10
3.868920
 20
4.158880
 11
4.497240
 21
4.507360
 12
3.878160
 22
4.120600
 13
4.506040
 23
4.468640
  0
POLYLINE
  8
0
  6
CONTINUOUS
 66
     1
 40
0.000000
 41
0.000000
  0
VERTEX
  8
0
  6
CONTINUOUS
 10
3.868920
 20
4.158880
  0
VERTEX
  8
0
  6
CONTINUOUS
 10
4.497240
 20
4.507360
  0
VERTEX
  8
0
  6
CONTINUOUS
 10
4.506040
 20
4.468640
  0
VERTEX
  8
0
  6
CONTINUOUS
 10
3.878160
 20
4.120600
  0
VERTEX
  8
0
  6
CONTINUOUS
 10
3.868920
 20
4.158880
  0
SEQEND
  8
0
  0
SOLID
  8
0
 62
    15
 10
3.878160
 20
4.120600
 11
4.506040
 21
4.468640
 12
3.885640
 22
4.076600
 13
4.513960
 23
4.425080
  0
POLYLINE
  8
0
  6
CONTINUOUS
 66
     1
 40
0.000000
 41
0.000000
  0
VERTEX
  8
0
  6
CONTINUOUS
 10
3.878160
 20
4.120600
  0
VERTEX
  8
0
  6
CONTINUOUS
 10
4.506040
 20
4.468640
  0
VERTEX
  8
0
  6
CONTINUOUS
 10
4.513960
 20
4.425080
  0
VERTEX
  8
0
  6
CONTINUOUS
 10
3.885640
 20
4.076600
  0
VERTEX
  8
0
  6
CONTINUOUS
 10
3.878160
 20
4.120600
  0
SEQEND
  8
0
  0
SOLID
  8
0
 62
    15
 10
3.885640
 20
4.076600
 11
4.513960
 21
4.425080
 12
3.895320
 22
4.029520
 13
4.523640
 23
4.378000
  0
POLYLINE
  8
0
  6
CONTINUOUS
 66
     1
 40
0.000000
 41
0.000000
  0
VERTEX
  8
0
  6
CONTINUOUS
 10
3.885640
 20
4.076600
  0
VERTEX
  8
0
  6
CONTINUOUS
 10
4.513960
 20
4.425080
  0
VERTEX
  8
0
  6
CONTINUOUS
 10
4.523640
 20
4.378000
  0
VERTEX
  8
0
  6
CONTINUOUS
 10
3.895320
 20
4.029520
  0
VERTEX
  8
0
  6
CONTINUOUS
 10
3.885640
 20
4.076600
  0
SEQEND
  8
0
  0
SOLID
  8
0
 62
    15
 10
3.895320
 20
4.029520
 11
4.523640
 21
4.378000
 12
3.910280
 22
3.980240
 13
4.538160
 23
4.328280
  0
POLYLINE
  8
0
  6
CONTINUOUS
 66
     1
 40
0.000000
 41
0.000000
  0
VERTEX
  8
0
  6
CONTINUOUS
 10
3.895320
 20
4.029520
  0
VERTEX
  8
0
  6
CONTINUOUS
 10
4.523640
 20
4.378000
  0
VERTEX
  8
0
  6
CONTINUOUS
 10
4.538160
 20
4.328280
  0
VERTEX
  8
0
  6
CONTINUOUS
 10
3.910280
 20
3.980240
  0
VERTEX
  8
0
  6
CONTINUOUS
 10
3.895320
 20
4.029520
  0
SEQEND
  8
0
  0
SOLID
  8
0
 62
    15
 10
3.910280
 20
3.980240
 11
4.538160
 21
4.328280
 12
3.932280
 22
3.930080
 13
4.560160
 23
4.278560
  0
POLYLINE
  8
0
  6
CONTINUOUS
 66
     1
 40
0.000000
 41
0.000000
  0
VERTEX
  8
0
  6
CONTINUOUS
 10
3.910280
 20
3.980240
  0
VERTEX
  8
0
  6
CONTINUOUS
 10
4.538160
 20
4.328280
  0
VERTEX
  8
0
  6
CONTINUOUS
 10
4.560160
 20
4.278560
  0
VERTEX
  8
0
  6
CONTINUOUS
 10
3.932280
 20
3.930080
  0
VERTEX
  8
0
  6
CONTINUOUS
 10
3.910280
 20
3.980240
  0
SEQEND
  8
0
  0
SOLID
  8
0
 62
    15
 10
3.932280
 20
3.930080
 11
4.560160
 21
4.278560
 12
3.960880
 22
3.880800
 13
4.588760
 23
4.229280
  0
POLYLINE
  8
0
  6
CONTINUOUS
 66
     1
 40
0.000000
 41
0.000000
  0
VERTEX
  8
0
  6
CONTINUOUS
 10
3.932280
 20
3.930080
  0
VERTEX
  8
0
  6
CONTINUOUS
 10
4.560160
 20
4.278560
  0
VERTEX
  8
0
  6
CONTINUOUS
 10
4.588760
 20
4.229280
  0
VERTEX
  8
0
  6
CONTINUOUS
 10
3.960880
 20
3.880800
  0
VERTEX
  8
0
  6
CONTINUOUS
 10
3.932280
 20
3.930080
  0
SEQEND
  8
0
  0
SOLID
  8
0
 62
    15
 10
3.960880
 20
3.880800
 11
4.588760
 21
4.229280
 12
3.994320
 22
3.833280
 13
4.622200
 23
4.181320
  0
POLYLINE
  8
0
  6
CONTINUOUS
 66
     1
 40
0.000000
 41
0.000000
  0
VERTEX
  8
0
  6
CONTINUOUS
 10
3.960880
 20
3.880800
  0
VERTEX
  8
0
  6
CONTINUOUS
 10
4.588760
 20
4.229280
  0
VERTEX
  8
0
  6
CONTINUOUS
 10
4.622200
 20
4.181320
  0
VERTEX
  8
0
  6
CONTINUOUS
 10
3.994320
 20
3.833280
  0
VERTEX
  8
0
  6
CONTINUOUS
 10
3.960880
 20
3.880800
  0
SEQEND
  8
0
  0
SOLID
  8
0
 62
    15
 10
3.994320
 20
3.833280
 11
4.622200
 21
4.181320
 12
4.031280
 22
3.787080
 13
4.659600
 23
4.135560
  0
POLYLINE
  8
0
  6
CONTINUOUS
 66
     1
 40
0.000000
 41
0.000000
  0
VERTEX
  8
0
  6
CONTINUOUS
 10
3.994320
 20
3.833280
  0
VERTEX
  8
0
  6
CONTINUOUS
 10
4.622200
 20
4.181320
  0
VERTEX
  8
0
  6
CONTINUOUS
 10
4.659600
 20
4.135560
  0
VERTEX
  8
0
  6
CONTINUOUS
 10
4.031280
 20
3.787080
  0
VERTEX
  8
0
  6
CONTINUOUS
 10
3.994320
 20
3.833280
  0
SEQEND
  8
0
  0
SOLID
  8
0
 62
    15
 10
4.031280
 20
3.787080
 11
4.659600
 21
4.135560
 12
4.110480
 22
3.704360
 13
4.738360
 23
4.052840
  0
POLYLINE
  8
0
  6
CONTINUOUS
 66
     1
 40
0.000000
 41
0.000000
  0
VERTEX
  8
0
  6
CONTINUOUS
 10
4.031280
 20
3.787080
  0
VERTEX
  8
0
  6
CONTINUOUS
 10
4.659600
 20
4.135560
  0
VERTEX
  8
0
  6
CONTINUOUS
 10
4.738360
 20
4.052840
  0
VERTEX
  8
0
  6
CONTINUOUS
 10
4.110480
 20
3.704360
  0
VERTEX
  8
0
  6
CONTINUOUS
 10
4.031280
 20
3.787080
  0
SEQEND
  8
0
  0
SOLID
  8
0
 62
    15
 10
4.110480
 20
3.704360
 11
4.738360
 21
4.052840
 12
4.149200
 22
3.668720
 13
4.777520
 23
4.017200
  0
POLYLINE
  8
0
  6
CONTINUOUS
 66
     1
 40
0.000000
 41
0.000000
  0
VERTEX
  8
0
  6
CONTINUOUS
 10
4.110480
 20
3.704360
  0
VERTEX
  8
0
  6
CONTINUOUS
 10
4.738360
 20
4.052840
  0
VERTEX
  8
0
  6
CONTINUOUS
 10
4.777520
 20
4.017200
  0
VERTEX
  8
0
  6
CONTINUOUS
 10
4.149200
 20
3.668720
  0
VERTEX
  8
0
  6
CONTINUOUS
 10
4.110480
 20
3.704360
  0
SEQEND
  8
0
  0
SOLID
  8
0
 62
    15
 10
4.149200
 20
3.668720
 11
4.777520
 21
4.017200
 12
4.185720
 22
3.637480
 13
4.814040
 23
3.985960
  0
POLYLINE
  8
0
  6
CONTINUOUS
 66
     1
 40
0.000000
 41
0.000000
  0
VERTEX
  8
0
  6
CONTINUOUS
 10
4.149200
 20
3.668720
  0
VERTEX
  8
0
  6
CONTINUOUS
 10
4.777520
 20
4.017200
  0
VERTEX
  8
0
  6
CONTINUOUS
 10
4.814040
 20
3.985960
  0
VERTEX
  8
0
  6
CONTINUOUS
 10
4.185720
 20
3.637480
  0
VERTEX
  8
0
  6
CONTINUOUS
 10
4.149200
 20
3.668720
  0
SEQEND
  8
0
  0
SOLID
  8
0
 62
    15
 10
4.185720
 20
3.637480
 11
4.814040
 21
3.985960
 12
4.219160
 22
3.604040
 13
4.847480
 23
3.952520
  0
POLYLINE
  8
0
  6
CONTINUOUS
 66
     1
 40
0.000000
 41
0.000000
  0
VERTEX
  8
0
  6
CONTINUOUS
 10
4.185720
 20
3.637480
  0
VERTEX
  8
0
  6
CONTINUOUS
 10
4.814040
 20
3.985960
  0
VERTEX
  8
0
  6
CONTINUOUS
 10
4.847480
 20
3.952520
  0
VERTEX
  8
0
  6
CONTINUOUS
 10
4.219160
 20
3.604040
  0
VERTEX
  8
0
  6
CONTINUOUS
 10
4.185720
 20
3.637480
  0
SEQEND
  8
0
  0
SOLID
  8
0
 62
    15
 10
4.219160
 20
3.604040
 11
4.847480
 21
3.952520
 12
4.249080
 22
3.561800
 13
4.876960
 23
3.910280
  0
POLYLINE
  8
0
  6
CONTINUOUS
 66
     1
 40
0.000000
 41
0.000000
  0
VERTEX
  8
0
  6
CONTINUOUS
 10
4.219160
 20
3.604040
  0
VERTEX
  8
0
  6
CONTINUOUS
 10
4.847480
 20
3.952520
  0
VERTEX
  8
0
  6
CONTINUOUS
 10
4.876960
 20
3.910280
  0
VERTEX
  8
0
  6
CONTINUOUS
 10
4.249080
 20
3.561800
  0
VERTEX
  8
0
  6
CONTINUOUS
 10
4.219160
 20
3.604040
  0
SEQEND
  8
0
  0
SOLID
  8
0
 62
    15
 10
4.249080
 20
3.561800
 11
4.876960
 21
3.910280
 12
4.274160
 22
3.513400
 13
4.902480
 23
3.861880
  0
POLYLINE
  8
0
  6
CONTINUOUS
 66
     1
 40
0.000000
 41
0.000000
  0
VERTEX
  8
0
  6
CONTINUOUS
 10
4.249080
 20
3.561800
  0
VERTEX
  8
0
  6
CONTINUOUS
 10
4.876960
 20
3.910280
  0
VERTEX
  8
0
  6
CONTINUOUS
 10
4.902480
 20
3.861880
  0
VERTEX
  8
0
  6
CONTINUOUS
 10
4.274160
 20
3.513400
  0
VERTEX
  8
0
  6
CONTINUOUS
 10
4.249080
 20
3.561800
  0
SEQEND
  8
0
  0
SOLID
  8
0
 62
    15
 10
4.274160
 20
3.513400
 11
4.902480
 21
3.861880
 12
4.294400
 22
3.461480
 13
4.922280
 23
3.809960
  0
POLYLINE
  8
0
  6
CONTINUOUS
 66
     1
 40
0.000000
 41
0.000000
  0
VERTEX
  8
0
  6
CONTINUOUS
 10
4.274160
 20
3.513400
  0
VERTEX
  8
0
  6
CONTINUOUS
 10
4.902480
 20
3.861880
  0
VERTEX
  8
0
  6
CONTINUOUS
 10
4.922280
 20
3.809960
  0
VERTEX
  8
0
  6
CONTINUOUS
 10
4.294400
 20
3.461480
  0
VERTEX
  8
0
  6
CONTINUOUS
 10
4.274160
 20
3.513400
  0
SEQEND
  8
0
  0
SOLID
  8
0
 62
    15
 10
4.294400
 20
3.461480
 11
4.922280
 21
3.809960
 12
4.308040
 22
3.408240
 13
4.936360
 23
3.756720
  0
POLYLINE
  8
0
  6
CONTINUOUS
 66
     1
 40
0.000000
 41
0.000000
  0
VERTEX
  8
0
  6
CONTINUOUS
 10
4.294400
 20
3.461480
  0
VERTEX
  8
0
  6
CONTINUOUS
 10
4.922280
 20
3.809960
  0
VERTEX
  8
0
  6
CONTINUOUS
 10
4.936360
 20
3.756720
  0
VERTEX
  8
0
  6
CONTINUOUS
 10
4.308040
 20
3.408240
  0
VERTEX
  8
0
  6
CONTINUOUS
 10
4.294400
 20
3.461480
  0
SEQEND
  8
0
  0
SOLID
  8
0
 62
    15
 10
4.308040
 20
3.408240
 11
4.936360
 21
3.756720
 12
4.315520
 22
3.356760
 13
4.943400
 23
3.705240
  0
POLYLINE
  8
0
  6
CONTINUOUS
 66
     1
 40
0.000000
 41
0.000000
  0
VERTEX
  8
0
  6
CONTINUOUS
 10
4.308040
 20
3.408240
  0
VERTEX
  8
0
  6
CONTINUOUS
 10
4.936360
 20
3.756720
  0
VERTEX
  8
0
  6
CONTINUOUS
 10
4.943400
 20
3.705240
  0
VERTEX
  8
0
  6
CONTINUOUS
 10
4.315520
 20
3.356760
  0
VERTEX
  8
0
  6
CONTINUOUS
 10
4.308040
 20
3.408240
  0
SEQEND
  8
0
  0
SOLID
  8
0
 62
    15
 10
4.315520
 20
3.356760
 11
4.943400
 21
3.705240
 12
4.314640
 22
3.309240
 13
4.942960
 23
3.657720
  0
POLYLINE
  8
0
  6
CONTINUOUS
 66
     1
 40
0.000000
 41
0.000000
  0
VERTEX
  8
0
  6
CONTINUOUS
 10
4.315520
 20
3.356760
  0
VERTEX
  8
0
  6
CONTINUOUS
 10
4.943400
 20
3.705240
  0
VERTEX
  8
0
  6
CONTINUOUS
 10
4.942960
 20
3.657720
  0
VERTEX
  8
0
  6
CONTINUOUS
 10
4.314640
 20
3.309240
  0
VERTEX
  8
0
  6
CONTINUOUS
 10
4.315520
 20
3.356760
  0
SEQEND
  8
0
  0
SOLID
  8
0
 62
    15
 10
4.197160
 20
3.219040
 11
4.825040
 21
3.567520
 12
4.151400
 22
3.185600
 13
4.779280
 23
3.534080
  0
POLYLINE
  8
0
  6
CONTINUOUS
 66
     1
 40
0.000000
 41
0.000000
  0
VERTEX
  8
0
  6
CONTINUOUS
 10
4.197160
 20
3.219040
  0
VERTEX
  8
0
  6
CONTINUOUS
 10
4.825040
 20
3.567520
  0
VERTEX
  8
0
  6
CONTINUOUS
 10
4.779280
 20
3.534080
  0
VERTEX
  8
0
  6
CONTINUOUS
 10
4.151400
 20
3.185600
  0
VERTEX
  8
0
  6
CONTINUOUS
 10
4.197160
 20
3.219040
  0
SEQEND
  8
0
  0
SOLID
  8
0
 62
    15
 10
4.151400
 20
3.185600
 11
4.779280
 21
3.534080
 12
4.111360
 22
3.146000
 13
4.739680
 23
3.494480
  0
POLYLINE
  8
0
  6
CONTINUOUS
 66
     1
 40
0.000000
 41
0.000000
  0
VERTEX
  8
0
  6
CONTINUOUS
 10
4.151400
 20
3.185600
  0
VERTEX
  8
0
  6
CONTINUOUS
 10
4.779280
 20
3.534080
  0
VERTEX
  8
0
  6
CONTINUOUS
 10
4.739680
 20
3.494480
  0
VERTEX
  8
0
  6
CONTINUOUS
 10
4.111360
 20
3.146000
  0
VERTEX
  8
0
  6
CONTINUOUS
 10
4.151400
 20
3.185600
  0
SEQEND
  8
0
  0
SOLID
  8
0
 62
    15
 10
4.314640
 20
3.309240
 11
4.942960
 21
3.657720
 12
4.305840
 22
3.268760
 13
4.934160
 23
3.616800
  0
POLYLINE
  8
0
  6
CONTINUOUS
 66
     1
 40
0.000000
 41
0.000000
  0
VERTEX
  8
0
  6
CONTINUOUS
 10
4.314640
 20
3.309240
  0
VERTEX
  8
0
  6
CONTINUOUS
 10
4.942960
 20
3.657720
  0
VERTEX
  8
0
  6
CONTINUOUS
 10
4.934160
 20
3.616800
  0
VERTEX
  8
0
  6
CONTINUOUS
 10
4.305840
 20
3.268760
  0
VERTEX
  8
0
  6
CONTINUOUS
 10
4.314640
 20
3.309240
  0
SEQEND
  8
0
  0
SOLID
  8
0
 62
    15
 10
4.111360
 20
3.146000
 11
4.739680
 21
3.494480
 12
4.077480
 22
3.101560
 13
4.705800
 23
3.450040
  0
POLYLINE
  8
0
  6
CONTINUOUS
 66
     1
 40
0.000000
 41
0.000000
  0
VERTEX
  8
0
  6
CONTINUOUS
 10
4.111360
 20
3.146000
  0
VERTEX
  8
0
  6
CONTINUOUS
 10
4.739680
 20
3.494480
  0
VERTEX
  8
0
  6
CONTINUOUS
 10
4.705800
 20
3.450040
  0
VERTEX
  8
0
  6
CONTINUOUS
 10
4.077480
 20
3.101560
  0
VERTEX
  8
0
  6
CONTINUOUS
 10
4.111360
 20
3.146000
  0
SEQEND
  8
0
  0
SOLID
  8
0
 62
    15
 10
4.077480
 20
3.101560
 11
4.705800
 21
3.450040
 12
4.049760
 22
3.051840
 13
4.678080
 23
3.400320
  0
POLYLINE
  8
0
  6
CONTINUOUS
 66
     1
 40
0.000000
 41
0.000000
  0
VERTEX
  8
0
  6
CONTINUOUS
 10
4.077480
 20
3.101560
  0
VERTEX
  8
0
  6
CONTINUOUS
 10
4.705800
 20
3.450040
  0
VERTEX
  8
0
  6
CONTINUOUS
 10
4.678080
 20
3.400320
  0
VERTEX
  8
0
  6
CONTINUOUS
 10
4.049760
 20
3.051840
  0
VERTEX
  8
0
  6
CONTINUOUS
 10
4.077480
 20
3.101560
  0
SEQEND
  8
0
  0
SOLID
  8
0
 62
    15
 10
4.049760
 20
3.051840
 11
4.678080
 21
3.400320
 12
4.028640
 22
2.997720
 13
4.656520
 23
3.346200
  0
POLYLINE
  8
0
  6
CONTINUOUS
 66
     1
 40
0.000000
 41
0.000000
  0
VERTEX
  8
0
  6
CONTINUOUS
 10
4.049760
 20
3.051840
  0
VERTEX
  8
0
  6
CONTINUOUS
 10
4.678080
 20
3.400320
  0
VERTEX
  8
0
  6
CONTINUOUS
 10
4.656520
 20
3.346200
  0
VERTEX
  8
0
  6
CONTINUOUS
 10
4.028640
 20
2.997720
  0
VERTEX
  8
0
  6
CONTINUOUS
 10
4.049760
 20
3.051840
  0
SEQEND
  8
0
  0
SOLID
  8
0
 62
    15
 10
4.028640
 20
2.997720
 11
4.656520
 21
3.346200
 12
4.013680
 22
2.938760
 13
4.641560
 23
3.287240
  0
POLYLINE
  8
0
  6
CONTINUOUS
 66
     1
 40
0.000000
 41
0.000000
  0
VERTEX
  8
0
  6
CONTINUOUS
 10
4.028640
 20
2.997720
  0
VERTEX
  8
0
  6
CONTINUOUS
 10
4.656520
 20
3.346200
  0
VERTEX
  8
0
  6
CONTINUOUS
 10
4.641560
 20
3.287240
  0
VERTEX
  8
0
  6
CONTINUOUS
 10
4.013680
 20
2.938760
  0
VERTEX
  8
0
  6
CONTINUOUS
 10
4.028640
 20
2.997720
  0
SEQEND
  8
0
  0
SOLID
  8
0
 62
    15
 10
4.013680
 20
2.938760
 11
4.641560
 21
3.287240
 12
4.005320
 22
2.876280
 13
4.633200
 23
3.224760
  0
POLYLINE
  8
0
  6
CONTINUOUS
 66
     1
 40
0.000000
 41
0.000000
  0
VERTEX
  8
0
  6
CONTINUOUS
 10
4.013680
 20
2.938760
  0
VERTEX
  8
0
  6
CONTINUOUS
 10
4.641560
 20
3.287240
  0
VERTEX
  8
0
  6
CONTINUOUS
 10
4.633200
 20
3.224760
  0
VERTEX
  8
0
  6
CONTINUOUS
 10
4.005320
 20
2.876280
  0
VERTEX
  8
0
  6
CONTINUOUS
 10
4.013680
 20
2.938760
  0
SEQEND
  8
0
  0
SOLID
  8
0
 62
    15
 10
4.005320
 20
2.876280
 11
4.633200
 21
3.224760
 12
4.003560
 22
2.810280
 13
4.631440
 23
3.158320
  0
POLYLINE
  8
0
  6
CONTINUOUS
 66
     1
 40
0.000000
 41
0.000000
  0
VERTEX
  8
0
  6
CONTINUOUS
 10
4.005320
 20
2.876280
  0
VERTEX
  8
0
  6
CONTINUOUS
 10
4.633200
 20
3.224760
  0
VERTEX
  8
0
  6
CONTINUOUS
 10
4.631440
 20
3.158320
  0
VERTEX
  8
0
  6
CONTINUOUS
 10
4.003560
 20
2.810280
  0
VERTEX
  8
0
  6
CONTINUOUS
 10
4.005320
 20
2.876280
  0
SEQEND
  8
0
  0
SOLID
  8
0
 62
    15
 10
3.702600
 20
4.233680
 11
4.330920
 21
4.582160
 12
3.754520
 22
4.233680
 13
4.382840
 23
4.582160
  0
POLYLINE
  8
0
  6
CONTINUOUS
 66
     1
 40
0.000000
 41
0.000000
  0
VERTEX
  8
0
  6
CONTINUOUS
 10
3.702600
 20
4.233680
  0
VERTEX
  8
0
  6
CONTINUOUS
 10
4.330920
 20
4.582160
  0
VERTEX
  8
0
  6
CONTINUOUS
 10
4.382840
 20
4.582160
  0
VERTEX
  8
0
  6
CONTINUOUS
 10
3.754520
 20
4.233680
  0
VERTEX
  8
0
  6
CONTINUOUS
 10
3.702600
 20
4.233680
  0
SEQEND
  8
0
  0
SOLID
  8
0
 62
    15
 10
4.008840
 20
2.740320
 11
4.636720
 21
3.088800
 12
4.020720
 22
2.667720
 13
4.649040
 23
3.016200
  0
POLYLINE
  8
0
  6
CONTINUOUS
 66
     1
 40
0.000000
 41
0.000000
  0
VERTEX
  8
0
  6
CONTINUOUS
 10
4.008840
 20
2.740320
  0
VERTEX
  8
0
  6
CONTINUOUS
 10
4.636720
 20
3.088800
  0
VERTEX
  8
0
  6
CONTINUOUS
 10
4.649040
 20
3.016200
  0
VERTEX
  8
0
  6
CONTINUOUS
 10
4.020720
 20
2.667720
  0
VERTEX
  8
0
  6
CONTINUOUS
 10
4.008840
 20
2.740320
  0
SEQEND
  8
0
  0
SOLID
  8
0
 62
    15
 10
4.020720
 20
2.667720
 11
4.649040
 21
3.016200
 12
4.040080
 22
2.592040
 13
4.667960
 23
2.940520
  0
POLYLINE
  8
0
  6
CONTINUOUS
 66
     1
 40
0.000000
 41
0.000000
  0
VERTEX
  8
0
  6
CONTINUOUS
 10
4.020720
 20
2.667720
  0
VERTEX
  8
0
  6
CONTINUOUS
 10
4.649040
 20
3.016200
  0
VERTEX
  8
0
  6
CONTINUOUS
 10
4.667960
 20
2.940520
  0
VERTEX
  8
0
  6
CONTINUOUS
 10
4.040080
 20
2.592040
  0
VERTEX
  8
0
  6
CONTINUOUS
 10
4.020720
 20
2.667720
  0
SEQEND
  8
0
  0
SOLID
  8
0
 62
    15
 10
4.040080
 20
2.592040
 11
4.667960
 21
2.940520
 12
4.066480
 22
2.514160
 13
4.694360
 23
2.862640
  0
POLYLINE
  8
0
  6
CONTINUOUS
 66
     1
 40
0.000000
 41
0.000000
  0
VERTEX
  8
0
  6
CONTINUOUS
 10
4.040080
 20
2.592040
  0
VERTEX
  8
0
  6
CONTINUOUS
 10
4.667960
 20
2.940520
  0
VERTEX
  8
0
  6
CONTINUOUS
 10
4.694360
 20
2.862640
  0
VERTEX
  8
0
  6
CONTINUOUS
 10
4.066480
 20
2.514160
  0
VERTEX
  8
0
  6
CONTINUOUS
 10
4.040080
 20
2.592040
  0
SEQEND
  8
0
  0
SOLID
  8
0
 62
    15
 10
4.066480
 20
2.514160
 11
4.694360
 21
2.862640
 12
4.100360
 22
2.434520
 13
4.728240
 23
2.782560
  0
POLYLINE
  8
0
  6
CONTINUOUS
 66
     1
 40
0.000000
 41
0.000000
  0
VERTEX
  8
0
  6
CONTINUOUS
 10
4.066480
 20
2.514160
  0
VERTEX
  8
0
  6
CONTINUOUS
 10
4.694360
 20
2.862640
  0
VERTEX
  8
0
  6
CONTINUOUS
 10
4.728240
 20
2.782560
  0
VERTEX
  8
0
  6
CONTINUOUS
 10
4.100360
 20
2.434520
  0
VERTEX
  8
0
  6
CONTINUOUS
 10
4.066480
 20
2.514160
  0
SEQEND
  8
0
  0
SOLID
  8
0
 62
    15
 10
4.100360
 20
2.434520
 11
4.728240
 21
2.782560
 12
4.141280
 22
2.352680
 13
4.769600
 23
2.701160
  0
POLYLINE
  8
0
  6
CONTINUOUS
 66
     1
 40
0.000000
 41
0.000000
  0
VERTEX
  8
0
  6
CONTINUOUS
 10
4.100360
 20
2.434520
  0
VERTEX
  8
0
  6
CONTINUOUS
 10
4.728240
 20
2.782560
  0
VERTEX
  8
0
  6
CONTINUOUS
 10
4.769600
 20
2.701160
  0
VERTEX
  8
0
  6
CONTINUOUS
 10
4.141280
 20
2.352680
  0
VERTEX
  8
0
  6
CONTINUOUS
 10
4.100360
 20
2.434520
  0
SEQEND
  8
0
  0
SOLID
  8
0
 62
    15
 10
4.141280
 20
2.352680
 11
4.769600
 21
2.701160
 12
4.185720
 22
2.273920
 13
4.814040
 23
2.622400
  0
POLYLINE
  8
0
  6
CONTINUOUS
 66
     1
 40
0.000000
 41
0.000000
  0
VERTEX
  8
0
  6
CONTINUOUS
 10
4.141280
 20
2.352680
  0
VERTEX
  8
0
  6
CONTINUOUS
 10
4.769600
 20
2.701160
  0
VERTEX
  8
0
  6
CONTINUOUS
 10
4.814040
 20
2.622400
  0
VERTEX
  8
0
  6
CONTINUOUS
 10
4.185720
 20
2.273920
  0
VERTEX
  8
0
  6
CONTINUOUS
 10
4.141280
 20
2.352680
  0
SEQEND
  8
0
  0
SOLID
  8
0
 62
    15
 10
4.185720
 20
2.273920
 11
4.814040
 21
2.622400
 12
4.228400
 22
2.202640
 13
4.856720
 23
2.551120
  0
POLYLINE
  8
0
  6
CONTINUOUS
 66
     1
 40
0.000000
 41
0.000000
  0
VERTEX
  8
0
  6
CONTINUOUS
 10
4.185720
 20
2.273920
  0
VERTEX
  8
0
  6
CONTINUOUS
 10
4.814040
 20
2.622400
  0
VERTEX
  8
0
  6
CONTINUOUS
 10
4.856720
 20
2.551120
  0
VERTEX
  8
0
  6
CONTINUOUS
 10
4.228400
 20
2.202640
  0
VERTEX
  8
0
  6
CONTINUOUS
 10
4.185720
 20
2.273920
  0
SEQEND
  8
0
  0
SOLID
  8
0
 62
    15
 10
4.228400
 20
2.202640
 11
4.856720
 21
2.551120
 12
4.269320
 22
2.137960
 13
4.897640
 23
2.486440
  0
POLYLINE
  8
0
  6
CONTINUOUS
 66
     1
 40
0.000000
 41
0.000000
  0
VERTEX
  8
0
  6
CONTINUOUS
 10
4.228400
 20
2.202640
  0
VERTEX
  8
0
  6
CONTINUOUS
 10
4.856720
 20
2.551120
  0
VERTEX
  8
0
  6
CONTINUOUS
 10
4.897640
 20
2.486440
  0
VERTEX
  8
0
  6
CONTINUOUS
 10
4.269320
 20
2.137960
  0
VERTEX
  8
0
  6
CONTINUOUS
 10
4.228400
 20
2.202640
  0
SEQEND
  8
0
  0
SOLID
  8
0
 62
    15
 10
4.269320
 20
2.137960
 11
4.897640
 21
2.486440
 12
4.308480
 22
2.079000
 13
4.936800
 23
2.427040
  0
POLYLINE
  8
0
  6
CONTINUOUS
 66
     1
 40
0.000000
 41
0.000000
  0
VERTEX
  8
0
  6
CONTINUOUS
 10
4.269320
 20
2.137960
  0
VERTEX
  8
0
  6
CONTINUOUS
 10
4.897640
 20
2.486440
  0
VERTEX
  8
0
  6
CONTINUOUS
 10
4.936800
 20
2.427040
  0
VERTEX
  8
0
  6
CONTINUOUS
 10
4.308480
 20
2.079000
  0
VERTEX
  8
0
  6
CONTINUOUS
 10
4.269320
 20
2.137960
  0
SEQEND
  8
0
  0
SOLID
  8
0
 62
    15
 10
4.308480
 20
2.079000
 11
4.936800
 21
2.427040
 12
4.345440
 22
2.024440
 13
4.973320
 23
2.372920
  0
POLYLINE
  8
0
  6
CONTINUOUS
 66
     1
 40
0.000000
 41
0.000000
  0
VERTEX
  8
0
  6
CONTINUOUS
 10
4.308480
 20
2.079000
  0
VERTEX
  8
0
  6
CONTINUOUS
 10
4.936800
 20
2.427040
  0
VERTEX
  8
0
  6
CONTINUOUS
 10
4.973320
 20
2.372920
  0
VERTEX
  8
0
  6
CONTINUOUS
 10
4.345440
 20
2.024440
  0
VERTEX
  8
0
  6
CONTINUOUS
 10
4.308480
 20
2.079000
  0
SEQEND
  8
0
  0
SOLID
  8
0
 62
    15
 10
4.345440
 20
2.024440
 11
4.973320
 21
2.372920
 12
4.349840
 22
2.017840
 13
4.977720
 23
2.366320
  0
POLYLINE
  8
0
  6
CONTINUOUS
 66
     1
 40
0.000000
 41
0.000000
  0
VERTEX
  8
0
  6
CONTINUOUS
 10
4.345440
 20
2.024440
  0
VERTEX
  8
0
  6
CONTINUOUS
 10
4.973320
 20
2.372920
  0
VERTEX
  8
0
  6
CONTINUOUS
 10
4.977720
 20
2.366320
  0
VERTEX
  8
0
  6
CONTINUOUS
 10
4.349840
 20
2.017840
  0
VERTEX
  8
0
  6
CONTINUOUS
 10
4.345440
 20
2.024440
  0
SEQEND
  8
0
  0
SOLID
  8
0
 62
    15
 10
4.349840
 20
2.017840
 11
4.977720
 21
2.366320
 12
4.354240
 22
2.011240
 13
4.982120
 23
2.359720
  0
POLYLINE
  8
0
  6
CONTINUOUS
 66
     1
 40
0.000000
 41
0.000000
  0
VERTEX
  8
0
  6
CONTINUOUS
 10
4.349840
 20
2.017840
  0
VERTEX
  8
0
  6
CONTINUOUS
 10
4.977720
 20
2.366320
  0
VERTEX
  8
0
  6
CONTINUOUS
 10
4.982120
 20
2.359720
  0
VERTEX
  8
0
  6
CONTINUOUS
 10
4.354240
 20
2.011240
  0
VERTEX
  8
0
  6
CONTINUOUS
 10
4.349840
 20
2.017840
  0
SEQEND
  8
0
  0
SOLID
  8
0
 62
    15
 10
4.354240
 20
2.011240
 11
4.982120
 21
2.359720
 12
4.379760
 22
1.973840
 13
5.007640
 23
2.321880
  0
POLYLINE
  8
0
  6
CONTINUOUS
 66
     1
 40
0.000000
 41
0.000000
  0
VERTEX
  8
0
  6
CONTINUOUS
 10
4.354240
 20
2.011240
  0
VERTEX
  8
0
  6
CONTINUOUS
 10
4.982120
 20
2.359720
  0
VERTEX
  8
0
  6
CONTINUOUS
 10
5.007640
 20
2.321880
  0
VERTEX
  8
0
  6
CONTINUOUS
 10
4.379760
 20
1.973840
  0
VERTEX
  8
0
  6
CONTINUOUS
 10
4.354240
 20
2.011240
  0
SEQEND
  8
0
  0
SOLID
  8
0
 62
    15
 10
4.379760
 20
1.973840
 11
5.007640
 21
2.321880
 12
4.440480
 22
1.880120
 13
5.068800
 23
2.228600
  0
POLYLINE
  8
0
  6
CONTINUOUS
 66
     1
 40
0.000000
 41
0.000000
  0
VERTEX
  8
0
  6
CONTINUOUS
 10
4.379760
 20
1.973840
  0
VERTEX
  8
0
  6
CONTINUOUS
 10
5.007640
 20
2.321880
  0
VERTEX
  8
0
  6
CONTINUOUS
 10
5.068800
 20
2.228600
  0
VERTEX
  8
0
  6
CONTINUOUS
 10
4.440480
 20
1.880120
  0
VERTEX
  8
0
  6
CONTINUOUS
 10
4.379760
 20
1.973840
  0
SEQEND
  8
0
  0
SOLID
  8
0
 62
    15
 10
4.440480
 20
1.880120
 11
5.068800
 21
2.228600
 12
4.489320
 22
1.791240
 13
5.117200
 23
2.139720
  0
POLYLINE
  8
0
  6
CONTINUOUS
 66
     1
 40
0.000000
 41
0.000000
  0
VERTEX
  8
0
  6
CONTINUOUS
 10
4.440480
 20
1.880120
  0
VERTEX
  8
0
  6
CONTINUOUS
 10
5.068800
 20
2.228600
  0
VERTEX
  8
0
  6
CONTINUOUS
 10
5.117200
 20
2.139720
  0
VERTEX
  8
0
  6
CONTINUOUS
 10
4.489320
 20
1.791240
  0
VERTEX
  8
0
  6
CONTINUOUS
 10
4.440480
 20
1.880120
  0
SEQEND
  8
0
  0
SOLID
  8
0
 62
    15
 10
4.489320
 20
1.791240
 11
5.117200
 21
2.139720
 12
4.508680
 22
1.746360
 13
5.136560
 23
2.094840
  0
POLYLINE
  8
0
  6
CONTINUOUS
 66
     1
 40
0.000000
 41
0.000000
  0
VERTEX
  8
0
  6
CONTINUOUS
 10
4.489320
 20
1.791240
  0
VERTEX
  8
0
  6
CONTINUOUS
 10
5.117200
 20
2.139720
  0
VERTEX
  8
0
  6
CONTINUOUS
 10
5.136560
 20
2.094840
  0
VERTEX
  8
0
  6
CONTINUOUS
 10
4.508680
 20
1.746360
  0
VERTEX
  8
0
  6
CONTINUOUS
 10
4.489320
 20
1.791240
  0
SEQEND
  8
0
  0
SOLID
  8
0
 62
    15
 10
4.508680
 20
1.746360
 11
5.136560
 21
2.094840
 12
4.524080
 22
1.700160
 13
5.152400
 23
2.048640
  0
POLYLINE
  8
0
  6
CONTINUOUS
 66
     1
 40
0.000000
 41
0.000000
  0
VERTEX
  8
0
  6
CONTINUOUS
 10
4.508680
 20
1.746360
  0
VERTEX
  8
0
  6
CONTINUOUS
 10
5.136560
 20
2.094840
  0
VERTEX
  8
0
  6
CONTINUOUS
 10
5.152400
 20
2.048640
  0
VERTEX
  8
0
  6
CONTINUOUS
 10
4.524080
 20
1.700160
  0
VERTEX
  8
0
  6
CONTINUOUS
 10
4.508680
 20
1.746360
  0
SEQEND
  8
0
  0
SOLID
  8
0
 62
    15
 10
4.524080
 20
1.700160
 11
5.152400
 21
2.048640
 12
4.535960
 22
1.651320
 13
5.163840
 23
1.999800
  0
POLYLINE
  8
0
  6
CONTINUOUS
 66
     1
 40
0.000000
 41
0.000000
  0
VERTEX
  8
0
  6
CONTINUOUS
 10
4.524080
 20
1.700160
  0
VERTEX
  8
0
  6
CONTINUOUS
 10
5.152400
 20
2.048640
  0
VERTEX
  8
0
  6
CONTINUOUS
 10
5.163840
 20
1.999800
  0
VERTEX
  8
0
  6
CONTINUOUS
 10
4.535960
 20
1.651320
  0
VERTEX
  8
0
  6
CONTINUOUS
 10
4.524080
 20
1.700160
  0
SEQEND
  8
0
  0
SOLID
  8
0
 62
    15
 10
4.535960
 20
1.651320
 11
5.163840
 21
1.999800
 12
4.543880
 22
1.599400
 13
5.171760
 23
1.947880
  0
POLYLINE
  8
0
  6
CONTINUOUS
 66
     1
 40
0.000000
 41
0.000000
  0
VERTEX
  8
0
  6
CONTINUOUS
 10
4.535960
 20
1.651320
  0
VERTEX
  8
0
  6
CONTINUOUS
 10
5.163840
 20
1.999800
  0
VERTEX
  8
0
  6
CONTINUOUS
 10
5.171760
 20
1.947880
  0
VERTEX
  8
0
  6
CONTINUOUS
 10
4.543880
 20
1.599400
  0
VERTEX
  8
0
  6
CONTINUOUS
 10
4.535960
 20
1.651320
  0
SEQEND
  8
0
  0
SOLID
  8
0
 62
    15
 10
4.543880
 20
1.599400
 11
5.171760
 21
1.947880
 12
4.546960
 22
1.543520
 13
5.175280
 23
1.891560
  0
POLYLINE
  8
0
  6
CONTINUOUS
 66
     1
 40
0.000000
 41
0.000000
  0
VERTEX
  8
0
  6
CONTINUOUS
 10
4.543880
 20
1.599400
  0
VERTEX
  8
0
  6
CONTINUOUS
 10
5.171760
 20
1.947880
  0
VERTEX
  8
0
  6
CONTINUOUS
 10
5.175280
 20
1.891560
  0
VERTEX
  8
0
  6
CONTINUOUS
 10
4.546960
 20
1.543520
  0
VERTEX
  8
0
  6
CONTINUOUS
 10
4.543880
 20
1.599400
  0
SEQEND
  8
0
  0
SOLID
  8
0
 62
    15
 10
4.546960
 20
1.543520
 11
5.175280
 21
1.891560
 12
4.546080
 22
1.481920
 13
5.174400
 23
1.830400
  0
POLYLINE
  8
0
  6
CONTINUOUS
 66
     1
 40
0.000000
 41
0.000000
  0
VERTEX
  8
0
  6
CONTINUOUS
 10
4.546960
 20
1.543520
  0
VERTEX
  8
0
  6
CONTINUOUS
 10
5.175280
 20
1.891560
  0
VERTEX
  8
0
  6
CONTINUOUS
 10
5.174400
 20
1.830400
  0
VERTEX
  8
0
  6
CONTINUOUS
 10
4.546080
 20
1.481920
  0
VERTEX
  8
0
  6
CONTINUOUS
 10
4.546960
 20
1.543520
  0
SEQEND
  8
0
  0
SOLID
  8
0
 62
    15
 10
4.546080
 20
1.481920
 11
5.174400
 21
1.830400
 12
4.540360
 22
1.421640
 13
5.168680
 23
1.770120
  0
POLYLINE
  8
0
  6
CONTINUOUS
 66
     1
 40
0.000000
 41
0.000000
  0
VERTEX
  8
0
  6
CONTINUOUS
 10
4.546080
 20
1.481920
  0
VERTEX
  8
0
  6
CONTINUOUS
 10
5.174400
 20
1.830400
  0
VERTEX
  8
0
  6
CONTINUOUS
 10
5.168680
 20
1.770120
  0
VERTEX
  8
0
  6
CONTINUOUS
 10
4.540360
 20
1.421640
  0
VERTEX
  8
0
  6
CONTINUOUS
 10
4.546080
 20
1.481920
  0
SEQEND
  8
0
  0
SOLID
  8
0
 62
    15
 10
4.540360
 20
1.421640
 11
5.168680
 21
1.770120
 12
4.530240
 22
1.367960
 13
5.158560
 23
1.716440
  0
POLYLINE
  8
0
  6
CONTINUOUS
 66
     1
 40
0.000000
 41
0.000000
  0
VERTEX
  8
0
  6
CONTINUOUS
 10
4.540360
 20
1.421640
  0
VERTEX
  8
0
  6
CONTINUOUS
 10
5.168680
 20
1.770120
  0
VERTEX
  8
0
  6
CONTINUOUS
 10
5.158560
 20
1.716440
  0
VERTEX
  8
0
  6
CONTINUOUS
 10
4.530240
 20
1.367960
  0
VERTEX
  8
0
  6
CONTINUOUS
 10
4.540360
 20
1.421640
  0
SEQEND
  8
0
  0
SOLID
  8
0
 62
    15
 10
4.530240
 20
1.367960
 11
5.158560
 21
1.716440
 12
4.516600
 22
1.320880
 13
5.144920
 23
1.668920
  0
POLYLINE
  8
0
  6
CONTINUOUS
 66
     1
 40
0.000000
 41
0.000000
  0
VERTEX
  8
0
  6
CONTINUOUS
 10
4.530240
 20
1.367960
  0
VERTEX
  8
0
  6
CONTINUOUS
 10
5.158560
 20
1.716440
  0
VERTEX
  8
0
  6
CONTINUOUS
 10
5.144920
 20
1.668920
  0
VERTEX
  8
0
  6
CONTINUOUS
 10
4.516600
 20
1.320880
  0
VERTEX
  8
0
  6
CONTINUOUS
 10
4.530240
 20
1.367960
  0
SEQEND
  8
0
  0
SOLID
  8
0
 62
    15
 10
4.516600
 20
1.320880
 11
5.144920
 21
1.668920
 12
4.499880
 22
1.279080
 13
5.127760
 23
1.627560
  0
POLYLINE
  8
0
  6
CONTINUOUS
 66
     1
 40
0.000000
 41
0.000000
  0
VERTEX
  8
0
  6
CONTINUOUS
 10
4.516600
 20
1.320880
  0
VERTEX
  8
0
  6
CONTINUOUS
 10
5.144920
 20
1.668920
  0
VERTEX
  8
0
  6
CONTINUOUS
 10
5.127760
 20
1.627560
  0
VERTEX
  8
0
  6
CONTINUOUS
 10
4.499880
 20
1.279080
  0
VERTEX
  8
0
  6
CONTINUOUS
 10
4.516600
 20
1.320880
  0
SEQEND
  8
0
  0
SOLID
  8
0
 62
    15
 10
4.499880
 20
1.279080
 11
5.127760
 21
1.627560
 12
4.480080
 22
1.243440
 13
5.108400
 23
1.591920
  0
POLYLINE
  8
0
  6
CONTINUOUS
 66
     1
 40
0.000000
 41
0.000000
  0
VERTEX
  8
0
  6
CONTINUOUS
 10
4.499880
 20
1.279080
  0
VERTEX
  8
0
  6
CONTINUOUS
 10
5.127760
 20
1.627560
  0
VERTEX
  8
0
  6
CONTINUOUS
 10
5.108400
 20
1.591920
  0
VERTEX
  8
0
  6
CONTINUOUS
 10
4.480080
 20
1.243440
  0
VERTEX
  8
0
  6
CONTINUOUS
 10
4.499880
 20
1.279080
  0
SEQEND
  8
0
  0
SOLID
  8
0
 62
    15
 10
4.480080
 20
1.243440
 11
5.108400
 21
1.591920
 12
4.458960
 22
1.212640
 13
5.086840
 23
1.561120
  0
POLYLINE
  8
0
  6
CONTINUOUS
 66
     1
 40
0.000000
 41
0.000000
  0
VERTEX
  8
0
  6
CONTINUOUS
 10
4.480080
 20
1.243440
  0
VERTEX
  8
0
  6
CONTINUOUS
 10
5.108400
 20
1.591920
  0
VERTEX
  8
0
  6
CONTINUOUS
 10
5.086840
 20
1.561120
  0
VERTEX
  8
0
  6
CONTINUOUS
 10
4.458960
 20
1.212640
  0
VERTEX
  8
0
  6
CONTINUOUS
 10
4.480080
 20
1.243440
  0
SEQEND
  8
0
  0
SOLID
  8
0
 62
    15
 10
4.261400
 20
1.099560
 11
4.889720
 21
1.448040
 12
4.261400
 22
0.998360
 13
4.889720
 23
1.346840
  0
POLYLINE
  8
0
  6
CONTINUOUS
 66
     1
 40
0.000000
 41
0.000000
  0
VERTEX
  8
0
  6
CONTINUOUS
 10
4.261400
 20
1.099560
  0
VERTEX
  8
0
  6
CONTINUOUS
 10
4.889720
 20
1.448040
  0
VERTEX
  8
0
  6
CONTINUOUS
 10
4.889720
 20
1.346840
  0
VERTEX
  8
0
  6
CONTINUOUS
 10
4.261400
 20
0.998360
  0
VERTEX
  8
0
  6
CONTINUOUS
 10
4.261400
 20
1.099560
  0
SEQEND
  8
0
  0
SOLID
  8
0
 62
    15
 10
4.412320
 20
1.165120
 11
5.040200
 21
1.513600
 12
4.364360
 22
1.133440
 13
4.992680
 23
1.481480
  0
POLYLINE
  8
0
  6
CONTINUOUS
 66
     1
 40
0.000000
 41
0.000000
  0
VERTEX
  8
0
  6
CONTINUOUS
 10
4.412320
 20
1.165120
  0
VERTEX
  8
0
  6
CONTINUOUS
 10
5.040200
 20
1.513600
  0
VERTEX
  8
0
  6
CONTINUOUS
 10
4.992680
 20
1.481480
  0
VERTEX
  8
0
  6
CONTINUOUS
 10
4.364360
 20
1.133440
  0
VERTEX
  8
0
  6
CONTINUOUS
 10
4.412320
 20
1.165120
  0
SEQEND
  8
0
  0
SOLID
  8
0
 62
    15
 10
4.435640
 20
1.186680
 11
5.063960
 21
1.535160
 12
4.412320
 22
1.165120
 13
5.040200
 23
1.513600
  0
POLYLINE
  8
0
  6
CONTINUOUS
 66
     1
 40
0.000000
 41
0.000000
  0
VERTEX
  8
0
  6
CONTINUOUS
 10
4.435640
 20
1.186680
  0
VERTEX
  8
0
  6
CONTINUOUS
 10
5.063960
 20
1.535160
  0
VERTEX
  8
0
  6
CONTINUOUS
 10
5.040200
 20
1.513600
  0
VERTEX
  8
0
  6
CONTINUOUS
 10
4.412320
 20
1.165120
  0
VERTEX
  8
0
  6
CONTINUOUS
 10
4.435640
 20
1.186680
  0
SEQEND
  8
0
  0
SOLID
  8
0
 62
    15
 10
4.458960
 20
1.212640
 11
5.086840
 21
1.561120
 12
4.435640
 22
1.186680
 13
5.063960
 23
1.535160
  0
POLYLINE
  8
0
  6
CONTINUOUS
 66
     1
 40
0.000000
 41
0.000000
  0
VERTEX
  8
0
  6
CONTINUOUS
 10
4.458960
 20
1.212640
  0
VERTEX
  8
0
  6
CONTINUOUS
 10
5.086840
 20
1.561120
  0
VERTEX
  8
0
  6
CONTINUOUS
 10
5.063960
 20
1.535160
  0
VERTEX
  8
0
  6
CONTINUOUS
 10
4.435640
 20
1.186680
  0
VERTEX
  8
0
  6
CONTINUOUS
 10
4.458960
 20
1.212640
  0
SEQEND
  8
0
  0
SOLID
  8
0
 62
    15
 10
3.754520
 20
4.238080
 11
4.382840
 21
4.586560
 12
3.780040
 22
4.236760
 13
4.407920
 23
4.584800
  0
POLYLINE
  8
0
  6
CONTINUOUS
 66
     1
 40
0.000000
 41
0.000000
  0
VERTEX
  8
0
  6
CONTINUOUS
 10
3.754520
 20
4.238080
  0
VERTEX
  8
0
  6
CONTINUOUS
 10
4.382840
 20
4.586560
  0
VERTEX
  8
0
  6
CONTINUOUS
 10
4.407920
 20
4.584800
  0
VERTEX
  8
0
  6
CONTINUOUS
 10
3.780040
 20
4.236760
  0
VERTEX
  8
0
  6
CONTINUOUS
 10
3.754520
 20
4.238080
  0
SEQEND
  8
0
  0
POLYLINE
  8
0
  6
CONTINUOUS
 66
     1
 40
0.000000
 41
0.000000
  0
VERTEX
  8
0
  6
CONTINUOUS
 10
3.754520
 20
4.238080
  0
VERTEX
  8
0
  6
CONTINUOUS
 10
3.780040
 20
4.236760
  0
VERTEX
  8
0
  6
CONTINUOUS
 10
3.801160
 20
4.232360
  0
VERTEX
  8
0
  6
CONTINUOUS
 10
3.819200
 20
4.225760
  0
VERTEX
  8
0
  6
CONTINUOUS
 10
3.833720
 20
4.216520
  0
VERTEX
  8
0
  6
CONTINUOUS
 10
3.855280
 20
4.191440
  0
VERTEX
  8
0
  6
CONTINUOUS
 10
3.868920
 20
4.158880
  0
VERTEX
  8
0
  6
CONTINUOUS
 10
3.878160
 20
4.120600
  0
VERTEX
  8
0
  6
CONTINUOUS
 10
3.885640
 20
4.076600
  0
VERTEX
  8
0
  6
CONTINUOUS
 10
3.895320
 20
4.029520
  0
VERTEX
  8
0
  6
CONTINUOUS
 10
3.910280
 20
3.980240
  0
VERTEX
  8
0
  6
CONTINUOUS
 10
3.932280
 20
3.930080
  0
VERTEX
  8
0
  6
CONTINUOUS
 10
3.960880
 20
3.880800
  0
VERTEX
  8
0
  6
CONTINUOUS
 10
3.994320
 20
3.833280
  0
VERTEX
  8
0
  6
CONTINUOUS
 10
4.031280
 20
3.787080
  0
VERTEX
  8
0
  6
CONTINUOUS
 10
4.110480
 20
3.704360
  0
VERTEX
  8
0
  6
CONTINUOUS
 10
4.185720
 20
3.637480
  0
VERTEX
  8
0
  6
CONTINUOUS
 10
4.219160
 20
3.604040
  0
VERTEX
  8
0
  6
CONTINUOUS
 10
4.249080
 20
3.561800
  0
VERTEX
  8
0
  6
CONTINUOUS
 10
4.274160
 20
3.513400
  0
VERTEX
  8
0
  6
CONTINUOUS
 10
4.294400
 20
3.461480
  0
VERTEX
  8
0
  6
CONTINUOUS
 10
4.308040
 20
3.408240
  0
VERTEX
  8
0
  6
CONTINUOUS
 10
4.315520
 20
3.356760
  0
VERTEX
  8
0
  6
CONTINUOUS
 10
4.314640
 20
3.309240
  0
VERTEX
  8
0
  6
CONTINUOUS
 10
4.305840
 20
3.268760
  0
VERTEX
  8
0
  6
CONTINUOUS
 10
4.248640
 20
3.247200
  0
VERTEX
  8
0
  6
CONTINUOUS
 10
4.197160
 20
3.219040
  0
VERTEX
  8
0
  6
CONTINUOUS
 10
4.151400
 20
3.185600
  0
VERTEX
  8
0
  6
CONTINUOUS
 10
4.111360
 20
3.146000
  0
VERTEX
  8
0
  6
CONTINUOUS
 10
4.077480
 20
3.101560
  0
VERTEX
  8
0
  6
CONTINUOUS
 10
4.049760
 20
3.051840
  0
VERTEX
  8
0
  6
CONTINUOUS
 10
4.028640
 20
2.997720
  0
VERTEX
  8
0
  6
CONTINUOUS
 10
4.013680
 20
2.938760
  0
VERTEX
  8
0
  6
CONTINUOUS
 10
4.005320
 20
2.876280
  0
VERTEX
  8
0
  6
CONTINUOUS
 10
4.003560
 20
2.810280
  0
VERTEX
  8
0
  6
CONTINUOUS
 10
4.008840
 20
2.740320
  0
VERTEX
  8
0
  6
CONTINUOUS
 10
4.020720
 20
2.667720
  0
VERTEX
  8
0
  6
CONTINUOUS
 10
4.040080
 20
2.592040
  0
VERTEX
  8
0
  6
CONTINUOUS
 10
4.066480
 20
2.514160
  0
VERTEX
  8
0
  6
CONTINUOUS
 10
4.100360
 20
2.434520
  0
VERTEX
  8
0
  6
CONTINUOUS
 10
4.141280
 20
2.352680
  0
VERTEX
  8
0
  6
CONTINUOUS
 10
4.185720
 20
2.273920
  0
VERTEX
  8
0
  6
CONTINUOUS
 10
4.228400
 20
2.202640
  0
VERTEX
  8
0
  6
CONTINUOUS
 10
4.308480
 20
2.079000
  0
VERTEX
  8
0
  6
CONTINUOUS
 10
4.379760
 20
1.973840
  0
VERTEX
  8
0
  6
CONTINUOUS
 10
4.440480
 20
1.880120
  0
VERTEX
  8
0
  6
CONTINUOUS
 10
4.489320
 20
1.791240
  0
VERTEX
  8
0
  6
CONTINUOUS
 10
4.508680
 20
1.746360
  0
VERTEX
  8
0
  6
CONTINUOUS
 10
4.524080
 20
1.700160
  0
VERTEX
  8
0
  6
CONTINUOUS
 10
4.535960
 20
1.651320
  0
VERTEX
  8
0
  6
CONTINUOUS
 10
4.543880
 20
1.599400
  0
VERTEX
  8
0
  6
CONTINUOUS
 10
4.546960
 20
1.543520
  0
VERTEX
  8
0
  6
CONTINUOUS
 10
4.546080
 20
1.481920
  0
VERTEX
  8
0
  6
CONTINUOUS
 10
4.540360
 20
1.421640
  0
VERTEX
  8
0
  6
CONTINUOUS
 10
4.530240
 20
1.367960
  0
VERTEX
  8
0
  6
CONTINUOUS
 10
4.516600
 20
1.320880
  0
VERTEX
  8
0
  6
CONTINUOUS
 10
4.499880
 20
1.279080
  0
VERTEX
  8
0
  6
CONTINUOUS
 10
4.480080
 20
1.243440
  0
VERTEX
  8
0
  6
CONTINUOUS
 10
4.458960
 20
1.212640
  0
VERTEX
  8
0
  6
CONTINUOUS
 10
4.435640
 20
1.186680
  0
VERTEX
  8
0
  6
CONTINUOUS
 10
4.412320
 20
1.165120
  0
VERTEX
  8
0
  6
CONTINUOUS
 10
4.364360
 20
1.133440
  0
VERTEX
  8
0
  6
CONTINUOUS
 10
4.320360
 20
1.114080
  0
VERTEX
  8
0
  6
CONTINUOUS
 10
4.271080
 20
1.101320
  0
VERTEX
  8
0
  6
CONTINUOUS
 10
4.261400
 20
1.099560
  0
VERTEX
  8
0
  6
CONTINUOUS
 10
4.261400
 20
0.998360
  0
VERTEX
  8
0
  6
CONTINUOUS
 10
3.702600
 20
0.998360
  0
VERTEX
  8
0
  6
CONTINUOUS
 10
3.702600
 20
4.233680
  0
VERTEX
  8
0
  6
CONTINUOUS
 10
3.754520
 20
4.233680
  0
VERTEX
  8
0
  6
CONTINUOUS
 10
3.754520
 20
4.238080
  0
SEQEND
  8
0
  0
TEXT
  8
0
 10
4.143920
 20
0.713240
 40
0.138047
  1
BA  578
 41
1.000000
  7
SN0
 71
     0
 72
     5
 11
4.734534
 21
0.713240
  0
TEXT
  8
0
 10
3.895760
 20
0.521840
 40
0.138047
  1
13/16" x 3-1/4"
 41
1.000000
  7
SN0
 71
     0
 72
     5
 11
4.982151
 21
0.521840
  0
POLYLINE
  8
0
  6
CONTINUOUS
 66
     1
 40
0.000000
 41
0.000000
  0
VERTEX
  8
0
  6
CONTINUOUS
 10
3.846040
 20
5.151080
  0
VERTEX
  8
0
  6
CONTINUOUS
 10
3.847360
 20
5.176600
  0
VERTEX
  8
0
  6
CONTINUOUS
 10
3.851760
 20
5.197720
  0
VERTEX
  8
0
  6
CONTINUOUS
 10
3.858360
 20
5.215760
  0
VERTEX
  8
0
  6
CONTINUOUS
 10
3.872880
 20
5.236440
  0
VERTEX
  8
0
  6
CONTINUOUS
 10
3.892680
 20
5.251840
  0
VERTEX
  8
0
  6
CONTINUOUS
 10
3.907640
 20
5.259320
  0
VERTEX
  8
0
  6
CONTINUOUS
 10
3.924800
 20
5.265480
  0
VERTEX
  8
0
  6
CONTINUOUS
 10
3.963520
 20
5.274280
  0
VERTEX
  8
0
  6
CONTINUOUS
 10
4.054600
 20
5.291880
  0
VERTEX
  8
0
  6
CONTINUOUS
 10
4.078800
 20
5.298040
  0
VERTEX
  8
0
  6
CONTINUOUS
 10
4.128960
 20
5.316520
  0
VERTEX
  8
0
  6
CONTINUOUS
 10
4.178680
 20
5.342040
  0
VERTEX
  8
0
  6
CONTINUOUS
 10
4.227520
 20
5.373280
  0
VERTEX
  8
0
  6
CONTINUOUS
 10
4.297040
 20
5.427840
  0
VERTEX
  8
0
  6
CONTINUOUS
 10
4.360400
 20
5.486800
  0
VERTEX
  8
0
  6
CONTINUOUS
 10
4.415400
 20
5.545760
  0
VERTEX
  8
0
  6
CONTINUOUS
 10
4.461600
 20
5.599440
  0
VERTEX
  8
0
  6
CONTINUOUS
 10
4.479640
 20
5.615720
  0
VERTEX
  8
0
  6
CONTINUOUS
 10
4.499880
 20
5.631120
  0
VERTEX
  8
0
  6
CONTINUOUS
 10
4.545640
 20
5.658840
  0
VERTEX
  8
0
  6
CONTINUOUS
 10
4.596240
 20
5.681280
  0
VERTEX
  8
0
  6
CONTINUOUS
 10
4.649040
 20
5.698440
  0
VERTEX
  8
0
  6
CONTINUOUS
 10
4.675440
 20
5.704600
  0
VERTEX
  8
0
  6
CONTINUOUS
 10
4.701840
 20
5.709000
  0
VERTEX
  8
0
  6
CONTINUOUS
 10
4.726920
 20
5.711640
  0
VERTEX
  8
0
  6
CONTINUOUS
 10
4.763000
 20
5.712080
  0
VERTEX
  8
0
  6
CONTINUOUS
 10
4.796000
 20
5.708120
  0
VERTEX
  8
0
  6
CONTINUOUS
 10
4.815360
 20
5.702400
  0
VERTEX
  8
0
  6
CONTINUOUS
 10
4.825480
 20
5.672920
  0
VERTEX
  8
0
  6
CONTINUOUS
 10
4.836920
 20
5.645200
  0
VERTEX
  8
0
  6
CONTINUOUS
 10
4.864640
 20
5.593720
  0
VERTEX
  8
0
  6
CONTINUOUS
 10
4.898520
 20
5.547520
  0
VERTEX
  8
0
  6
CONTINUOUS
 10
4.917440
 20
5.526840
  0
VERTEX
  8
0
  6
CONTINUOUS
 10
4.959680
 20
5.489880
  0
VERTEX
  8
0
  6
CONTINUOUS
 10
5.006760
 20
5.459080
  0
VERTEX
  8
0
  6
CONTINUOUS
 10
5.058680
 20
5.434880
  0
VERTEX
  8
0
  6
CONTINUOUS
 10
5.086400
 20
5.424760
  0
VERTEX
  8
0
  6
CONTINUOUS
 10
5.115440
 20
5.416400
  0
VERTEX
  8
0
  6
CONTINUOUS
 10
5.145360
 20
5.409800
  0
VERTEX
  8
0
  6
CONTINUOUS
 10
5.207840
 20
5.401440
  0
VERTEX
  8
0
  6
CONTINUOUS
 10
5.240400
 20
5.399680
  0
VERTEX
  8
0
  6
CONTINUOUS
 10
5.274280
 20
5.399680
  0
VERTEX
  8
0
  6
CONTINUOUS
 10
5.308600
 20
5.401440
  0
VERTEX
  8
0
  6
CONTINUOUS
 10
5.343800
 20
5.404960
  0
VERTEX
  8
0
  6
CONTINUOUS
 10
5.379880
 20
5.410240
  0
VERTEX
  8
0
  6
CONTINUOUS
 10
5.453800
 20
5.426080
  0
VERTEX
  8
0
  6
CONTINUOUS
 10
5.492080
 20
5.436200
  0
VERTEX
  8
0
  6
CONTINUOUS
 10
5.569960
 20
5.462600
  0
VERTEX
  8
0
  6
CONTINUOUS
 10
5.649600
 20
5.496480
  0
VERTEX
  8
0
  6
CONTINUOUS
 10
5.731440
 20
5.537840
  0
VERTEX
  8
0
  6
CONTINUOUS
 10
5.846720
 20
5.603840
  0
VERTEX
  8
0
  6
CONTINUOUS
 10
5.976520
 20
5.685680
  0
VERTEX
  8
0
  6
CONTINUOUS
 10
6.181120
 20
5.822960
  0
VERTEX
  8
0
  6
CONTINUOUS
 10
6.270440
 20
5.874880
  0
VERTEX
  8
0
  6
CONTINUOUS
 10
6.337320
 20
5.904800
  0
VERTEX
  8
0
  6
CONTINUOUS
 10
6.383960
 20
5.920640
  0
VERTEX
  8
0
  6
CONTINUOUS
 10
6.432360
 20
5.932520
  0
VERTEX
  8
0
  6
CONTINUOUS
 10
6.457880
 20
5.936920
  0
VERTEX
  8
0
  6
CONTINUOUS
 10
6.512000
 20
5.942640
  0
VERTEX
  8
0
  6
CONTINUOUS
 10
6.570520
 20
5.943520
  0
VERTEX
  8
0
  6
CONTINUOUS
 10
6.633000
 20
5.940440
  0
VERTEX
  8
0
  6
CONTINUOUS
 10
6.689760
 20
5.932520
  0
VERTEX
  8
0
  6
CONTINUOUS
 10
6.740360
 20
5.920200
  0
VERTEX
  8
0
  6
CONTINUOUS
 10
6.763240
 20
5.913160
  0
VERTEX
  8
0
  6
CONTINUOUS
 10
6.804600
 20
5.896000
  0
VERTEX
  8
0
  6
CONTINUOUS
 10
6.840680
 20
5.876640
  0
VERTEX
  8
0
  6
CONTINUOUS
 10
6.885120
 20
5.844080
  0
VERTEX
  8
0
  6
CONTINUOUS
 10
6.919000
 20
5.808440
  0
VERTEX
  8
0
  6
CONTINUOUS
 10
6.944080
 20
5.772800
  0
VERTEX
  8
0
  6
CONTINUOUS
 10
6.962120
 20
5.738040
  0
VERTEX
  8
0
  6
CONTINUOUS
 10
6.973560
 20
5.706800
  0
VERTEX
  8
0
  6
CONTINUOUS
 10
6.983240
 20
5.667640
  0
VERTEX
  8
0
  6
CONTINUOUS
 10
6.984560
 20
5.657960
  0
VERTEX
  8
0
  6
CONTINUOUS
 10
7.085760
 20
5.657960
  0
VERTEX
  8
0
  6
CONTINUOUS
 10
7.085760
 20
5.099160
  0
VERTEX
  8
0
  6
CONTINUOUS
 10
3.850440
 20
5.099160
  0
VERTEX
  8
0
  6
CONTINUOUS
 10
3.850440
 20
5.151080
  0
VERTEX
  8
0
  6
CONTINUOUS
 10
3.846040
 20
5.151080
  0
SEQEND
  8
0
  0
TEXT
  8
0
 10
6.050000
 20
5.390440
 40
0.138047
  1
BA  578
 41
1.000000
  7
SN0
 71
     0
 72
     5
 11
6.640614
 21
5.390440
  0
TEXT
  8
0
 10
5.801840
 20
5.199040
 40
0.138047
  1
13/16" x 3-1/4"
 41
1.000000
  7
SN0
 71
     0
 72
     5
 11
6.888231
 21
5.199040
  0
ENDSEC
  0
EOF
