  0
SECTION
  2
HEADER
  9
$ACADVER
  1
AC1006
  9
$EXTMIN
 10
2.473680
 20
0.847880
  9
$EXTMAX
 10
6.441600
 20
4.024680
  9
$LTSCALE
 40
0.044000
  9
$PDMODE
 70
    35
  9
$PDSIZE
 40
0.035200
  0
ENDSEC
  0
SECTION
  2
TABLES
  0
TABLE
  2
LTYPE
 70
     9
  0
LTYPE
  2
CONTINUOUS
 70
    64
  3
Solid line
 72
    65
 73
     0
 40
0.000000
  0
LTYPE
  2
DASHED
 70
    64
  3
__ __ __ __ __ __ __ __ __ __ __ __ __ __ __
 72
    65
 73
     2
 40
0.000330
 49
0.000220
 49
-0.000110
  0
LTYPE
  2
HIDDEN
 70
    64
  3
 _ _ _ _ _ _ _ _ _ _ _ _ _ _ _ _ _ _ _ _ _ _
 72
    65
 73
     2
 40
0.000165
 49
0.000110
 49
-0.000055
  0
LTYPE
  2
CENTER
 70
    64
  3
____ _ ____ _ ____ _ ____ _ ____ _ ____ _ ____
 72
    65
 73
     4
 40
0.000880
 49
0.000550
 49
-0.000110
 49
0.000110
 49
-0.000110
  0
LTYPE
  2
PHANTOM
 70
    64
  3
_____ _ _ _____ _ _ _____ _ _ _____ _ _ ____
 72
    65
 73
     6
 40
0.001100
 49
0.000550
 49
-0.000110
 49
0.000110
 49
-0.000110
 49
0.000110
 49
-0.000110
  0
LTYPE
  2
DOT
 70
    64
  3
...............................................
 72
    65
 73
     2
 40
0.000110
 49
0.000000
 49
-0.000110
  0
LTYPE
  2
DASHDOT
 70
    64
  3
__ . __ . __ . __ . __ . __ . __ . __ . __ . __
 72
    65
 73
     4
 40
0.000440
 49
0.000220
 49
-0.000110
 49
0.000000
 49
-0.000110
  0
LTYPE
  2
BORDER
 70
    64
  3
__ __ . __ __ . __ __ . __ __ . __ __ . __ __
 72
    65
 73
     6
 40
0.000770
 49
0.000220
 49
-0.000110
 49
0.000220
 49
-0.000110
 49
0.000000
 49
-0.000110
  0
LTYPE
  2
DIVIDE
 70
    64
  3
__ . . __ . . __ . . __ . . __ . . __ . . __
 72
    65
 73
     6
 40
0.000550
 49
0.000220
 49
-0.000110
 49
0.000000
 49
-0.000110
 49
0.000000
 49
-0.000110
  0
LTYPE
  2
DOTDOT
 70
    64
  3
 . .  . .  . .  . .  . .  . . 
 72
    65
 73
     5
 40
0.000242
 49
-0.000110
 49
0.000000
 49
-0.000110
 49
0.000000
 49
-0.000110
  0
ENDTAB
  0
TABLE
  2
STYLE
 70
     2
  0
STYLE
 70
     0
  2
SN0
 40
0.000000
 41
0.000440
 50
0.000000
 71
     0
 42
0.000000
  3
ROMAND
  0
STYLE
 70
    68
  2
SV0
 40
0.000000
 41
0.000440
 50
0.000000
 71
     0
 42
0.000000
  3
ROMAND
  0
ENDTAB
  0
TABLE
  2
LAYER
 70
     3
  0
LAYER
  2
FOREGROUND
 70
    64
 62
     7
  6
CONTINUOUS
  0
LAYER
  2
BACKGROUND
 70
    65
 62
    -7
  6
CONTINUOUS
  0
LAYER
  2
0
 70
    64
 62
     7
  6
CONTINUOUS
  0
ENDTAB
  0
ENDSEC
  0
SECTION
  2
ENTITIES
  0
POLYLINE
  8
FOREGROUND
  6
CONTINUOUS
 66
     1
 40
0.000000
 41
0.000000
  0
VERTEX
  8
FOREGROUND
  6
CONTINUOUS
 10
0.000000
 20
4.872560
  0
VERTEX
  8
FOREGROUND
  6
CONTINUOUS
 10
8.499920
 20
4.872560
  0
VERTEX
  8
FOREGROUND
  6
CONTINUOUS
 10
8.499920
 20
-6.127440
  0
VERTEX
  8
FOREGROUND
  6
CONTINUOUS
 10
0.000000
 20
-6.127440
  0
VERTEX
  8
FOREGROUND
  6
CONTINUOUS
 10
0.000000
 20
4.872560
  0
SEQEND
  8
0
  0
POLYLINE
  8
FOREGROUND
  6
CONTINUOUS
 66
     1
 40
0.000000
 41
0.000000
  0
VERTEX
  8
FOREGROUND
  6
CONTINUOUS
 10
0.000000
 20
4.872560
  0
VERTEX
  8
FOREGROUND
  6
CONTINUOUS
 10
8.499920
 20
4.872560
  0
VERTEX
  8
FOREGROUND
  6
CONTINUOUS
 10
8.499920
 20
-6.127440
  0
VERTEX
  8
FOREGROUND
  6
CONTINUOUS
 10
0.000000
 20
-6.127440
  0
VERTEX
  8
FOREGROUND
  6
CONTINUOUS
 10
0.000000
 20
4.872560
  0
SEQEND
  8
0
  0
POLYLINE
  8
0
  6
CONTINUOUS
 66
     1
 40
0.014080
 41
0.014080
  0
VERTEX
  8
0
  6
CONTINUOUS
 10
6.337320
 20
3.274040
  0
VERTEX
  8
0
  6
CONTINUOUS
 10
6.337320
 20
4.017200
  0
VERTEX
  8
0
  6
CONTINUOUS
 10
5.823400
 20
4.017200
  0
VERTEX
  8
0
  6
CONTINUOUS
 10
5.823400
 20
3.975840
  0
VERTEX
  8
0
  6
CONTINUOUS
 10
5.824720
 20
3.971880
  0
VERTEX
  8
0
  6
CONTINUOUS
 10
5.823400
 20
3.952520
  0
VERTEX
  8
0
  6
CONTINUOUS
 10
5.819880
 20
3.940640
  0
VERTEX
  8
0
  6
CONTINUOUS
 10
5.811520
 20
3.930080
  0
VERTEX
  8
0
  6
CONTINUOUS
 10
5.808440
 20
3.927880
  0
VERTEX
  8
0
  6
CONTINUOUS
 10
5.782040
 20
3.923480
  0
VERTEX
  8
0
  6
CONTINUOUS
 10
5.759600
 20
3.915120
  0
VERTEX
  8
0
  6
CONTINUOUS
 10
5.741560
 20
3.903680
  0
VERTEX
  8
0
  6
CONTINUOUS
 10
5.719560
 20
3.882120
  0
VERTEX
  8
0
  6
CONTINUOUS
 10
5.702840
 20
3.856160
  0
VERTEX
  8
0
  6
CONTINUOUS
 10
5.665000
 20
3.780480
  0
VERTEX
  8
0
  6
CONTINUOUS
 10
5.647400
 20
3.754960
  0
VERTEX
  8
0
  6
CONTINUOUS
 10
5.624080
 20
3.733840
  0
VERTEX
  8
0
  6
CONTINUOUS
 10
5.604720
 20
3.723280
  0
VERTEX
  8
0
  6
CONTINUOUS
 10
5.581400
 20
3.715800
  0
VERTEX
  8
0
  6
CONTINUOUS
 10
5.553680
 20
3.712280
  0
VERTEX
  8
0
  6
CONTINUOUS
 10
5.527720
 20
3.717560
  0
VERTEX
  8
0
  6
CONTINUOUS
 10
5.507480
 20
3.725040
  0
VERTEX
  8
0
  6
CONTINUOUS
 10
5.487240
 20
3.736920
  0
VERTEX
  8
0
  6
CONTINUOUS
 10
5.473600
 20
3.750560
  0
VERTEX
  8
0
  6
CONTINUOUS
 10
5.465680
 20
3.763760
  0
VERTEX
  8
0
  6
CONTINUOUS
 10
5.459960
 20
3.786200
  0
VERTEX
  8
0
  6
CONTINUOUS
 10
5.458640
 20
3.793240
  0
VERTEX
  8
0
  6
CONTINUOUS
 10
5.457320
 20
3.794560
  0
VERTEX
  8
0
  6
CONTINUOUS
 10
5.393520
 20
3.794560
  0
VERTEX
  8
0
  6
CONTINUOUS
 10
5.393080
 20
3.809520
  0
VERTEX
  8
0
  6
CONTINUOUS
 10
5.388240
 20
3.835920
  0
VERTEX
  8
0
  6
CONTINUOUS
 10
5.379000
 20
3.860120
  0
VERTEX
  8
0
  6
CONTINUOUS
 10
5.366240
 20
3.881240
  0
VERTEX
  8
0
  6
CONTINUOUS
 10
5.349960
 20
3.899280
  0
VERTEX
  8
0
  6
CONTINUOUS
 10
5.331040
 20
3.913360
  0
VERTEX
  8
0
  6
CONTINUOUS
 10
5.310360
 20
3.923480
  0
VERTEX
  8
0
  6
CONTINUOUS
 10
5.287480
 20
3.928320
  0
VERTEX
  8
0
  6
CONTINUOUS
 10
5.265480
 20
3.928760
  0
VERTEX
  8
0
  6
CONTINUOUS
 10
5.246120
 20
3.924800
  0
VERTEX
  8
0
  6
CONTINUOUS
 10
5.228080
 20
3.916880
  0
VERTEX
  8
0
  6
CONTINUOUS
 10
5.203440
 20
3.899280
  0
VERTEX
  8
0
  6
CONTINUOUS
 10
5.183200
 20
3.875520
  0
VERTEX
  8
0
  6
CONTINUOUS
 10
5.168240
 20
3.846480
  0
VERTEX
  8
0
  6
CONTINUOUS
 10
5.162080
 20
3.825360
  0
VERTEX
  8
0
  6
CONTINUOUS
 10
5.161200
 20
3.826680
  0
VERTEX
  8
0
  6
CONTINUOUS
 10
5.021720
 20
3.870240
  0
VERTEX
  8
0
  6
CONTINUOUS
 10
4.930200
 20
3.894880
  0
VERTEX
  8
0
  6
CONTINUOUS
 10
4.838680
 20
3.916000
  0
VERTEX
  8
0
  6
CONTINUOUS
 10
4.747600
 20
3.933600
  0
VERTEX
  8
0
  6
CONTINUOUS
 10
4.656960
 20
3.946800
  0
VERTEX
  8
0
  6
CONTINUOUS
 10
4.565880
 20
3.956480
  0
VERTEX
  8
0
  6
CONTINUOUS
 10
4.474800
 20
3.961760
  0
VERTEX
  8
0
  6
CONTINUOUS
 10
4.383280
 20
3.963080
  0
VERTEX
  8
0
  6
CONTINUOUS
 10
4.290880
 20
3.959560
  0
VERTEX
  8
0
  6
CONTINUOUS
 10
4.198040
 20
3.951640
  0
VERTEX
  8
0
  6
CONTINUOUS
 10
4.103880
 20
3.938880
  0
VERTEX
  8
0
  6
CONTINUOUS
 10
4.008400
 20
3.921280
  0
VERTEX
  8
0
  6
CONTINUOUS
 10
3.911160
 20
3.898400
  0
VERTEX
  8
0
  6
CONTINUOUS
 10
3.812600
 20
3.870680
  0
VERTEX
  8
0
  6
CONTINUOUS
 10
3.712280
 20
3.837240
  0
VERTEX
  8
0
  6
CONTINUOUS
 10
3.661240
 20
3.818760
  0
VERTEX
  8
0
  6
CONTINUOUS
 10
3.655080
 20
3.839880
  0
VERTEX
  8
0
  6
CONTINUOUS
 10
3.640560
 20
3.868920
  0
VERTEX
  8
0
  6
CONTINUOUS
 10
3.620320
 20
3.892680
  0
VERTEX
  8
0
  6
CONTINUOUS
 10
3.595680
 20
3.910280
  0
VERTEX
  8
0
  6
CONTINUOUS
 10
3.577640
 20
3.918200
  0
VERTEX
  8
0
  6
CONTINUOUS
 10
3.558280
 20
3.922160
  0
VERTEX
  8
0
  6
CONTINUOUS
 10
3.536280
 20
3.921720
  0
VERTEX
  8
0
  6
CONTINUOUS
 10
3.513400
 20
3.916880
  0
VERTEX
  8
0
  6
CONTINUOUS
 10
3.492280
 20
3.906760
  0
VERTEX
  8
0
  6
CONTINUOUS
 10
3.473360
 20
3.892680
  0
VERTEX
  8
0
  6
CONTINUOUS
 10
3.457520
 20
3.874640
  0
VERTEX
  8
0
  6
CONTINUOUS
 10
3.444760
 20
3.853520
  0
VERTEX
  8
0
  6
CONTINUOUS
 10
3.435520
 20
3.829320
  0
VERTEX
  8
0
  6
CONTINUOUS
 10
3.430680
 20
3.802920
  0
VERTEX
  8
0
  6
CONTINUOUS
 10
3.430240
 20
3.787960
  0
VERTEX
  8
0
  6
CONTINUOUS
 10
3.366000
 20
3.787960
  0
VERTEX
  8
0
  6
CONTINUOUS
 10
3.345760
 20
3.754960
  0
VERTEX
  8
0
  6
CONTINUOUS
 10
3.327280
 20
3.734280
  0
VERTEX
  8
0
  6
CONTINUOUS
 10
3.311440
 20
3.721080
  0
VERTEX
  8
0
  6
CONTINUOUS
 10
3.292520
 20
3.711400
  0
VERTEX
  8
0
  6
CONTINUOUS
 10
3.270080
 20
3.705680
  0
VERTEX
  8
0
  6
CONTINUOUS
 10
3.242360
 20
3.709200
  0
VERTEX
  8
0
  6
CONTINUOUS
 10
3.219040
 20
3.716680
  0
VERTEX
  8
0
  6
CONTINUOUS
 10
3.199680
 20
3.727240
  0
VERTEX
  8
0
  6
CONTINUOUS
 10
3.183400
 20
3.740880
  0
VERTEX
  8
0
  6
CONTINUOUS
 10
3.170200
 20
3.756720
  0
VERTEX
  8
0
  6
CONTINUOUS
 10
3.158760
 20
3.773880
  0
VERTEX
  8
0
  6
CONTINUOUS
 10
3.120480
 20
3.849560
  0
VERTEX
  8
0
  6
CONTINUOUS
 10
3.103760
 20
3.875520
  0
VERTEX
  8
0
  6
CONTINUOUS
 10
3.081760
 20
3.897080
  0
VERTEX
  8
0
  6
CONTINUOUS
 10
3.063720
 20
3.908520
  0
VERTEX
  8
0
  6
CONTINUOUS
 10
3.041280
 20
3.916880
  0
VERTEX
  8
0
  6
CONTINUOUS
 10
3.014000
 20
3.922160
  0
VERTEX
  8
0
  6
CONTINUOUS
 10
3.006960
 20
3.928760
  0
VERTEX
  8
0
  6
CONTINUOUS
 10
3.002560
 20
3.937120
  0
VERTEX
  8
0
  6
CONTINUOUS
 10
2.999040
 20
3.957800
  0
VERTEX
  8
0
  6
CONTINUOUS
 10
2.999040
 20
3.965280
  0
VERTEX
  8
0
  6
CONTINUOUS
 10
2.997720
 20
3.965280
  0
VERTEX
  8
0
  6
CONTINUOUS
 10
2.997720
 20
4.011920
  0
VERTEX
  8
0
  6
CONTINUOUS
 10
2.482920
 20
4.011920
  0
VERTEX
  8
0
  6
CONTINUOUS
 10
2.484240
 20
4.006640
  0
VERTEX
  8
0
  6
CONTINUOUS
 10
2.484240
 20
3.274040
  0
VERTEX
  8
0
  6
CONTINUOUS
 10
2.489960
 20
3.271400
  0
VERTEX
  8
0
  6
CONTINUOUS
 10
6.328960
 20
3.271400
  0
VERTEX
  8
0
  6
CONTINUOUS
 10
6.337320
 20
3.274040
  0
SEQEND
  8
0
  0
SOLID
  8
0
 62
    15
 10
4.533320
 20
1.977360
 11
4.531560
 21
2.717000
 12
4.624840
 22
1.973840
 13
4.623080
 23
2.713480
  0
POLYLINE
  8
0
  6
CONTINUOUS
 66
     1
 40
0.000000
 41
0.000000
  0
VERTEX
  8
0
  6
CONTINUOUS
 10
4.533320
 20
1.977360
  0
VERTEX
  8
0
  6
CONTINUOUS
 10
4.531560
 20
2.717000
  0
VERTEX
  8
0
  6
CONTINUOUS
 10
4.623080
 20
2.713480
  0
VERTEX
  8
0
  6
CONTINUOUS
 10
4.624840
 20
1.973840
  0
VERTEX
  8
0
  6
CONTINUOUS
 10
4.533320
 20
1.977360
  0
SEQEND
  8
0
  0
SOLID
  8
0
 62
    15
 10
3.102000
 20
1.979120
 11
3.100240
 21
2.718760
 12
3.103320
 22
1.979120
 13
3.101120
 23
2.718760
  0
POLYLINE
  8
0
  6
CONTINUOUS
 66
     1
 40
0.000000
 41
0.000000
  0
VERTEX
  8
0
  6
CONTINUOUS
 10
3.102000
 20
1.979120
  0
VERTEX
  8
0
  6
CONTINUOUS
 10
3.100240
 20
2.718760
  0
VERTEX
  8
0
  6
CONTINUOUS
 10
3.101120
 20
2.718760
  0
VERTEX
  8
0
  6
CONTINUOUS
 10
3.103320
 20
1.979120
  0
VERTEX
  8
0
  6
CONTINUOUS
 10
3.102000
 20
1.979120
  0
SEQEND
  8
0
  0
SOLID
  8
0
 62
    15
 10
2.588520
 20
1.288320
 11
2.586320
 21
2.027960
 12
2.588520
 22
2.020480
 13
2.586320
 23
2.760120
  0
POLYLINE
  8
0
  6
CONTINUOUS
 66
     1
 40
0.000000
 41
0.000000
  0
VERTEX
  8
0
  6
CONTINUOUS
 10
2.588520
 20
1.288320
  0
VERTEX
  8
0
  6
CONTINUOUS
 10
2.586320
 20
2.027960
  0
VERTEX
  8
0
  6
CONTINUOUS
 10
2.586320
 20
2.760120
  0
VERTEX
  8
0
  6
CONTINUOUS
 10
2.588520
 20
2.020480
  0
VERTEX
  8
0
  6
CONTINUOUS
 10
2.588520
 20
1.288320
  0
SEQEND
  8
0
  0
SOLID
  8
0
 62
    15
 10
3.103320
 20
1.979120
 11
3.101120
 21
2.718760
 12
3.103760
 22
1.965920
 13
3.102000
 23
2.705560
  0
POLYLINE
  8
0
  6
CONTINUOUS
 66
     1
 40
0.000000
 41
0.000000
  0
VERTEX
  8
0
  6
CONTINUOUS
 10
3.103320
 20
1.979120
  0
VERTEX
  8
0
  6
CONTINUOUS
 10
3.101120
 20
2.718760
  0
VERTEX
  8
0
  6
CONTINUOUS
 10
3.102000
 20
2.705560
  0
VERTEX
  8
0
  6
CONTINUOUS
 10
3.103760
 20
1.965920
  0
VERTEX
  8
0
  6
CONTINUOUS
 10
3.103320
 20
1.979120
  0
SEQEND
  8
0
  0
SOLID
  8
0
 62
    15
 10
3.103760
 20
1.965920
 11
3.102000
 21
2.705560
 12
3.105520
 22
1.955360
 13
3.103760
 23
2.695000
  0
POLYLINE
  8
0
  6
CONTINUOUS
 66
     1
 40
0.000000
 41
0.000000
  0
VERTEX
  8
0
  6
CONTINUOUS
 10
3.103760
 20
1.965920
  0
VERTEX
  8
0
  6
CONTINUOUS
 10
3.102000
 20
2.705560
  0
VERTEX
  8
0
  6
CONTINUOUS
 10
3.103760
 20
2.695000
  0
VERTEX
  8
0
  6
CONTINUOUS
 10
3.105520
 20
1.955360
  0
VERTEX
  8
0
  6
CONTINUOUS
 10
3.103760
 20
1.965920
  0
SEQEND
  8
0
  0
SOLID
  8
0
 62
    15
 10
3.105520
 20
1.955360
 11
3.103760
 21
2.695000
 12
3.111240
 22
1.943040
 13
3.109040
 23
2.682680
  0
POLYLINE
  8
0
  6
CONTINUOUS
 66
     1
 40
0.000000
 41
0.000000
  0
VERTEX
  8
0
  6
CONTINUOUS
 10
3.105520
 20
1.955360
  0
VERTEX
  8
0
  6
CONTINUOUS
 10
3.103760
 20
2.695000
  0
VERTEX
  8
0
  6
CONTINUOUS
 10
3.109040
 20
2.682680
  0
VERTEX
  8
0
  6
CONTINUOUS
 10
3.111240
 20
1.943040
  0
VERTEX
  8
0
  6
CONTINUOUS
 10
3.105520
 20
1.955360
  0
SEQEND
  8
0
  0
SOLID
  8
0
 62
    15
 10
3.111240
 20
1.943040
 11
3.109040
 21
2.682680
 12
3.116520
 22
1.937760
 13
3.114760
 23
2.677400
  0
POLYLINE
  8
0
  6
CONTINUOUS
 66
     1
 40
0.000000
 41
0.000000
  0
VERTEX
  8
0
  6
CONTINUOUS
 10
3.111240
 20
1.943040
  0
VERTEX
  8
0
  6
CONTINUOUS
 10
3.109040
 20
2.682680
  0
VERTEX
  8
0
  6
CONTINUOUS
 10
3.114760
 20
2.677400
  0
VERTEX
  8
0
  6
CONTINUOUS
 10
3.116520
 20
1.937760
  0
VERTEX
  8
0
  6
CONTINUOUS
 10
3.111240
 20
1.943040
  0
SEQEND
  8
0
  0
SOLID
  8
0
 62
    15
 10
3.116520
 20
1.937760
 11
3.114760
 21
2.677400
 12
3.119160
 22
1.935560
 13
3.117400
 23
2.675200
  0
POLYLINE
  8
0
  6
CONTINUOUS
 66
     1
 40
0.000000
 41
0.000000
  0
VERTEX
  8
0
  6
CONTINUOUS
 10
3.116520
 20
1.937760
  0
VERTEX
  8
0
  6
CONTINUOUS
 10
3.114760
 20
2.677400
  0
VERTEX
  8
0
  6
CONTINUOUS
 10
3.117400
 20
2.675200
  0
VERTEX
  8
0
  6
CONTINUOUS
 10
3.119160
 20
1.935560
  0
VERTEX
  8
0
  6
CONTINUOUS
 10
3.116520
 20
1.937760
  0
SEQEND
  8
0
  0
SOLID
  8
0
 62
    15
 10
3.119160
 20
1.935560
 11
3.117400
 21
2.675200
 12
3.145560
 22
1.930720
 13
3.143800
 23
2.670360
  0
POLYLINE
  8
0
  6
CONTINUOUS
 66
     1
 40
0.000000
 41
0.000000
  0
VERTEX
  8
0
  6
CONTINUOUS
 10
3.119160
 20
1.935560
  0
VERTEX
  8
0
  6
CONTINUOUS
 10
3.117400
 20
2.675200
  0
VERTEX
  8
0
  6
CONTINUOUS
 10
3.143800
 20
2.670360
  0
VERTEX
  8
0
  6
CONTINUOUS
 10
3.145560
 20
1.930720
  0
VERTEX
  8
0
  6
CONTINUOUS
 10
3.119160
 20
1.935560
  0
SEQEND
  8
0
  0
SOLID
  8
0
 62
    15
 10
3.145560
 20
1.930720
 11
3.143800
 21
2.670360
 12
3.168000
 22
1.922800
 13
3.165800
 23
2.662440
  0
POLYLINE
  8
0
  6
CONTINUOUS
 66
     1
 40
0.000000
 41
0.000000
  0
VERTEX
  8
0
  6
CONTINUOUS
 10
3.145560
 20
1.930720
  0
VERTEX
  8
0
  6
CONTINUOUS
 10
3.143800
 20
2.670360
  0
VERTEX
  8
0
  6
CONTINUOUS
 10
3.165800
 20
2.662440
  0
VERTEX
  8
0
  6
CONTINUOUS
 10
3.168000
 20
1.922800
  0
VERTEX
  8
0
  6
CONTINUOUS
 10
3.145560
 20
1.930720
  0
SEQEND
  8
0
  0
SOLID
  8
0
 62
    15
 10
3.168000
 20
1.922800
 11
3.165800
 21
2.662440
 12
3.186040
 22
1.911360
 13
3.184280
 23
2.651000
  0
POLYLINE
  8
0
  6
CONTINUOUS
 66
     1
 40
0.000000
 41
0.000000
  0
VERTEX
  8
0
  6
CONTINUOUS
 10
3.168000
 20
1.922800
  0
VERTEX
  8
0
  6
CONTINUOUS
 10
3.165800
 20
2.662440
  0
VERTEX
  8
0
  6
CONTINUOUS
 10
3.184280
 20
2.651000
  0
VERTEX
  8
0
  6
CONTINUOUS
 10
3.186040
 20
1.911360
  0
VERTEX
  8
0
  6
CONTINUOUS
 10
3.168000
 20
1.922800
  0
SEQEND
  8
0
  0
SOLID
  8
0
 62
    15
 10
3.186040
 20
1.911360
 11
3.184280
 21
2.651000
 12
3.201440
 22
1.897280
 13
3.199240
 23
2.636920
  0
POLYLINE
  8
0
  6
CONTINUOUS
 66
     1
 40
0.000000
 41
0.000000
  0
VERTEX
  8
0
  6
CONTINUOUS
 10
3.186040
 20
1.911360
  0
VERTEX
  8
0
  6
CONTINUOUS
 10
3.184280
 20
2.651000
  0
VERTEX
  8
0
  6
CONTINUOUS
 10
3.199240
 20
2.636920
  0
VERTEX
  8
0
  6
CONTINUOUS
 10
3.201440
 20
1.897280
  0
VERTEX
  8
0
  6
CONTINUOUS
 10
3.186040
 20
1.911360
  0
SEQEND
  8
0
  0
SOLID
  8
0
 62
    15
 10
3.201440
 20
1.897280
 11
3.199240
 21
2.636920
 12
3.224760
 22
1.863400
 13
3.223000
 23
2.603040
  0
POLYLINE
  8
0
  6
CONTINUOUS
 66
     1
 40
0.000000
 41
0.000000
  0
VERTEX
  8
0
  6
CONTINUOUS
 10
3.201440
 20
1.897280
  0
VERTEX
  8
0
  6
CONTINUOUS
 10
3.199240
 20
2.636920
  0
VERTEX
  8
0
  6
CONTINUOUS
 10
3.223000
 20
2.603040
  0
VERTEX
  8
0
  6
CONTINUOUS
 10
3.224760
 20
1.863400
  0
VERTEX
  8
0
  6
CONTINUOUS
 10
3.201440
 20
1.897280
  0
SEQEND
  8
0
  0
SOLID
  8
0
 62
    15
 10
3.224760
 20
1.863400
 11
3.223000
 21
2.603040
 12
3.243680
 22
1.825560
 13
3.241920
 23
2.565200
  0
POLYLINE
  8
0
  6
CONTINUOUS
 66
     1
 40
0.000000
 41
0.000000
  0
VERTEX
  8
0
  6
CONTINUOUS
 10
3.224760
 20
1.863400
  0
VERTEX
  8
0
  6
CONTINUOUS
 10
3.223000
 20
2.603040
  0
VERTEX
  8
0
  6
CONTINUOUS
 10
3.241920
 20
2.565200
  0
VERTEX
  8
0
  6
CONTINUOUS
 10
3.243680
 20
1.825560
  0
VERTEX
  8
0
  6
CONTINUOUS
 10
3.224760
 20
1.863400
  0
SEQEND
  8
0
  0
SOLID
  8
0
 62
    15
 10
3.243680
 20
1.825560
 11
3.241920
 21
2.565200
 12
3.263040
 22
1.788160
 13
3.260840
 23
2.527800
  0
POLYLINE
  8
0
  6
CONTINUOUS
 66
     1
 40
0.000000
 41
0.000000
  0
VERTEX
  8
0
  6
CONTINUOUS
 10
3.243680
 20
1.825560
  0
VERTEX
  8
0
  6
CONTINUOUS
 10
3.241920
 20
2.565200
  0
VERTEX
  8
0
  6
CONTINUOUS
 10
3.260840
 20
2.527800
  0
VERTEX
  8
0
  6
CONTINUOUS
 10
3.263040
 20
1.788160
  0
VERTEX
  8
0
  6
CONTINUOUS
 10
3.243680
 20
1.825560
  0
SEQEND
  8
0
  0
SOLID
  8
0
 62
    15
 10
3.263040
 20
1.788160
 11
3.260840
 21
2.527800
 12
3.287680
 22
1.754720
 13
3.285480
 23
2.494360
  0
POLYLINE
  8
0
  6
CONTINUOUS
 66
     1
 40
0.000000
 41
0.000000
  0
VERTEX
  8
0
  6
CONTINUOUS
 10
3.263040
 20
1.788160
  0
VERTEX
  8
0
  6
CONTINUOUS
 10
3.260840
 20
2.527800
  0
VERTEX
  8
0
  6
CONTINUOUS
 10
3.285480
 20
2.494360
  0
VERTEX
  8
0
  6
CONTINUOUS
 10
3.287680
 20
1.754720
  0
VERTEX
  8
0
  6
CONTINUOUS
 10
3.263040
 20
1.788160
  0
SEQEND
  8
0
  0
SOLID
  8
0
 62
    15
 10
3.287680
 20
1.754720
 11
3.285480
 21
2.494360
 12
3.303520
 22
1.741520
 13
3.301760
 23
2.481160
  0
POLYLINE
  8
0
  6
CONTINUOUS
 66
     1
 40
0.000000
 41
0.000000
  0
VERTEX
  8
0
  6
CONTINUOUS
 10
3.287680
 20
1.754720
  0
VERTEX
  8
0
  6
CONTINUOUS
 10
3.285480
 20
2.494360
  0
VERTEX
  8
0
  6
CONTINUOUS
 10
3.301760
 20
2.481160
  0
VERTEX
  8
0
  6
CONTINUOUS
 10
3.303520
 20
1.741520
  0
VERTEX
  8
0
  6
CONTINUOUS
 10
3.287680
 20
1.754720
  0
SEQEND
  8
0
  0
SOLID
  8
0
 62
    15
 10
3.303520
 20
1.741520
 11
3.301760
 21
2.481160
 12
3.322880
 22
1.730520
 13
3.321120
 23
2.470160
  0
POLYLINE
  8
0
  6
CONTINUOUS
 66
     1
 40
0.000000
 41
0.000000
  0
VERTEX
  8
0
  6
CONTINUOUS
 10
3.303520
 20
1.741520
  0
VERTEX
  8
0
  6
CONTINUOUS
 10
3.301760
 20
2.481160
  0
VERTEX
  8
0
  6
CONTINUOUS
 10
3.321120
 20
2.470160
  0
VERTEX
  8
0
  6
CONTINUOUS
 10
3.322880
 20
1.730520
  0
VERTEX
  8
0
  6
CONTINUOUS
 10
3.303520
 20
1.741520
  0
SEQEND
  8
0
  0
SOLID
  8
0
 62
    15
 10
3.322880
 20
1.730520
 11
3.321120
 21
2.470160
 12
3.346200
 22
1.723480
 13
3.344440
 23
2.463120
  0
POLYLINE
  8
0
  6
CONTINUOUS
 66
     1
 40
0.000000
 41
0.000000
  0
VERTEX
  8
0
  6
CONTINUOUS
 10
3.322880
 20
1.730520
  0
VERTEX
  8
0
  6
CONTINUOUS
 10
3.321120
 20
2.470160
  0
VERTEX
  8
0
  6
CONTINUOUS
 10
3.344440
 20
2.463120
  0
VERTEX
  8
0
  6
CONTINUOUS
 10
3.346200
 20
1.723480
  0
VERTEX
  8
0
  6
CONTINUOUS
 10
3.322880
 20
1.730520
  0
SEQEND
  8
0
  0
SOLID
  8
0
 62
    15
 10
3.346200
 20
1.723480
 11
3.344440
 21
2.463120
 12
3.374360
 22
1.719520
 13
3.372160
 23
2.459160
  0
POLYLINE
  8
0
  6
CONTINUOUS
 66
     1
 40
0.000000
 41
0.000000
  0
VERTEX
  8
0
  6
CONTINUOUS
 10
3.346200
 20
1.723480
  0
VERTEX
  8
0
  6
CONTINUOUS
 10
3.344440
 20
2.463120
  0
VERTEX
  8
0
  6
CONTINUOUS
 10
3.372160
 20
2.459160
  0
VERTEX
  8
0
  6
CONTINUOUS
 10
3.374360
 20
1.719520
  0
VERTEX
  8
0
  6
CONTINUOUS
 10
3.346200
 20
1.723480
  0
SEQEND
  8
0
  0
SOLID
  8
0
 62
    15
 10
3.374360
 20
1.719520
 11
3.372160
 21
2.459160
 12
3.396800
 22
1.725240
 13
3.394600
 23
2.464880
  0
POLYLINE
  8
0
  6
CONTINUOUS
 66
     1
 40
0.000000
 41
0.000000
  0
VERTEX
  8
0
  6
CONTINUOUS
 10
3.374360
 20
1.719520
  0
VERTEX
  8
0
  6
CONTINUOUS
 10
3.372160
 20
2.459160
  0
VERTEX
  8
0
  6
CONTINUOUS
 10
3.394600
 20
2.464880
  0
VERTEX
  8
0
  6
CONTINUOUS
 10
3.396800
 20
1.725240
  0
VERTEX
  8
0
  6
CONTINUOUS
 10
3.374360
 20
1.719520
  0
SEQEND
  8
0
  0
SOLID
  8
0
 62
    15
 10
3.396800
 20
1.725240
 11
3.394600
 21
2.464880
 12
3.415720
 22
1.735360
 13
3.413960
 23
2.475000
  0
POLYLINE
  8
0
  6
CONTINUOUS
 66
     1
 40
0.000000
 41
0.000000
  0
VERTEX
  8
0
  6
CONTINUOUS
 10
3.396800
 20
1.725240
  0
VERTEX
  8
0
  6
CONTINUOUS
 10
3.394600
 20
2.464880
  0
VERTEX
  8
0
  6
CONTINUOUS
 10
3.413960
 20
2.475000
  0
VERTEX
  8
0
  6
CONTINUOUS
 10
3.415720
 20
1.735360
  0
VERTEX
  8
0
  6
CONTINUOUS
 10
3.396800
 20
1.725240
  0
SEQEND
  8
0
  0
SOLID
  8
0
 62
    15
 10
3.415720
 20
1.735360
 11
3.413960
 21
2.475000
 12
3.444320
 22
1.762200
 13
3.442560
 23
2.501840
  0
POLYLINE
  8
0
  6
CONTINUOUS
 66
     1
 40
0.000000
 41
0.000000
  0
VERTEX
  8
0
  6
CONTINUOUS
 10
3.415720
 20
1.735360
  0
VERTEX
  8
0
  6
CONTINUOUS
 10
3.413960
 20
2.475000
  0
VERTEX
  8
0
  6
CONTINUOUS
 10
3.442560
 20
2.501840
  0
VERTEX
  8
0
  6
CONTINUOUS
 10
3.444320
 20
1.762200
  0
VERTEX
  8
0
  6
CONTINUOUS
 10
3.415720
 20
1.735360
  0
SEQEND
  8
0
  0
SOLID
  8
0
 62
    15
 10
3.444320
 20
1.762200
 11
3.442560
 21
2.501840
 12
3.461920
 22
1.788160
 13
3.460160
 23
2.527800
  0
POLYLINE
  8
0
  6
CONTINUOUS
 66
     1
 40
0.000000
 41
0.000000
  0
VERTEX
  8
0
  6
CONTINUOUS
 10
3.444320
 20
1.762200
  0
VERTEX
  8
0
  6
CONTINUOUS
 10
3.442560
 20
2.501840
  0
VERTEX
  8
0
  6
CONTINUOUS
 10
3.460160
 20
2.527800
  0
VERTEX
  8
0
  6
CONTINUOUS
 10
3.461920
 20
1.788160
  0
VERTEX
  8
0
  6
CONTINUOUS
 10
3.444320
 20
1.762200
  0
SEQEND
  8
0
  0
SOLID
  8
0
 62
    15
 10
3.461920
 20
1.788160
 11
3.460160
 21
2.527800
 12
3.466760
 22
1.796960
 13
3.465000
 23
2.536600
  0
POLYLINE
  8
0
  6
CONTINUOUS
 66
     1
 40
0.000000
 41
0.000000
  0
VERTEX
  8
0
  6
CONTINUOUS
 10
3.461920
 20
1.788160
  0
VERTEX
  8
0
  6
CONTINUOUS
 10
3.460160
 20
2.527800
  0
VERTEX
  8
0
  6
CONTINUOUS
 10
3.465000
 20
2.536600
  0
VERTEX
  8
0
  6
CONTINUOUS
 10
3.466760
 20
1.796960
  0
VERTEX
  8
0
  6
CONTINUOUS
 10
3.461920
 20
1.788160
  0
SEQEND
  8
0
  0
SOLID
  8
0
 62
    15
 10
3.466760
 20
1.796960
 11
3.465000
 21
2.536600
 12
3.469400
 22
1.800920
 13
3.467200
 23
2.540560
  0
POLYLINE
  8
0
  6
CONTINUOUS
 66
     1
 40
0.000000
 41
0.000000
  0
VERTEX
  8
0
  6
CONTINUOUS
 10
3.466760
 20
1.796960
  0
VERTEX
  8
0
  6
CONTINUOUS
 10
3.465000
 20
2.536600
  0
VERTEX
  8
0
  6
CONTINUOUS
 10
3.467200
 20
2.540560
  0
VERTEX
  8
0
  6
CONTINUOUS
 10
3.469400
 20
1.800920
  0
VERTEX
  8
0
  6
CONTINUOUS
 10
3.466760
 20
1.796960
  0
SEQEND
  8
0
  0
SOLID
  8
0
 62
    15
 10
3.469400
 20
1.800920
 11
3.467200
 21
2.540560
 12
3.470280
 22
1.802240
 13
3.468520
 23
2.541880
  0
POLYLINE
  8
0
  6
CONTINUOUS
 66
     1
 40
0.000000
 41
0.000000
  0
VERTEX
  8
0
  6
CONTINUOUS
 10
3.469400
 20
1.800920
  0
VERTEX
  8
0
  6
CONTINUOUS
 10
3.467200
 20
2.540560
  0
VERTEX
  8
0
  6
CONTINUOUS
 10
3.468520
 20
2.541880
  0
VERTEX
  8
0
  6
CONTINUOUS
 10
3.470280
 20
1.802240
  0
VERTEX
  8
0
  6
CONTINUOUS
 10
3.469400
 20
1.800920
  0
SEQEND
  8
0
  0
SOLID
  8
0
 62
    15
 10
3.470280
 20
1.802240
 11
3.468520
 21
2.541880
 12
3.534520
 22
1.802240
 13
3.532320
 23
2.541880
  0
POLYLINE
  8
0
  6
CONTINUOUS
 66
     1
 40
0.000000
 41
0.000000
  0
VERTEX
  8
0
  6
CONTINUOUS
 10
3.470280
 20
1.802240
  0
VERTEX
  8
0
  6
CONTINUOUS
 10
3.468520
 20
2.541880
  0
VERTEX
  8
0
  6
CONTINUOUS
 10
3.532320
 20
2.541880
  0
VERTEX
  8
0
  6
CONTINUOUS
 10
3.534520
 20
1.802240
  0
VERTEX
  8
0
  6
CONTINUOUS
 10
3.470280
 20
1.802240
  0
SEQEND
  8
0
  0
SOLID
  8
0
 62
    15
 10
3.534520
 20
1.802240
 11
3.532320
 21
2.541880
 12
3.534520
 22
1.803560
 13
3.532320
 23
2.543200
  0
POLYLINE
  8
0
  6
CONTINUOUS
 66
     1
 40
0.000000
 41
0.000000
  0
VERTEX
  8
0
  6
CONTINUOUS
 10
3.534520
 20
1.802240
  0
VERTEX
  8
0
  6
CONTINUOUS
 10
3.532320
 20
2.541880
  0
VERTEX
  8
0
  6
CONTINUOUS
 10
3.532320
 20
2.543200
  0
VERTEX
  8
0
  6
CONTINUOUS
 10
3.534520
 20
1.803560
  0
VERTEX
  8
0
  6
CONTINUOUS
 10
3.534520
 20
1.802240
  0
SEQEND
  8
0
  0
SOLID
  8
0
 62
    15
 10
3.534520
 20
1.803560
 11
3.532320
 21
2.543200
 12
3.536720
 22
1.830840
 13
3.534960
 23
2.570480
  0
POLYLINE
  8
0
  6
CONTINUOUS
 66
     1
 40
0.000000
 41
0.000000
  0
VERTEX
  8
0
  6
CONTINUOUS
 10
3.534520
 20
1.803560
  0
VERTEX
  8
0
  6
CONTINUOUS
 10
3.532320
 20
2.543200
  0
VERTEX
  8
0
  6
CONTINUOUS
 10
3.534960
 20
2.570480
  0
VERTEX
  8
0
  6
CONTINUOUS
 10
3.536720
 20
1.830840
  0
VERTEX
  8
0
  6
CONTINUOUS
 10
3.534520
 20
1.803560
  0
SEQEND
  8
0
  0
SOLID
  8
0
 62
    15
 10
3.536720
 20
1.830840
 11
3.534960
 21
2.570480
 12
3.543760
 22
1.855920
 13
3.542000
 23
2.595560
  0
POLYLINE
  8
0
  6
CONTINUOUS
 66
     1
 40
0.000000
 41
0.000000
  0
VERTEX
  8
0
  6
CONTINUOUS
 10
3.536720
 20
1.830840
  0
VERTEX
  8
0
  6
CONTINUOUS
 10
3.534960
 20
2.570480
  0
VERTEX
  8
0
  6
CONTINUOUS
 10
3.542000
 20
2.595560
  0
VERTEX
  8
0
  6
CONTINUOUS
 10
3.543760
 20
1.855920
  0
VERTEX
  8
0
  6
CONTINUOUS
 10
3.536720
 20
1.830840
  0
SEQEND
  8
0
  0
SOLID
  8
0
 62
    15
 10
3.543760
 20
1.855920
 11
3.542000
 21
2.595560
 12
3.554760
 22
1.878360
 13
3.553000
 23
2.618000
  0
POLYLINE
  8
0
  6
CONTINUOUS
 66
     1
 40
0.000000
 41
0.000000
  0
VERTEX
  8
0
  6
CONTINUOUS
 10
3.543760
 20
1.855920
  0
VERTEX
  8
0
  6
CONTINUOUS
 10
3.542000
 20
2.595560
  0
VERTEX
  8
0
  6
CONTINUOUS
 10
3.553000
 20
2.618000
  0
VERTEX
  8
0
  6
CONTINUOUS
 10
3.554760
 20
1.878360
  0
VERTEX
  8
0
  6
CONTINUOUS
 10
3.543760
 20
1.855920
  0
SEQEND
  8
0
  0
SOLID
  8
0
 62
    15
 10
3.554760
 20
1.878360
 11
3.553000
 21
2.618000
 12
3.569280
 22
1.898160
 13
3.567520
 23
2.637800
  0
POLYLINE
  8
0
  6
CONTINUOUS
 66
     1
 40
0.000000
 41
0.000000
  0
VERTEX
  8
0
  6
CONTINUOUS
 10
3.554760
 20
1.878360
  0
VERTEX
  8
0
  6
CONTINUOUS
 10
3.553000
 20
2.618000
  0
VERTEX
  8
0
  6
CONTINUOUS
 10
3.567520
 20
2.637800
  0
VERTEX
  8
0
  6
CONTINUOUS
 10
3.569280
 20
1.898160
  0
VERTEX
  8
0
  6
CONTINUOUS
 10
3.554760
 20
1.878360
  0
SEQEND
  8
0
  0
SOLID
  8
0
 62
    15
 10
3.569280
 20
1.898160
 11
3.567520
 21
2.637800
 12
3.586880
 22
1.914000
 13
3.585120
 23
2.653640
  0
POLYLINE
  8
0
  6
CONTINUOUS
 66
     1
 40
0.000000
 41
0.000000
  0
VERTEX
  8
0
  6
CONTINUOUS
 10
3.569280
 20
1.898160
  0
VERTEX
  8
0
  6
CONTINUOUS
 10
3.567520
 20
2.637800
  0
VERTEX
  8
0
  6
CONTINUOUS
 10
3.585120
 20
2.653640
  0
VERTEX
  8
0
  6
CONTINUOUS
 10
3.586880
 20
1.914000
  0
VERTEX
  8
0
  6
CONTINUOUS
 10
3.569280
 20
1.898160
  0
SEQEND
  8
0
  0
SOLID
  8
0
 62
    15
 10
3.586880
 20
1.914000
 11
3.585120
 21
2.653640
 12
3.606680
 22
1.926320
 13
3.604920
 23
2.665960
  0
POLYLINE
  8
0
  6
CONTINUOUS
 66
     1
 40
0.000000
 41
0.000000
  0
VERTEX
  8
0
  6
CONTINUOUS
 10
3.586880
 20
1.914000
  0
VERTEX
  8
0
  6
CONTINUOUS
 10
3.585120
 20
2.653640
  0
VERTEX
  8
0
  6
CONTINUOUS
 10
3.604920
 20
2.665960
  0
VERTEX
  8
0
  6
CONTINUOUS
 10
3.606680
 20
1.926320
  0
VERTEX
  8
0
  6
CONTINUOUS
 10
3.586880
 20
1.914000
  0
SEQEND
  8
0
  0
SOLID
  8
0
 62
    15
 10
3.606680
 20
1.926320
 11
3.604920
 21
2.665960
 12
3.628680
 22
1.933800
 13
3.626920
 23
2.673880
  0
POLYLINE
  8
0
  6
CONTINUOUS
 66
     1
 40
0.000000
 41
0.000000
  0
VERTEX
  8
0
  6
CONTINUOUS
 10
3.606680
 20
1.926320
  0
VERTEX
  8
0
  6
CONTINUOUS
 10
3.604920
 20
2.665960
  0
VERTEX
  8
0
  6
CONTINUOUS
 10
3.626920
 20
2.673880
  0
VERTEX
  8
0
  6
CONTINUOUS
 10
3.628680
 20
1.933800
  0
VERTEX
  8
0
  6
CONTINUOUS
 10
3.606680
 20
1.926320
  0
SEQEND
  8
0
  0
SOLID
  8
0
 62
    15
 10
3.628680
 20
1.933800
 11
3.626920
 21
2.673880
 12
3.652440
 22
1.936880
 13
3.650240
 23
2.676520
  0
POLYLINE
  8
0
  6
CONTINUOUS
 66
     1
 40
0.000000
 41
0.000000
  0
VERTEX
  8
0
  6
CONTINUOUS
 10
3.628680
 20
1.933800
  0
VERTEX
  8
0
  6
CONTINUOUS
 10
3.626920
 20
2.673880
  0
VERTEX
  8
0
  6
CONTINUOUS
 10
3.650240
 20
2.676520
  0
VERTEX
  8
0
  6
CONTINUOUS
 10
3.652440
 20
1.936880
  0
VERTEX
  8
0
  6
CONTINUOUS
 10
3.628680
 20
1.933800
  0
SEQEND
  8
0
  0
SOLID
  8
0
 62
    15
 10
3.652440
 20
1.936880
 11
3.650240
 21
2.676520
 12
3.672240
 22
1.934680
 13
3.670040
 23
2.674320
  0
POLYLINE
  8
0
  6
CONTINUOUS
 66
     1
 40
0.000000
 41
0.000000
  0
VERTEX
  8
0
  6
CONTINUOUS
 10
3.652440
 20
1.936880
  0
VERTEX
  8
0
  6
CONTINUOUS
 10
3.650240
 20
2.676520
  0
VERTEX
  8
0
  6
CONTINUOUS
 10
3.670040
 20
2.674320
  0
VERTEX
  8
0
  6
CONTINUOUS
 10
3.672240
 20
1.934680
  0
VERTEX
  8
0
  6
CONTINUOUS
 10
3.652440
 20
1.936880
  0
SEQEND
  8
0
  0
SOLID
  8
0
 62
    15
 10
3.672240
 20
1.934680
 11
3.670040
 21
2.674320
 12
3.691160
 22
1.928520
 13
3.688960
 23
2.668160
  0
POLYLINE
  8
0
  6
CONTINUOUS
 66
     1
 40
0.000000
 41
0.000000
  0
VERTEX
  8
0
  6
CONTINUOUS
 10
3.672240
 20
1.934680
  0
VERTEX
  8
0
  6
CONTINUOUS
 10
3.670040
 20
2.674320
  0
VERTEX
  8
0
  6
CONTINUOUS
 10
3.688960
 20
2.668160
  0
VERTEX
  8
0
  6
CONTINUOUS
 10
3.691160
 20
1.928520
  0
VERTEX
  8
0
  6
CONTINUOUS
 10
3.672240
 20
1.934680
  0
SEQEND
  8
0
  0
SOLID
  8
0
 62
    15
 10
3.691160
 20
1.928520
 11
3.688960
 21
2.668160
 12
3.708320
 22
1.919280
 13
3.706560
 23
2.658920
  0
POLYLINE
  8
0
  6
CONTINUOUS
 66
     1
 40
0.000000
 41
0.000000
  0
VERTEX
  8
0
  6
CONTINUOUS
 10
3.691160
 20
1.928520
  0
VERTEX
  8
0
  6
CONTINUOUS
 10
3.688960
 20
2.668160
  0
VERTEX
  8
0
  6
CONTINUOUS
 10
3.706560
 20
2.658920
  0
VERTEX
  8
0
  6
CONTINUOUS
 10
3.708320
 20
1.919280
  0
VERTEX
  8
0
  6
CONTINUOUS
 10
3.691160
 20
1.928520
  0
SEQEND
  8
0
  0
SOLID
  8
0
 62
    15
 10
3.708320
 20
1.919280
 11
3.706560
 21
2.658920
 12
3.724600
 22
1.906520
 13
3.722400
 23
2.646160
  0
POLYLINE
  8
0
  6
CONTINUOUS
 66
     1
 40
0.000000
 41
0.000000
  0
VERTEX
  8
0
  6
CONTINUOUS
 10
3.708320
 20
1.919280
  0
VERTEX
  8
0
  6
CONTINUOUS
 10
3.706560
 20
2.658920
  0
VERTEX
  8
0
  6
CONTINUOUS
 10
3.722400
 20
2.646160
  0
VERTEX
  8
0
  6
CONTINUOUS
 10
3.724600
 20
1.906520
  0
VERTEX
  8
0
  6
CONTINUOUS
 10
3.708320
 20
1.919280
  0
SEQEND
  8
0
  0
SOLID
  8
0
 62
    15
 10
3.724600
 20
1.906520
 11
3.722400
 21
2.646160
 12
3.750120
 22
1.873960
 13
3.748360
 23
2.613600
  0
POLYLINE
  8
0
  6
CONTINUOUS
 66
     1
 40
0.000000
 41
0.000000
  0
VERTEX
  8
0
  6
CONTINUOUS
 10
3.724600
 20
1.906520
  0
VERTEX
  8
0
  6
CONTINUOUS
 10
3.722400
 20
2.646160
  0
VERTEX
  8
0
  6
CONTINUOUS
 10
3.748360
 20
2.613600
  0
VERTEX
  8
0
  6
CONTINUOUS
 10
3.750120
 20
1.873960
  0
VERTEX
  8
0
  6
CONTINUOUS
 10
3.724600
 20
1.906520
  0
SEQEND
  8
0
  0
SOLID
  8
0
 62
    15
 10
3.750120
 20
1.873960
 11
3.748360
 21
2.613600
 12
3.765520
 22
1.833040
 13
3.763760
 23
2.572680
  0
POLYLINE
  8
0
  6
CONTINUOUS
 66
     1
 40
0.000000
 41
0.000000
  0
VERTEX
  8
0
  6
CONTINUOUS
 10
3.750120
 20
1.873960
  0
VERTEX
  8
0
  6
CONTINUOUS
 10
3.748360
 20
2.613600
  0
VERTEX
  8
0
  6
CONTINUOUS
 10
3.763760
 20
2.572680
  0
VERTEX
  8
0
  6
CONTINUOUS
 10
3.765520
 20
1.833040
  0
VERTEX
  8
0
  6
CONTINUOUS
 10
3.750120
 20
1.873960
  0
SEQEND
  8
0
  0
SOLID
  8
0
 62
    15
 10
3.765520
 20
1.833040
 11
3.763760
 21
2.572680
 12
3.867160
 22
1.868680
 13
3.864960
 23
2.608320
  0
POLYLINE
  8
0
  6
CONTINUOUS
 66
     1
 40
0.000000
 41
0.000000
  0
VERTEX
  8
0
  6
CONTINUOUS
 10
3.765520
 20
1.833040
  0
VERTEX
  8
0
  6
CONTINUOUS
 10
3.763760
 20
2.572680
  0
VERTEX
  8
0
  6
CONTINUOUS
 10
3.864960
 20
2.608320
  0
VERTEX
  8
0
  6
CONTINUOUS
 10
3.867160
 20
1.868680
  0
VERTEX
  8
0
  6
CONTINUOUS
 10
3.765520
 20
1.833040
  0
SEQEND
  8
0
  0
SOLID
  8
0
 62
    15
 10
3.867160
 20
1.868680
 11
3.864960
 21
2.608320
 12
3.966600
 22
1.899480
 13
3.964400
 23
2.639120
  0
POLYLINE
  8
0
  6
CONTINUOUS
 66
     1
 40
0.000000
 41
0.000000
  0
VERTEX
  8
0
  6
CONTINUOUS
 10
3.867160
 20
1.868680
  0
VERTEX
  8
0
  6
CONTINUOUS
 10
3.864960
 20
2.608320
  0
VERTEX
  8
0
  6
CONTINUOUS
 10
3.964400
 20
2.639120
  0
VERTEX
  8
0
  6
CONTINUOUS
 10
3.966600
 20
1.899480
  0
VERTEX
  8
0
  6
CONTINUOUS
 10
3.867160
 20
1.868680
  0
SEQEND
  8
0
  0
SOLID
  8
0
 62
    15
 10
3.966600
 20
1.899480
 11
3.964400
 21
2.639120
 12
4.064280
 22
1.924560
 13
4.062520
 23
2.664200
  0
POLYLINE
  8
0
  6
CONTINUOUS
 66
     1
 40
0.000000
 41
0.000000
  0
VERTEX
  8
0
  6
CONTINUOUS
 10
3.966600
 20
1.899480
  0
VERTEX
  8
0
  6
CONTINUOUS
 10
3.964400
 20
2.639120
  0
VERTEX
  8
0
  6
CONTINUOUS
 10
4.062520
 20
2.664200
  0
VERTEX
  8
0
  6
CONTINUOUS
 10
4.064280
 20
1.924560
  0
VERTEX
  8
0
  6
CONTINUOUS
 10
3.966600
 20
1.899480
  0
SEQEND
  8
0
  0
SOLID
  8
0
 62
    15
 10
4.064280
 20
1.924560
 11
4.062520
 21
2.664200
 12
4.160640
 22
1.944800
 13
4.158440
 23
2.684440
  0
POLYLINE
  8
0
  6
CONTINUOUS
 66
     1
 40
0.000000
 41
0.000000
  0
VERTEX
  8
0
  6
CONTINUOUS
 10
4.064280
 20
1.924560
  0
VERTEX
  8
0
  6
CONTINUOUS
 10
4.062520
 20
2.664200
  0
VERTEX
  8
0
  6
CONTINUOUS
 10
4.158440
 20
2.684440
  0
VERTEX
  8
0
  6
CONTINUOUS
 10
4.160640
 20
1.944800
  0
VERTEX
  8
0
  6
CONTINUOUS
 10
4.064280
 20
1.924560
  0
SEQEND
  8
0
  0
SOLID
  8
0
 62
    15
 10
4.160640
 20
1.944800
 11
4.158440
 21
2.684440
 12
4.255240
 22
1.959760
 13
4.253480
 23
2.699400
  0
POLYLINE
  8
0
  6
CONTINUOUS
 66
     1
 40
0.000000
 41
0.000000
  0
VERTEX
  8
0
  6
CONTINUOUS
 10
4.160640
 20
1.944800
  0
VERTEX
  8
0
  6
CONTINUOUS
 10
4.158440
 20
2.684440
  0
VERTEX
  8
0
  6
CONTINUOUS
 10
4.253480
 20
2.699400
  0
VERTEX
  8
0
  6
CONTINUOUS
 10
4.255240
 20
1.959760
  0
VERTEX
  8
0
  6
CONTINUOUS
 10
4.160640
 20
1.944800
  0
SEQEND
  8
0
  0
SOLID
  8
0
 62
    15
 10
4.255240
 20
1.959760
 11
4.253480
 21
2.699400
 12
4.348960
 22
1.970320
 13
4.346760
 23
2.709960
  0
POLYLINE
  8
0
  6
CONTINUOUS
 66
     1
 40
0.000000
 41
0.000000
  0
VERTEX
  8
0
  6
CONTINUOUS
 10
4.255240
 20
1.959760
  0
VERTEX
  8
0
  6
CONTINUOUS
 10
4.253480
 20
2.699400
  0
VERTEX
  8
0
  6
CONTINUOUS
 10
4.346760
 20
2.709960
  0
VERTEX
  8
0
  6
CONTINUOUS
 10
4.348960
 20
1.970320
  0
VERTEX
  8
0
  6
CONTINUOUS
 10
4.255240
 20
1.959760
  0
SEQEND
  8
0
  0
SOLID
  8
0
 62
    15
 10
4.348960
 20
1.970320
 11
4.346760
 21
2.709960
 12
4.441800
 22
1.976040
 13
4.439600
 23
2.715680
  0
POLYLINE
  8
0
  6
CONTINUOUS
 66
     1
 40
0.000000
 41
0.000000
  0
VERTEX
  8
0
  6
CONTINUOUS
 10
4.348960
 20
1.970320
  0
VERTEX
  8
0
  6
CONTINUOUS
 10
4.346760
 20
2.709960
  0
VERTEX
  8
0
  6
CONTINUOUS
 10
4.439600
 20
2.715680
  0
VERTEX
  8
0
  6
CONTINUOUS
 10
4.441800
 20
1.976040
  0
VERTEX
  8
0
  6
CONTINUOUS
 10
4.348960
 20
1.970320
  0
SEQEND
  8
0
  0
SOLID
  8
0
 62
    15
 10
4.441800
 20
1.976040
 11
4.439600
 21
2.715680
 12
4.533320
 22
1.977360
 13
4.531560
 23
2.717000
  0
POLYLINE
  8
0
  6
CONTINUOUS
 66
     1
 40
0.000000
 41
0.000000
  0
VERTEX
  8
0
  6
CONTINUOUS
 10
4.441800
 20
1.976040
  0
VERTEX
  8
0
  6
CONTINUOUS
 10
4.439600
 20
2.715680
  0
VERTEX
  8
0
  6
CONTINUOUS
 10
4.531560
 20
2.717000
  0
VERTEX
  8
0
  6
CONTINUOUS
 10
4.533320
 20
1.977360
  0
VERTEX
  8
0
  6
CONTINUOUS
 10
4.441800
 20
1.976040
  0
SEQEND
  8
0
  0
SOLID
  8
0
 62
    15
 10
2.587200
 20
2.025760
 11
2.585440
 21
2.765400
 12
3.102000
 22
2.025760
 13
3.100240
 23
2.765400
  0
POLYLINE
  8
0
  6
CONTINUOUS
 66
     1
 40
0.000000
 41
0.000000
  0
VERTEX
  8
0
  6
CONTINUOUS
 10
2.587200
 20
2.025760
  0
VERTEX
  8
0
  6
CONTINUOUS
 10
2.585440
 20
2.765400
  0
VERTEX
  8
0
  6
CONTINUOUS
 10
3.100240
 20
2.765400
  0
VERTEX
  8
0
  6
CONTINUOUS
 10
3.102000
 20
2.025760
  0
VERTEX
  8
0
  6
CONTINUOUS
 10
2.587200
 20
2.025760
  0
SEQEND
  8
0
  0
SOLID
  8
0
 62
    15
 10
4.624840
 20
1.973840
 11
4.623080
 21
2.713480
 12
4.715920
 22
1.966360
 13
4.713720
 23
2.706000
  0
POLYLINE
  8
0
  6
CONTINUOUS
 66
     1
 40
0.000000
 41
0.000000
  0
VERTEX
  8
0
  6
CONTINUOUS
 10
4.624840
 20
1.973840
  0
VERTEX
  8
0
  6
CONTINUOUS
 10
4.623080
 20
2.713480
  0
VERTEX
  8
0
  6
CONTINUOUS
 10
4.713720
 20
2.706000
  0
VERTEX
  8
0
  6
CONTINUOUS
 10
4.715920
 20
1.966360
  0
VERTEX
  8
0
  6
CONTINUOUS
 10
4.624840
 20
1.973840
  0
SEQEND
  8
0
  0
SOLID
  8
0
 62
    15
 10
4.715920
 20
1.966360
 11
4.713720
 21
2.706000
 12
4.806560
 22
1.954920
 13
4.804800
 23
2.694560
  0
POLYLINE
  8
0
  6
CONTINUOUS
 66
     1
 40
0.000000
 41
0.000000
  0
VERTEX
  8
0
  6
CONTINUOUS
 10
4.715920
 20
1.966360
  0
VERTEX
  8
0
  6
CONTINUOUS
 10
4.713720
 20
2.706000
  0
VERTEX
  8
0
  6
CONTINUOUS
 10
4.804800
 20
2.694560
  0
VERTEX
  8
0
  6
CONTINUOUS
 10
4.806560
 20
1.954920
  0
VERTEX
  8
0
  6
CONTINUOUS
 10
4.715920
 20
1.966360
  0
SEQEND
  8
0
  0
SOLID
  8
0
 62
    15
 10
4.806560
 20
1.954920
 11
4.804800
 21
2.694560
 12
4.897640
 22
1.939520
 13
4.895440
 23
2.679160
  0
POLYLINE
  8
0
  6
CONTINUOUS
 66
     1
 40
0.000000
 41
0.000000
  0
VERTEX
  8
0
  6
CONTINUOUS
 10
4.806560
 20
1.954920
  0
VERTEX
  8
0
  6
CONTINUOUS
 10
4.804800
 20
2.694560
  0
VERTEX
  8
0
  6
CONTINUOUS
 10
4.895440
 20
2.679160
  0
VERTEX
  8
0
  6
CONTINUOUS
 10
4.897640
 20
1.939520
  0
VERTEX
  8
0
  6
CONTINUOUS
 10
4.806560
 20
1.954920
  0
SEQEND
  8
0
  0
SOLID
  8
0
 62
    15
 10
4.897640
 20
1.939520
 11
4.895440
 21
2.679160
 12
4.988720
 22
1.920160
 13
4.986520
 23
2.659800
  0
POLYLINE
  8
0
  6
CONTINUOUS
 66
     1
 40
0.000000
 41
0.000000
  0
VERTEX
  8
0
  6
CONTINUOUS
 10
4.897640
 20
1.939520
  0
VERTEX
  8
0
  6
CONTINUOUS
 10
4.895440
 20
2.679160
  0
VERTEX
  8
0
  6
CONTINUOUS
 10
4.986520
 20
2.659800
  0
VERTEX
  8
0
  6
CONTINUOUS
 10
4.988720
 20
1.920160
  0
VERTEX
  8
0
  6
CONTINUOUS
 10
4.897640
 20
1.939520
  0
SEQEND
  8
0
  0
SOLID
  8
0
 62
    15
 10
4.988720
 20
1.920160
 11
4.986520
 21
2.659800
 12
5.080240
 22
1.897280
 13
5.078040
 23
2.636920
  0
POLYLINE
  8
0
  6
CONTINUOUS
 66
     1
 40
0.000000
 41
0.000000
  0
VERTEX
  8
0
  6
CONTINUOUS
 10
4.988720
 20
1.920160
  0
VERTEX
  8
0
  6
CONTINUOUS
 10
4.986520
 20
2.659800
  0
VERTEX
  8
0
  6
CONTINUOUS
 10
5.078040
 20
2.636920
  0
VERTEX
  8
0
  6
CONTINUOUS
 10
5.080240
 20
1.897280
  0
VERTEX
  8
0
  6
CONTINUOUS
 10
4.988720
 20
1.920160
  0
SEQEND
  8
0
  0
SOLID
  8
0
 62
    15
 10
5.080240
 20
1.897280
 11
5.078040
 21
2.636920
 12
5.172200
 22
1.870880
 13
5.170440
 23
2.610520
  0
POLYLINE
  8
0
  6
CONTINUOUS
 66
     1
 40
0.000000
 41
0.000000
  0
VERTEX
  8
0
  6
CONTINUOUS
 10
5.080240
 20
1.897280
  0
VERTEX
  8
0
  6
CONTINUOUS
 10
5.078040
 20
2.636920
  0
VERTEX
  8
0
  6
CONTINUOUS
 10
5.170440
 20
2.610520
  0
VERTEX
  8
0
  6
CONTINUOUS
 10
5.172200
 20
1.870880
  0
VERTEX
  8
0
  6
CONTINUOUS
 10
5.080240
 20
1.897280
  0
SEQEND
  8
0
  0
SOLID
  8
0
 62
    15
 10
5.172200
 20
1.870880
 11
5.170440
 21
2.610520
 12
5.265480
 22
1.840960
 13
5.263280
 23
2.580600
  0
POLYLINE
  8
0
  6
CONTINUOUS
 66
     1
 40
0.000000
 41
0.000000
  0
VERTEX
  8
0
  6
CONTINUOUS
 10
5.172200
 20
1.870880
  0
VERTEX
  8
0
  6
CONTINUOUS
 10
5.170440
 20
2.610520
  0
VERTEX
  8
0
  6
CONTINUOUS
 10
5.263280
 20
2.580600
  0
VERTEX
  8
0
  6
CONTINUOUS
 10
5.265480
 20
1.840960
  0
VERTEX
  8
0
  6
CONTINUOUS
 10
5.172200
 20
1.870880
  0
SEQEND
  8
0
  0
SOLID
  8
0
 62
    15
 10
5.265480
 20
1.840960
 11
5.263280
 21
2.580600
 12
5.266360
 22
1.839640
 13
5.264600
 23
2.579280
  0
POLYLINE
  8
0
  6
CONTINUOUS
 66
     1
 40
0.000000
 41
0.000000
  0
VERTEX
  8
0
  6
CONTINUOUS
 10
5.265480
 20
1.840960
  0
VERTEX
  8
0
  6
CONTINUOUS
 10
5.263280
 20
2.580600
  0
VERTEX
  8
0
  6
CONTINUOUS
 10
5.264600
 20
2.579280
  0
VERTEX
  8
0
  6
CONTINUOUS
 10
5.266360
 20
1.839640
  0
VERTEX
  8
0
  6
CONTINUOUS
 10
5.265480
 20
1.840960
  0
SEQEND
  8
0
  0
SOLID
  8
0
 62
    15
 10
5.266360
 20
1.839640
 11
5.264600
 21
2.579280
 12
5.281760
 22
1.880560
 13
5.280000
 23
2.620200
  0
POLYLINE
  8
0
  6
CONTINUOUS
 66
     1
 40
0.000000
 41
0.000000
  0
VERTEX
  8
0
  6
CONTINUOUS
 10
5.266360
 20
1.839640
  0
VERTEX
  8
0
  6
CONTINUOUS
 10
5.264600
 20
2.579280
  0
VERTEX
  8
0
  6
CONTINUOUS
 10
5.280000
 20
2.620200
  0
VERTEX
  8
0
  6
CONTINUOUS
 10
5.281760
 20
1.880560
  0
VERTEX
  8
0
  6
CONTINUOUS
 10
5.266360
 20
1.839640
  0
SEQEND
  8
0
  0
SOLID
  8
0
 62
    15
 10
5.281760
 20
1.880560
 11
5.280000
 21
2.620200
 12
5.307720
 22
1.913560
 13
5.305960
 23
2.653200
  0
POLYLINE
  8
0
  6
CONTINUOUS
 66
     1
 40
0.000000
 41
0.000000
  0
VERTEX
  8
0
  6
CONTINUOUS
 10
5.281760
 20
1.880560
  0
VERTEX
  8
0
  6
CONTINUOUS
 10
5.280000
 20
2.620200
  0
VERTEX
  8
0
  6
CONTINUOUS
 10
5.305960
 20
2.653200
  0
VERTEX
  8
0
  6
CONTINUOUS
 10
5.307720
 20
1.913560
  0
VERTEX
  8
0
  6
CONTINUOUS
 10
5.281760
 20
1.880560
  0
SEQEND
  8
0
  0
SOLID
  8
0
 62
    15
 10
5.307720
 20
1.913560
 11
5.305960
 21
2.653200
 12
5.323560
 22
1.925880
 13
5.321800
 23
2.665520
  0
POLYLINE
  8
0
  6
CONTINUOUS
 66
     1
 40
0.000000
 41
0.000000
  0
VERTEX
  8
0
  6
CONTINUOUS
 10
5.307720
 20
1.913560
  0
VERTEX
  8
0
  6
CONTINUOUS
 10
5.305960
 20
2.653200
  0
VERTEX
  8
0
  6
CONTINUOUS
 10
5.321800
 20
2.665520
  0
VERTEX
  8
0
  6
CONTINUOUS
 10
5.323560
 20
1.925880
  0
VERTEX
  8
0
  6
CONTINUOUS
 10
5.307720
 20
1.913560
  0
SEQEND
  8
0
  0
SOLID
  8
0
 62
    15
 10
5.323560
 20
1.925880
 11
5.321800
 21
2.665520
 12
5.341160
 22
1.935560
 13
5.339400
 23
2.675200
  0
POLYLINE
  8
0
  6
CONTINUOUS
 66
     1
 40
0.000000
 41
0.000000
  0
VERTEX
  8
0
  6
CONTINUOUS
 10
5.323560
 20
1.925880
  0
VERTEX
  8
0
  6
CONTINUOUS
 10
5.321800
 20
2.665520
  0
VERTEX
  8
0
  6
CONTINUOUS
 10
5.339400
 20
2.675200
  0
VERTEX
  8
0
  6
CONTINUOUS
 10
5.341160
 20
1.935560
  0
VERTEX
  8
0
  6
CONTINUOUS
 10
5.323560
 20
1.925880
  0
SEQEND
  8
0
  0
SOLID
  8
0
 62
    15
 10
5.341160
 20
1.935560
 11
5.339400
 21
2.675200
 12
5.360080
 22
1.941280
 13
5.357880
 23
2.680920
  0
POLYLINE
  8
0
  6
CONTINUOUS
 66
     1
 40
0.000000
 41
0.000000
  0
VERTEX
  8
0
  6
CONTINUOUS
 10
5.341160
 20
1.935560
  0
VERTEX
  8
0
  6
CONTINUOUS
 10
5.339400
 20
2.675200
  0
VERTEX
  8
0
  6
CONTINUOUS
 10
5.357880
 20
2.680920
  0
VERTEX
  8
0
  6
CONTINUOUS
 10
5.360080
 20
1.941280
  0
VERTEX
  8
0
  6
CONTINUOUS
 10
5.341160
 20
1.935560
  0
SEQEND
  8
0
  0
SOLID
  8
0
 62
    15
 10
5.360080
 20
1.941280
 11
5.357880
 21
2.680920
 12
5.379880
 22
1.943480
 13
5.377680
 23
2.683120
  0
POLYLINE
  8
0
  6
CONTINUOUS
 66
     1
 40
0.000000
 41
0.000000
  0
VERTEX
  8
0
  6
CONTINUOUS
 10
5.360080
 20
1.941280
  0
VERTEX
  8
0
  6
CONTINUOUS
 10
5.357880
 20
2.680920
  0
VERTEX
  8
0
  6
CONTINUOUS
 10
5.377680
 20
2.683120
  0
VERTEX
  8
0
  6
CONTINUOUS
 10
5.379880
 20
1.943480
  0
VERTEX
  8
0
  6
CONTINUOUS
 10
5.360080
 20
1.941280
  0
SEQEND
  8
0
  0
SOLID
  8
0
 62
    15
 10
5.379880
 20
1.943480
 11
5.377680
 21
2.683120
 12
5.403200
 22
1.940840
 13
5.401440
 23
2.680480
  0
POLYLINE
  8
0
  6
CONTINUOUS
 66
     1
 40
0.000000
 41
0.000000
  0
VERTEX
  8
0
  6
CONTINUOUS
 10
5.379880
 20
1.943480
  0
VERTEX
  8
0
  6
CONTINUOUS
 10
5.377680
 20
2.683120
  0
VERTEX
  8
0
  6
CONTINUOUS
 10
5.401440
 20
2.680480
  0
VERTEX
  8
0
  6
CONTINUOUS
 10
5.403200
 20
1.940840
  0
VERTEX
  8
0
  6
CONTINUOUS
 10
5.379880
 20
1.943480
  0
SEQEND
  8
0
  0
SOLID
  8
0
 62
    15
 10
5.403200
 20
1.940840
 11
5.401440
 21
2.680480
 12
5.425200
 22
1.932920
 13
5.423440
 23
2.672560
  0
POLYLINE
  8
0
  6
CONTINUOUS
 66
     1
 40
0.000000
 41
0.000000
  0
VERTEX
  8
0
  6
CONTINUOUS
 10
5.403200
 20
1.940840
  0
VERTEX
  8
0
  6
CONTINUOUS
 10
5.401440
 20
2.680480
  0
VERTEX
  8
0
  6
CONTINUOUS
 10
5.423440
 20
2.672560
  0
VERTEX
  8
0
  6
CONTINUOUS
 10
5.425200
 20
1.932920
  0
VERTEX
  8
0
  6
CONTINUOUS
 10
5.403200
 20
1.940840
  0
SEQEND
  8
0
  0
SOLID
  8
0
 62
    15
 10
5.425200
 20
1.932920
 11
5.423440
 21
2.672560
 12
5.445440
 22
1.921040
 13
5.443240
 23
2.660680
  0
POLYLINE
  8
0
  6
CONTINUOUS
 66
     1
 40
0.000000
 41
0.000000
  0
VERTEX
  8
0
  6
CONTINUOUS
 10
5.425200
 20
1.932920
  0
VERTEX
  8
0
  6
CONTINUOUS
 10
5.423440
 20
2.672560
  0
VERTEX
  8
0
  6
CONTINUOUS
 10
5.443240
 20
2.660680
  0
VERTEX
  8
0
  6
CONTINUOUS
 10
5.445440
 20
1.921040
  0
VERTEX
  8
0
  6
CONTINUOUS
 10
5.425200
 20
1.932920
  0
SEQEND
  8
0
  0
SOLID
  8
0
 62
    15
 10
5.445440
 20
1.921040
 11
5.443240
 21
2.660680
 12
5.462600
 22
1.904760
 13
5.460840
 23
2.644400
  0
POLYLINE
  8
0
  6
CONTINUOUS
 66
     1
 40
0.000000
 41
0.000000
  0
VERTEX
  8
0
  6
CONTINUOUS
 10
5.445440
 20
1.921040
  0
VERTEX
  8
0
  6
CONTINUOUS
 10
5.443240
 20
2.660680
  0
VERTEX
  8
0
  6
CONTINUOUS
 10
5.460840
 20
2.644400
  0
VERTEX
  8
0
  6
CONTINUOUS
 10
5.462600
 20
1.904760
  0
VERTEX
  8
0
  6
CONTINUOUS
 10
5.445440
 20
1.921040
  0
SEQEND
  8
0
  0
SOLID
  8
0
 62
    15
 10
5.462600
 20
1.904760
 11
5.460840
 21
2.644400
 12
5.477120
 22
1.884960
 13
5.475360
 23
2.624600
  0
POLYLINE
  8
0
  6
CONTINUOUS
 66
     1
 40
0.000000
 41
0.000000
  0
VERTEX
  8
0
  6
CONTINUOUS
 10
5.462600
 20
1.904760
  0
VERTEX
  8
0
  6
CONTINUOUS
 10
5.460840
 20
2.644400
  0
VERTEX
  8
0
  6
CONTINUOUS
 10
5.475360
 20
2.624600
  0
VERTEX
  8
0
  6
CONTINUOUS
 10
5.477120
 20
1.884960
  0
VERTEX
  8
0
  6
CONTINUOUS
 10
5.462600
 20
1.904760
  0
SEQEND
  8
0
  0
SOLID
  8
0
 62
    15
 10
5.477120
 20
1.884960
 11
5.475360
 21
2.624600
 12
5.488120
 22
1.862520
 13
5.486360
 23
2.602160
  0
POLYLINE
  8
0
  6
CONTINUOUS
 66
     1
 40
0.000000
 41
0.000000
  0
VERTEX
  8
0
  6
CONTINUOUS
 10
5.477120
 20
1.884960
  0
VERTEX
  8
0
  6
CONTINUOUS
 10
5.475360
 20
2.624600
  0
VERTEX
  8
0
  6
CONTINUOUS
 10
5.486360
 20
2.602160
  0
VERTEX
  8
0
  6
CONTINUOUS
 10
5.488120
 20
1.862520
  0
VERTEX
  8
0
  6
CONTINUOUS
 10
5.477120
 20
1.884960
  0
SEQEND
  8
0
  0
SOLID
  8
0
 62
    15
 10
5.497800
 20
1.808840
 11
5.495600
 21
2.548480
 12
5.561600
 22
1.808840
 13
5.559840
 23
2.548480
  0
POLYLINE
  8
0
  6
CONTINUOUS
 66
     1
 40
0.000000
 41
0.000000
  0
VERTEX
  8
0
  6
CONTINUOUS
 10
5.497800
 20
1.808840
  0
VERTEX
  8
0
  6
CONTINUOUS
 10
5.495600
 20
2.548480
  0
VERTEX
  8
0
  6
CONTINUOUS
 10
5.559840
 20
2.548480
  0
VERTEX
  8
0
  6
CONTINUOUS
 10
5.561600
 20
1.808840
  0
VERTEX
  8
0
  6
CONTINUOUS
 10
5.497800
 20
1.808840
  0
SEQEND
  8
0
  0
SOLID
  8
0
 62
    15
 10
5.495160
 20
1.837440
 11
5.493400
 21
2.577080
 12
5.497800
 22
1.810160
 13
5.495600
 23
2.549800
  0
POLYLINE
  8
0
  6
CONTINUOUS
 66
     1
 40
0.000000
 41
0.000000
  0
VERTEX
  8
0
  6
CONTINUOUS
 10
5.495160
 20
1.837440
  0
VERTEX
  8
0
  6
CONTINUOUS
 10
5.493400
 20
2.577080
  0
VERTEX
  8
0
  6
CONTINUOUS
 10
5.495600
 20
2.549800
  0
VERTEX
  8
0
  6
CONTINUOUS
 10
5.497800
 20
1.810160
  0
VERTEX
  8
0
  6
CONTINUOUS
 10
5.495160
 20
1.837440
  0
SEQEND
  8
0
  0
SOLID
  8
0
 62
    15
 10
5.488120
 20
1.862520
 11
5.486360
 21
2.602160
 12
5.495160
 22
1.837440
 13
5.493400
 23
2.577080
  0
POLYLINE
  8
0
  6
CONTINUOUS
 66
     1
 40
0.000000
 41
0.000000
  0
VERTEX
  8
0
  6
CONTINUOUS
 10
5.488120
 20
1.862520
  0
VERTEX
  8
0
  6
CONTINUOUS
 10
5.486360
 20
2.602160
  0
VERTEX
  8
0
  6
CONTINUOUS
 10
5.493400
 20
2.577080
  0
VERTEX
  8
0
  6
CONTINUOUS
 10
5.495160
 20
1.837440
  0
VERTEX
  8
0
  6
CONTINUOUS
 10
5.488120
 20
1.862520
  0
SEQEND
  8
0
  0
SOLID
  8
0
 62
    15
 10
5.561600
 20
1.808840
 11
5.559840
 21
2.548480
 12
5.562920
 22
1.807520
 13
5.560720
 23
2.547160
  0
POLYLINE
  8
0
  6
CONTINUOUS
 66
     1
 40
0.000000
 41
0.000000
  0
VERTEX
  8
0
  6
CONTINUOUS
 10
5.561600
 20
1.808840
  0
VERTEX
  8
0
  6
CONTINUOUS
 10
5.559840
 20
2.548480
  0
VERTEX
  8
0
  6
CONTINUOUS
 10
5.560720
 20
2.547160
  0
VERTEX
  8
0
  6
CONTINUOUS
 10
5.562920
 20
1.807520
  0
VERTEX
  8
0
  6
CONTINUOUS
 10
5.561600
 20
1.808840
  0
SEQEND
  8
0
  0
SOLID
  8
0
 62
    15
 10
5.564680
 20
1.795640
 11
5.562920
 21
2.535280
 12
5.567320
 22
1.784640
 13
5.565560
 23
2.524280
  0
POLYLINE
  8
0
  6
CONTINUOUS
 66
     1
 40
0.000000
 41
0.000000
  0
VERTEX
  8
0
  6
CONTINUOUS
 10
5.564680
 20
1.795640
  0
VERTEX
  8
0
  6
CONTINUOUS
 10
5.562920
 20
2.535280
  0
VERTEX
  8
0
  6
CONTINUOUS
 10
5.565560
 20
2.524280
  0
VERTEX
  8
0
  6
CONTINUOUS
 10
5.567320
 20
1.784640
  0
VERTEX
  8
0
  6
CONTINUOUS
 10
5.564680
 20
1.795640
  0
SEQEND
  8
0
  0
SOLID
  8
0
 62
    15
 10
5.563800
 20
1.804000
 11
5.561600
 21
2.543640
 12
5.564680
 22
1.795640
 13
5.562920
 23
2.535280
  0
POLYLINE
  8
0
  6
CONTINUOUS
 66
     1
 40
0.000000
 41
0.000000
  0
VERTEX
  8
0
  6
CONTINUOUS
 10
5.563800
 20
1.804000
  0
VERTEX
  8
0
  6
CONTINUOUS
 10
5.561600
 20
2.543640
  0
VERTEX
  8
0
  6
CONTINUOUS
 10
5.562920
 20
2.535280
  0
VERTEX
  8
0
  6
CONTINUOUS
 10
5.564680
 20
1.795640
  0
VERTEX
  8
0
  6
CONTINUOUS
 10
5.563800
 20
1.804000
  0
SEQEND
  8
0
  0
SOLID
  8
0
 62
    15
 10
5.562920
 20
1.807520
 11
5.560720
 21
2.547160
 12
5.563800
 22
1.804000
 13
5.561600
 23
2.543640
  0
POLYLINE
  8
0
  6
CONTINUOUS
 66
     1
 40
0.000000
 41
0.000000
  0
VERTEX
  8
0
  6
CONTINUOUS
 10
5.562920
 20
1.807520
  0
VERTEX
  8
0
  6
CONTINUOUS
 10
5.560720
 20
2.547160
  0
VERTEX
  8
0
  6
CONTINUOUS
 10
5.561600
 20
2.543640
  0
VERTEX
  8
0
  6
CONTINUOUS
 10
5.563800
 20
1.804000
  0
VERTEX
  8
0
  6
CONTINUOUS
 10
5.562920
 20
1.807520
  0
SEQEND
  8
0
  0
SOLID
  8
0
 62
    15
 10
5.567320
 20
1.784640
 11
5.565560
 21
2.524280
 12
5.573480
 22
1.771440
 13
5.571280
 23
2.511080
  0
POLYLINE
  8
0
  6
CONTINUOUS
 66
     1
 40
0.000000
 41
0.000000
  0
VERTEX
  8
0
  6
CONTINUOUS
 10
5.567320
 20
1.784640
  0
VERTEX
  8
0
  6
CONTINUOUS
 10
5.565560
 20
2.524280
  0
VERTEX
  8
0
  6
CONTINUOUS
 10
5.571280
 20
2.511080
  0
VERTEX
  8
0
  6
CONTINUOUS
 10
5.573480
 20
1.771440
  0
VERTEX
  8
0
  6
CONTINUOUS
 10
5.567320
 20
1.784640
  0
SEQEND
  8
0
  0
SOLID
  8
0
 62
    15
 10
5.573480
 20
1.771440
 11
5.571280
 21
2.511080
 12
5.584040
 22
1.757800
 13
5.581840
 23
2.497440
  0
POLYLINE
  8
0
  6
CONTINUOUS
 66
     1
 40
0.000000
 41
0.000000
  0
VERTEX
  8
0
  6
CONTINUOUS
 10
5.573480
 20
1.771440
  0
VERTEX
  8
0
  6
CONTINUOUS
 10
5.571280
 20
2.511080
  0
VERTEX
  8
0
  6
CONTINUOUS
 10
5.581840
 20
2.497440
  0
VERTEX
  8
0
  6
CONTINUOUS
 10
5.584040
 20
1.757800
  0
VERTEX
  8
0
  6
CONTINUOUS
 10
5.573480
 20
1.771440
  0
SEQEND
  8
0
  0
SOLID
  8
0
 62
    15
 10
5.584040
 20
1.757800
 11
5.581840
 21
2.497440
 12
5.600320
 22
1.744600
 13
5.598560
 23
2.484240
  0
POLYLINE
  8
0
  6
CONTINUOUS
 66
     1
 40
0.000000
 41
0.000000
  0
VERTEX
  8
0
  6
CONTINUOUS
 10
5.584040
 20
1.757800
  0
VERTEX
  8
0
  6
CONTINUOUS
 10
5.581840
 20
2.497440
  0
VERTEX
  8
0
  6
CONTINUOUS
 10
5.598560
 20
2.484240
  0
VERTEX
  8
0
  6
CONTINUOUS
 10
5.600320
 20
1.744600
  0
VERTEX
  8
0
  6
CONTINUOUS
 10
5.584040
 20
1.757800
  0
SEQEND
  8
0
  0
SOLID
  8
0
 62
    15
 10
5.600320
 20
1.744600
 11
5.598560
 21
2.484240
 12
5.624520
 22
1.734040
 13
5.622760
 23
2.473680
  0
POLYLINE
  8
0
  6
CONTINUOUS
 66
     1
 40
0.000000
 41
0.000000
  0
VERTEX
  8
0
  6
CONTINUOUS
 10
5.600320
 20
1.744600
  0
VERTEX
  8
0
  6
CONTINUOUS
 10
5.598560
 20
2.484240
  0
VERTEX
  8
0
  6
CONTINUOUS
 10
5.622760
 20
2.473680
  0
VERTEX
  8
0
  6
CONTINUOUS
 10
5.624520
 20
1.734040
  0
VERTEX
  8
0
  6
CONTINUOUS
 10
5.600320
 20
1.744600
  0
SEQEND
  8
0
  0
SOLID
  8
0
 62
    15
 10
5.624520
 20
1.734040
 11
5.622760
 21
2.473680
 12
5.657960
 22
1.726120
 13
5.655760
 23
2.465760
  0
POLYLINE
  8
0
  6
CONTINUOUS
 66
     1
 40
0.000000
 41
0.000000
  0
VERTEX
  8
0
  6
CONTINUOUS
 10
5.624520
 20
1.734040
  0
VERTEX
  8
0
  6
CONTINUOUS
 10
5.622760
 20
2.473680
  0
VERTEX
  8
0
  6
CONTINUOUS
 10
5.655760
 20
2.465760
  0
VERTEX
  8
0
  6
CONTINUOUS
 10
5.657960
 20
1.726120
  0
VERTEX
  8
0
  6
CONTINUOUS
 10
5.624520
 20
1.734040
  0
SEQEND
  8
0
  0
SOLID
  8
0
 62
    15
 10
5.657960
 20
1.726120
 11
5.655760
 21
2.465760
 12
5.685680
 22
1.730080
 13
5.683480
 23
2.469720
  0
POLYLINE
  8
0
  6
CONTINUOUS
 66
     1
 40
0.000000
 41
0.000000
  0
VERTEX
  8
0
  6
CONTINUOUS
 10
5.657960
 20
1.726120
  0
VERTEX
  8
0
  6
CONTINUOUS
 10
5.655760
 20
2.465760
  0
VERTEX
  8
0
  6
CONTINUOUS
 10
5.683480
 20
2.469720
  0
VERTEX
  8
0
  6
CONTINUOUS
 10
5.685680
 20
1.730080
  0
VERTEX
  8
0
  6
CONTINUOUS
 10
5.657960
 20
1.726120
  0
SEQEND
  8
0
  0
SOLID
  8
0
 62
    15
 10
5.685680
 20
1.730080
 11
5.683480
 21
2.469720
 12
5.709000
 22
1.737560
 13
5.706800
 23
2.477200
  0
POLYLINE
  8
0
  6
CONTINUOUS
 66
     1
 40
0.000000
 41
0.000000
  0
VERTEX
  8
0
  6
CONTINUOUS
 10
5.685680
 20
1.730080
  0
VERTEX
  8
0
  6
CONTINUOUS
 10
5.683480
 20
2.469720
  0
VERTEX
  8
0
  6
CONTINUOUS
 10
5.706800
 20
2.477200
  0
VERTEX
  8
0
  6
CONTINUOUS
 10
5.709000
 20
1.737560
  0
VERTEX
  8
0
  6
CONTINUOUS
 10
5.685680
 20
1.730080
  0
SEQEND
  8
0
  0
SOLID
  8
0
 62
    15
 10
5.709000
 20
1.737560
 11
5.706800
 21
2.477200
 12
5.728360
 22
1.748120
 13
5.726160
 23
2.487760
  0
POLYLINE
  8
0
  6
CONTINUOUS
 66
     1
 40
0.000000
 41
0.000000
  0
VERTEX
  8
0
  6
CONTINUOUS
 10
5.709000
 20
1.737560
  0
VERTEX
  8
0
  6
CONTINUOUS
 10
5.706800
 20
2.477200
  0
VERTEX
  8
0
  6
CONTINUOUS
 10
5.726160
 20
2.487760
  0
VERTEX
  8
0
  6
CONTINUOUS
 10
5.728360
 20
1.748120
  0
VERTEX
  8
0
  6
CONTINUOUS
 10
5.709000
 20
1.737560
  0
SEQEND
  8
0
  0
SOLID
  8
0
 62
    15
 10
5.728360
 20
1.748120
 11
5.726160
 21
2.487760
 12
5.744200
 22
1.761320
 13
5.742440
 23
2.501400
  0
POLYLINE
  8
0
  6
CONTINUOUS
 66
     1
 40
0.000000
 41
0.000000
  0
VERTEX
  8
0
  6
CONTINUOUS
 10
5.728360
 20
1.748120
  0
VERTEX
  8
0
  6
CONTINUOUS
 10
5.726160
 20
2.487760
  0
VERTEX
  8
0
  6
CONTINUOUS
 10
5.742440
 20
2.501400
  0
VERTEX
  8
0
  6
CONTINUOUS
 10
5.744200
 20
1.761320
  0
VERTEX
  8
0
  6
CONTINUOUS
 10
5.728360
 20
1.748120
  0
SEQEND
  8
0
  0
SOLID
  8
0
 62
    15
 10
5.744200
 20
1.761320
 11
5.742440
 21
2.501400
 12
5.768840
 22
1.794760
 13
5.767080
 23
2.534400
  0
POLYLINE
  8
0
  6
CONTINUOUS
 66
     1
 40
0.000000
 41
0.000000
  0
VERTEX
  8
0
  6
CONTINUOUS
 10
5.744200
 20
1.761320
  0
VERTEX
  8
0
  6
CONTINUOUS
 10
5.742440
 20
2.501400
  0
VERTEX
  8
0
  6
CONTINUOUS
 10
5.767080
 20
2.534400
  0
VERTEX
  8
0
  6
CONTINUOUS
 10
5.768840
 20
1.794760
  0
VERTEX
  8
0
  6
CONTINUOUS
 10
5.744200
 20
1.761320
  0
SEQEND
  8
0
  0
SOLID
  8
0
 62
    15
 10
5.768840
 20
1.794760
 11
5.767080
 21
2.534400
 12
5.788200
 22
1.832160
 13
5.786440
 23
2.571800
  0
POLYLINE
  8
0
  6
CONTINUOUS
 66
     1
 40
0.000000
 41
0.000000
  0
VERTEX
  8
0
  6
CONTINUOUS
 10
5.768840
 20
1.794760
  0
VERTEX
  8
0
  6
CONTINUOUS
 10
5.767080
 20
2.534400
  0
VERTEX
  8
0
  6
CONTINUOUS
 10
5.786440
 20
2.571800
  0
VERTEX
  8
0
  6
CONTINUOUS
 10
5.788200
 20
1.832160
  0
VERTEX
  8
0
  6
CONTINUOUS
 10
5.768840
 20
1.794760
  0
SEQEND
  8
0
  0
SOLID
  8
0
 62
    15
 10
5.788200
 20
1.832160
 11
5.786440
 21
2.571800
 12
5.807120
 22
1.870000
 13
5.804920
 23
2.609640
  0
POLYLINE
  8
0
  6
CONTINUOUS
 66
     1
 40
0.000000
 41
0.000000
  0
VERTEX
  8
0
  6
CONTINUOUS
 10
5.788200
 20
1.832160
  0
VERTEX
  8
0
  6
CONTINUOUS
 10
5.786440
 20
2.571800
  0
VERTEX
  8
0
  6
CONTINUOUS
 10
5.804920
 20
2.609640
  0
VERTEX
  8
0
  6
CONTINUOUS
 10
5.807120
 20
1.870000
  0
VERTEX
  8
0
  6
CONTINUOUS
 10
5.788200
 20
1.832160
  0
SEQEND
  8
0
  0
SOLID
  8
0
 62
    15
 10
5.807120
 20
1.870000
 11
5.804920
 21
2.609640
 12
5.830440
 22
1.903880
 13
5.828680
 23
2.643520
  0
POLYLINE
  8
0
  6
CONTINUOUS
 66
     1
 40
0.000000
 41
0.000000
  0
VERTEX
  8
0
  6
CONTINUOUS
 10
5.807120
 20
1.870000
  0
VERTEX
  8
0
  6
CONTINUOUS
 10
5.804920
 20
2.609640
  0
VERTEX
  8
0
  6
CONTINUOUS
 10
5.828680
 20
2.643520
  0
VERTEX
  8
0
  6
CONTINUOUS
 10
5.830440
 20
1.903880
  0
VERTEX
  8
0
  6
CONTINUOUS
 10
5.807120
 20
1.870000
  0
SEQEND
  8
0
  0
SOLID
  8
0
 62
    15
 10
5.830440
 20
1.903880
 11
5.828680
 21
2.643520
 12
5.845840
 22
1.917960
 13
5.843640
 23
2.657600
  0
POLYLINE
  8
0
  6
CONTINUOUS
 66
     1
 40
0.000000
 41
0.000000
  0
VERTEX
  8
0
  6
CONTINUOUS
 10
5.830440
 20
1.903880
  0
VERTEX
  8
0
  6
CONTINUOUS
 10
5.828680
 20
2.643520
  0
VERTEX
  8
0
  6
CONTINUOUS
 10
5.843640
 20
2.657600
  0
VERTEX
  8
0
  6
CONTINUOUS
 10
5.845840
 20
1.917960
  0
VERTEX
  8
0
  6
CONTINUOUS
 10
5.830440
 20
1.903880
  0
SEQEND
  8
0
  0
SOLID
  8
0
 62
    15
 10
5.845840
 20
1.917960
 11
5.843640
 21
2.657600
 12
5.864320
 22
1.929400
 13
5.862120
 23
2.669040
  0
POLYLINE
  8
0
  6
CONTINUOUS
 66
     1
 40
0.000000
 41
0.000000
  0
VERTEX
  8
0
  6
CONTINUOUS
 10
5.845840
 20
1.917960
  0
VERTEX
  8
0
  6
CONTINUOUS
 10
5.843640
 20
2.657600
  0
VERTEX
  8
0
  6
CONTINUOUS
 10
5.862120
 20
2.669040
  0
VERTEX
  8
0
  6
CONTINUOUS
 10
5.864320
 20
1.929400
  0
VERTEX
  8
0
  6
CONTINUOUS
 10
5.845840
 20
1.917960
  0
SEQEND
  8
0
  0
SOLID
  8
0
 62
    15
 10
5.864320
 20
1.929400
 11
5.862120
 21
2.669040
 12
5.886320
 22
1.937760
 13
5.884120
 23
2.677400
  0
POLYLINE
  8
0
  6
CONTINUOUS
 66
     1
 40
0.000000
 41
0.000000
  0
VERTEX
  8
0
  6
CONTINUOUS
 10
5.864320
 20
1.929400
  0
VERTEX
  8
0
  6
CONTINUOUS
 10
5.862120
 20
2.669040
  0
VERTEX
  8
0
  6
CONTINUOUS
 10
5.884120
 20
2.677400
  0
VERTEX
  8
0
  6
CONTINUOUS
 10
5.886320
 20
1.937760
  0
VERTEX
  8
0
  6
CONTINUOUS
 10
5.864320
 20
1.929400
  0
SEQEND
  8
0
  0
SOLID
  8
0
 62
    15
 10
5.886320
 20
1.937760
 11
5.884120
 21
2.677400
 12
5.912720
 22
1.942160
 13
5.910960
 23
2.681800
  0
POLYLINE
  8
0
  6
CONTINUOUS
 66
     1
 40
0.000000
 41
0.000000
  0
VERTEX
  8
0
  6
CONTINUOUS
 10
5.886320
 20
1.937760
  0
VERTEX
  8
0
  6
CONTINUOUS
 10
5.884120
 20
2.677400
  0
VERTEX
  8
0
  6
CONTINUOUS
 10
5.910960
 20
2.681800
  0
VERTEX
  8
0
  6
CONTINUOUS
 10
5.912720
 20
1.942160
  0
VERTEX
  8
0
  6
CONTINUOUS
 10
5.886320
 20
1.937760
  0
SEQEND
  8
0
  0
SOLID
  8
0
 62
    15
 10
5.912720
 20
1.942160
 11
5.910960
 21
2.681800
 12
5.915360
 22
1.944360
 13
5.913600
 23
2.684000
  0
POLYLINE
  8
0
  6
CONTINUOUS
 66
     1
 40
0.000000
 41
0.000000
  0
VERTEX
  8
0
  6
CONTINUOUS
 10
5.912720
 20
1.942160
  0
VERTEX
  8
0
  6
CONTINUOUS
 10
5.910960
 20
2.681800
  0
VERTEX
  8
0
  6
CONTINUOUS
 10
5.913600
 20
2.684000
  0
VERTEX
  8
0
  6
CONTINUOUS
 10
5.915360
 20
1.944360
  0
VERTEX
  8
0
  6
CONTINUOUS
 10
5.912720
 20
1.942160
  0
SEQEND
  8
0
  0
SOLID
  8
0
 62
    15
 10
5.915360
 20
1.944360
 11
5.913600
 21
2.684000
 12
5.921080
 22
1.949640
 13
5.918880
 23
2.689280
  0
POLYLINE
  8
0
  6
CONTINUOUS
 66
     1
 40
0.000000
 41
0.000000
  0
VERTEX
  8
0
  6
CONTINUOUS
 10
5.915360
 20
1.944360
  0
VERTEX
  8
0
  6
CONTINUOUS
 10
5.913600
 20
2.684000
  0
VERTEX
  8
0
  6
CONTINUOUS
 10
5.918880
 20
2.689280
  0
VERTEX
  8
0
  6
CONTINUOUS
 10
5.921080
 20
1.949640
  0
VERTEX
  8
0
  6
CONTINUOUS
 10
5.915360
 20
1.944360
  0
SEQEND
  8
0
  0
SOLID
  8
0
 62
    15
 10
5.921080
 20
1.949640
 11
5.918880
 21
2.689280
 12
5.926360
 22
1.961960
 13
5.924600
 23
2.701600
  0
POLYLINE
  8
0
  6
CONTINUOUS
 66
     1
 40
0.000000
 41
0.000000
  0
VERTEX
  8
0
  6
CONTINUOUS
 10
5.921080
 20
1.949640
  0
VERTEX
  8
0
  6
CONTINUOUS
 10
5.918880
 20
2.689280
  0
VERTEX
  8
0
  6
CONTINUOUS
 10
5.924600
 20
2.701600
  0
VERTEX
  8
0
  6
CONTINUOUS
 10
5.926360
 20
1.961960
  0
VERTEX
  8
0
  6
CONTINUOUS
 10
5.921080
 20
1.949640
  0
SEQEND
  8
0
  0
SOLID
  8
0
 62
    15
 10
5.926360
 20
1.961960
 11
5.924600
 21
2.701600
 12
5.928120
 22
1.972520
 13
5.926360
 23
2.712160
  0
POLYLINE
  8
0
  6
CONTINUOUS
 66
     1
 40
0.000000
 41
0.000000
  0
VERTEX
  8
0
  6
CONTINUOUS
 10
5.926360
 20
1.961960
  0
VERTEX
  8
0
  6
CONTINUOUS
 10
5.924600
 20
2.701600
  0
VERTEX
  8
0
  6
CONTINUOUS
 10
5.926360
 20
2.712160
  0
VERTEX
  8
0
  6
CONTINUOUS
 10
5.928120
 20
1.972520
  0
VERTEX
  8
0
  6
CONTINUOUS
 10
5.926360
 20
1.961960
  0
SEQEND
  8
0
  0
SOLID
  8
0
 62
    15
 10
5.928120
 20
1.972520
 11
5.926360
 21
2.712160
 12
5.929000
 22
1.986160
 13
5.926800
 23
2.725800
  0
POLYLINE
  8
0
  6
CONTINUOUS
 66
     1
 40
0.000000
 41
0.000000
  0
VERTEX
  8
0
  6
CONTINUOUS
 10
5.928120
 20
1.972520
  0
VERTEX
  8
0
  6
CONTINUOUS
 10
5.926360
 20
2.712160
  0
VERTEX
  8
0
  6
CONTINUOUS
 10
5.926800
 20
2.725800
  0
VERTEX
  8
0
  6
CONTINUOUS
 10
5.929000
 20
1.986160
  0
VERTEX
  8
0
  6
CONTINUOUS
 10
5.928120
 20
1.972520
  0
SEQEND
  8
0
  0
SOLID
  8
0
 62
    15
 10
5.927680
 20
1.990120
 11
5.925920
 21
2.729760
 12
5.927680
 22
2.031480
 13
5.925920
 23
2.771120
  0
POLYLINE
  8
0
  6
CONTINUOUS
 66
     1
 40
0.000000
 41
0.000000
  0
VERTEX
  8
0
  6
CONTINUOUS
 10
5.927680
 20
1.990120
  0
VERTEX
  8
0
  6
CONTINUOUS
 10
5.925920
 20
2.729760
  0
VERTEX
  8
0
  6
CONTINUOUS
 10
5.925920
 20
2.771120
  0
VERTEX
  8
0
  6
CONTINUOUS
 10
5.927680
 20
2.031480
  0
VERTEX
  8
0
  6
CONTINUOUS
 10
5.927680
 20
1.990120
  0
SEQEND
  8
0
  0
SOLID
  8
0
 62
    15
 10
5.927680
 20
2.031480
 11
5.925920
 21
2.771120
 12
6.441600
 22
2.031480
 13
6.439400
 23
2.771120
  0
POLYLINE
  8
0
  6
CONTINUOUS
 66
     1
 40
0.000000
 41
0.000000
  0
VERTEX
  8
0
  6
CONTINUOUS
 10
5.927680
 20
2.031480
  0
VERTEX
  8
0
  6
CONTINUOUS
 10
5.925920
 20
2.771120
  0
VERTEX
  8
0
  6
CONTINUOUS
 10
6.439400
 20
2.771120
  0
VERTEX
  8
0
  6
CONTINUOUS
 10
6.441600
 20
2.031480
  0
VERTEX
  8
0
  6
CONTINUOUS
 10
5.927680
 20
2.031480
  0
SEQEND
  8
0
  0
POLYLINE
  8
0
  6
CONTINUOUS
 66
     1
 40
0.000000
 41
0.000000
  0
VERTEX
  8
0
  6
CONTINUOUS
 10
6.433240
 20
1.285240
  0
VERTEX
  8
0
  6
CONTINUOUS
 10
2.594240
 20
1.285240
  0
VERTEX
  8
0
  6
CONTINUOUS
 10
2.588520
 20
1.288320
  0
VERTEX
  8
0
  6
CONTINUOUS
 10
2.588520
 20
2.020480
  0
VERTEX
  8
0
  6
CONTINUOUS
 10
2.587200
 20
2.025760
  0
VERTEX
  8
0
  6
CONTINUOUS
 10
3.102000
 20
2.025760
  0
VERTEX
  8
0
  6
CONTINUOUS
 10
3.102000
 20
1.979120
  0
VERTEX
  8
0
  6
CONTINUOUS
 10
3.103320
 20
1.979120
  0
VERTEX
  8
0
  6
CONTINUOUS
 10
3.103760
 20
1.965920
  0
VERTEX
  8
0
  6
CONTINUOUS
 10
3.105520
 20
1.955360
  0
VERTEX
  8
0
  6
CONTINUOUS
 10
3.111240
 20
1.943040
  0
VERTEX
  8
0
  6
CONTINUOUS
 10
3.119160
 20
1.935560
  0
VERTEX
  8
0
  6
CONTINUOUS
 10
3.145560
 20
1.930720
  0
VERTEX
  8
0
  6
CONTINUOUS
 10
3.168000
 20
1.922800
  0
VERTEX
  8
0
  6
CONTINUOUS
 10
3.186040
 20
1.911360
  0
VERTEX
  8
0
  6
CONTINUOUS
 10
3.201440
 20
1.897280
  0
VERTEX
  8
0
  6
CONTINUOUS
 10
3.224760
 20
1.863400
  0
VERTEX
  8
0
  6
CONTINUOUS
 10
3.263040
 20
1.788160
  0
VERTEX
  8
0
  6
CONTINUOUS
 10
3.287680
 20
1.754720
  0
VERTEX
  8
0
  6
CONTINUOUS
 10
3.303520
 20
1.741520
  0
VERTEX
  8
0
  6
CONTINUOUS
 10
3.322880
 20
1.730520
  0
VERTEX
  8
0
  6
CONTINUOUS
 10
3.346200
 20
1.723480
  0
VERTEX
  8
0
  6
CONTINUOUS
 10
3.374360
 20
1.719520
  0
VERTEX
  8
0
  6
CONTINUOUS
 10
3.396800
 20
1.725240
  0
VERTEX
  8
0
  6
CONTINUOUS
 10
3.415720
 20
1.735360
  0
VERTEX
  8
0
  6
CONTINUOUS
 10
3.444320
 20
1.762200
  0
VERTEX
  8
0
  6
CONTINUOUS
 10
3.470280
 20
1.802240
  0
VERTEX
  8
0
  6
CONTINUOUS
 10
3.534520
 20
1.802240
  0
VERTEX
  8
0
  6
CONTINUOUS
 10
3.536720
 20
1.830840
  0
VERTEX
  8
0
  6
CONTINUOUS
 10
3.543760
 20
1.855920
  0
VERTEX
  8
0
  6
CONTINUOUS
 10
3.554760
 20
1.878360
  0
VERTEX
  8
0
  6
CONTINUOUS
 10
3.569280
 20
1.898160
  0
VERTEX
  8
0
  6
CONTINUOUS
 10
3.586880
 20
1.914000
  0
VERTEX
  8
0
  6
CONTINUOUS
 10
3.606680
 20
1.926320
  0
VERTEX
  8
0
  6
CONTINUOUS
 10
3.628680
 20
1.933800
  0
VERTEX
  8
0
  6
CONTINUOUS
 10
3.652440
 20
1.936880
  0
VERTEX
  8
0
  6
CONTINUOUS
 10
3.672240
 20
1.934680
  0
VERTEX
  8
0
  6
CONTINUOUS
 10
3.691160
 20
1.928520
  0
VERTEX
  8
0
  6
CONTINUOUS
 10
3.708320
 20
1.919280
  0
VERTEX
  8
0
  6
CONTINUOUS
 10
3.724600
 20
1.906520
  0
VERTEX
  8
0
  6
CONTINUOUS
 10
3.750120
 20
1.873960
  0
VERTEX
  8
0
  6
CONTINUOUS
 10
3.765520
 20
1.833040
  0
VERTEX
  8
0
  6
CONTINUOUS
 10
3.867160
 20
1.868680
  0
VERTEX
  8
0
  6
CONTINUOUS
 10
3.966600
 20
1.899480
  0
VERTEX
  8
0
  6
CONTINUOUS
 10
4.064280
 20
1.924560
  0
VERTEX
  8
0
  6
CONTINUOUS
 10
4.160640
 20
1.944800
  0
VERTEX
  8
0
  6
CONTINUOUS
 10
4.255240
 20
1.959760
  0
VERTEX
  8
0
  6
CONTINUOUS
 10
4.348960
 20
1.970320
  0
VERTEX
  8
0
  6
CONTINUOUS
 10
4.441800
 20
1.976040
  0
VERTEX
  8
0
  6
CONTINUOUS
 10
4.533320
 20
1.977360
  0
VERTEX
  8
0
  6
CONTINUOUS
 10
4.624840
 20
1.973840
  0
VERTEX
  8
0
  6
CONTINUOUS
 10
4.715920
 20
1.966360
  0
VERTEX
  8
0
  6
CONTINUOUS
 10
4.806560
 20
1.954920
  0
VERTEX
  8
0
  6
CONTINUOUS
 10
4.897640
 20
1.939520
  0
VERTEX
  8
0
  6
CONTINUOUS
 10
4.988720
 20
1.920160
  0
VERTEX
  8
0
  6
CONTINUOUS
 10
5.080240
 20
1.897280
  0
VERTEX
  8
0
  6
CONTINUOUS
 10
5.172200
 20
1.870880
  0
VERTEX
  8
0
  6
CONTINUOUS
 10
5.265480
 20
1.840960
  0
VERTEX
  8
0
  6
CONTINUOUS
 10
5.266360
 20
1.839640
  0
VERTEX
  8
0
  6
CONTINUOUS
 10
5.281760
 20
1.880560
  0
VERTEX
  8
0
  6
CONTINUOUS
 10
5.307720
 20
1.913560
  0
VERTEX
  8
0
  6
CONTINUOUS
 10
5.323560
 20
1.925880
  0
VERTEX
  8
0
  6
CONTINUOUS
 10
5.341160
 20
1.935560
  0
VERTEX
  8
0
  6
CONTINUOUS
 10
5.360080
 20
1.941280
  0
VERTEX
  8
0
  6
CONTINUOUS
 10
5.379880
 20
1.943480
  0
VERTEX
  8
0
  6
CONTINUOUS
 10
5.403200
 20
1.940840
  0
VERTEX
  8
0
  6
CONTINUOUS
 10
5.425200
 20
1.932920
  0
VERTEX
  8
0
  6
CONTINUOUS
 10
5.445440
 20
1.921040
  0
VERTEX
  8
0
  6
CONTINUOUS
 10
5.462600
 20
1.904760
  0
VERTEX
  8
0
  6
CONTINUOUS
 10
5.477120
 20
1.884960
  0
VERTEX
  8
0
  6
CONTINUOUS
 10
5.488120
 20
1.862520
  0
VERTEX
  8
0
  6
CONTINUOUS
 10
5.495160
 20
1.837440
  0
VERTEX
  8
0
  6
CONTINUOUS
 10
5.497800
 20
1.808840
  0
VERTEX
  8
0
  6
CONTINUOUS
 10
5.561600
 20
1.808840
  0
VERTEX
  8
0
  6
CONTINUOUS
 10
5.563800
 20
1.804000
  0
VERTEX
  8
0
  6
CONTINUOUS
 10
5.567320
 20
1.784640
  0
VERTEX
  8
0
  6
CONTINUOUS
 10
5.573480
 20
1.771440
  0
VERTEX
  8
0
  6
CONTINUOUS
 10
5.584040
 20
1.757800
  0
VERTEX
  8
0
  6
CONTINUOUS
 10
5.600320
 20
1.744600
  0
VERTEX
  8
0
  6
CONTINUOUS
 10
5.624520
 20
1.734040
  0
VERTEX
  8
0
  6
CONTINUOUS
 10
5.657960
 20
1.726120
  0
VERTEX
  8
0
  6
CONTINUOUS
 10
5.685680
 20
1.730080
  0
VERTEX
  8
0
  6
CONTINUOUS
 10
5.709000
 20
1.737560
  0
VERTEX
  8
0
  6
CONTINUOUS
 10
5.728360
 20
1.748120
  0
VERTEX
  8
0
  6
CONTINUOUS
 10
5.744200
 20
1.761320
  0
VERTEX
  8
0
  6
CONTINUOUS
 10
5.768840
 20
1.794760
  0
VERTEX
  8
0
  6
CONTINUOUS
 10
5.807120
 20
1.870000
  0
VERTEX
  8
0
  6
CONTINUOUS
 10
5.830440
 20
1.903880
  0
VERTEX
  8
0
  6
CONTINUOUS
 10
5.845840
 20
1.917960
  0
VERTEX
  8
0
  6
CONTINUOUS
 10
5.864320
 20
1.929400
  0
VERTEX
  8
0
  6
CONTINUOUS
 10
5.886320
 20
1.937760
  0
VERTEX
  8
0
  6
CONTINUOUS
 10
5.912720
 20
1.942160
  0
VERTEX
  8
0
  6
CONTINUOUS
 10
5.921080
 20
1.949640
  0
VERTEX
  8
0
  6
CONTINUOUS
 10
5.926360
 20
1.961960
  0
VERTEX
  8
0
  6
CONTINUOUS
 10
5.929000
 20
1.986160
  0
VERTEX
  8
0
  6
CONTINUOUS
 10
5.927680
 20
1.990120
  0
VERTEX
  8
0
  6
CONTINUOUS
 10
5.927680
 20
2.031480
  0
VERTEX
  8
0
  6
CONTINUOUS
 10
6.441600
 20
2.031480
  0
VERTEX
  8
0
  6
CONTINUOUS
 10
6.441600
 20
1.288320
  0
VERTEX
  8
0
  6
CONTINUOUS
 10
6.433240
 20
1.285240
  0
SEQEND
  8
0
  0
TEXT
  8
0
 10
4.217840
 20
1.083720
 40
0.138221
  1
BA  577
 41
1.000000
  7
SN0
 71
     0
 72
     5
 11
4.808068
 21
1.083720
  0
TEXT
  8
0
 10
4.062080
 20
0.892320
 40
0.138221
  1
3/4" x 3-7/8"
 41
1.000000
  7
SN0
 71
     0
 72
     5
 11
4.962401
 21
0.892320
  0
ENDSEC
  0
EOF
