  0
SECTION
  2
HEADER
  9
$ACADVER
  1
AC1006
  9
$EXTMIN
 10
2.678720
 20
4.272400
  9
$EXTMAX
 10
5.820760
 20
6.727160
  9
$LTSCALE
 40
0.044000
  9
$PDMODE
 70
    35
  9
$PDSIZE
 40
0.035200
  0
ENDSEC
  0
SECTION
  2
TABLES
  0
TABLE
  2
LTYPE
 70
     9
  0
LTYPE
  2
CONTINUOUS
 70
    64
  3
Solid line
 72
    65
 73
     0
 40
0.000000
  0
LTYPE
  2
DASHED
 70
    64
  3
__ __ __ __ __ __ __ __ __ __ __ __ __ __ __
 72
    65
 73
     2
 40
0.000330
 49
0.000220
 49
-0.000110
  0
LTYPE
  2
HIDDEN
 70
    64
  3
 _ _ _ _ _ _ _ _ _ _ _ _ _ _ _ _ _ _ _ _ _ _
 72
    65
 73
     2
 40
0.000165
 49
0.000110
 49
-0.000055
  0
LTYPE
  2
CENTER
 70
    64
  3
____ _ ____ _ ____ _ ____ _ ____ _ ____ _ ____
 72
    65
 73
     4
 40
0.000880
 49
0.000550
 49
-0.000110
 49
0.000110
 49
-0.000110
  0
LTYPE
  2
PHANTOM
 70
    64
  3
_____ _ _ _____ _ _ _____ _ _ _____ _ _ ____
 72
    65
 73
     6
 40
0.001100
 49
0.000550
 49
-0.000110
 49
0.000110
 49
-0.000110
 49
0.000110
 49
-0.000110
  0
LTYPE
  2
DOT
 70
    64
  3
...............................................
 72
    65
 73
     2
 40
0.000110
 49
0.000000
 49
-0.000110
  0
LTYPE
  2
DASHDOT
 70
    64
  3
__ . __ . __ . __ . __ . __ . __ . __ . __ . __
 72
    65
 73
     4
 40
0.000440
 49
0.000220
 49
-0.000110
 49
0.000000
 49
-0.000110
  0
LTYPE
  2
BORDER
 70
    64
  3
__ __ . __ __ . __ __ . __ __ . __ __ . __ __
 72
    65
 73
     6
 40
0.000770
 49
0.000220
 49
-0.000110
 49
0.000220
 49
-0.000110
 49
0.000000
 49
-0.000110
  0
LTYPE
  2
DIVIDE
 70
    64
  3
__ . . __ . . __ . . __ . . __ . . __ . . __
 72
    65
 73
     6
 40
0.000550
 49
0.000220
 49
-0.000110
 49
0.000000
 49
-0.000110
 49
0.000000
 49
-0.000110
  0
LTYPE
  2
DOTDOT
 70
    64
  3
 . .  . .  . .  . .  . .  . . 
 72
    65
 73
     5
 40
0.000242
 49
-0.000110
 49
0.000000
 49
-0.000110
 49
0.000000
 49
-0.000110
  0
ENDTAB
  0
TABLE
  2
STYLE
 70
     2
  0
STYLE
 70
     0
  2
SN0
 40
0.000000
 41
0.000440
 50
0.000000
 71
     0
 42
0.000000
  3
ROMAND
  0
STYLE
 70
    68
  2
SV0
 40
0.000000
 41
0.000440
 50
0.000000
 71
     0
 42
0.000000
  3
ROMAND
  0
ENDTAB
  0
TABLE
  2
LAYER
 70
     3
  0
LAYER
  2
FOREGROUND
 70
    64
 62
     7
  6
CONTINUOUS
  0
LAYER
  2
BACKGROUND
 70
    65
 62
    -7
  6
CONTINUOUS
  0
LAYER
  2
0
 70
    64
 62
     7
  6
CONTINUOUS
  0
ENDTAB
  0
ENDSEC
  0
SECTION
  2
ENTITIES
  0
POLYLINE
  8
FOREGROUND
  6
CONTINUOUS
 66
     1
 40
0.000000
 41
0.000000
  0
VERTEX
  8
FOREGROUND
  6
CONTINUOUS
 10
0.000000
 20
10.999560
  0
VERTEX
  8
FOREGROUND
  6
CONTINUOUS
 10
8.499920
 20
10.999560
  0
VERTEX
  8
FOREGROUND
  6
CONTINUOUS
 10
8.499920
 20
-0.000440
  0
VERTEX
  8
FOREGROUND
  6
CONTINUOUS
 10
0.000000
 20
-0.000440
  0
VERTEX
  8
FOREGROUND
  6
CONTINUOUS
 10
0.000000
 20
10.999560
  0
SEQEND
  8
0
  0
POLYLINE
  8
FOREGROUND
  6
CONTINUOUS
 66
     1
 40
0.000000
 41
0.000000
  0
VERTEX
  8
FOREGROUND
  6
CONTINUOUS
 10
0.000000
 20
10.999560
  0
VERTEX
  8
FOREGROUND
  6
CONTINUOUS
 10
8.499920
 20
10.999560
  0
VERTEX
  8
FOREGROUND
  6
CONTINUOUS
 10
8.499920
 20
-0.000440
  0
VERTEX
  8
FOREGROUND
  6
CONTINUOUS
 10
0.000000
 20
-0.000440
  0
VERTEX
  8
FOREGROUND
  6
CONTINUOUS
 10
0.000000
 20
10.999560
  0
SEQEND
  8
0
  0
TEXT
  8
0
 10
3.955160
 20
4.507360
 40
0.138111
  1
BA  576
 41
1.000000
  7
SN0
 71
     0
 72
     5
 11
4.545078
 21
4.507360
  0
TEXT
  8
0
 10
3.828880
 20
4.315520
 40
0.138111
  1
1/2 x 2-1/2"
 41
1.000000
  7
SN0
 71
     0
 72
     5
 11
4.670633
 21
4.315520
  0
SOLID
  8
0
 62
    15
 10
5.022600
 20
5.019960
 11
5.667640
 21
5.379000
 12
5.023040
 22
5.014680
 13
5.668080
 23
5.373280
  0
POLYLINE
  8
0
  6
CONTINUOUS
 66
     1
 40
0.000000
 41
0.000000
  0
VERTEX
  8
0
  6
CONTINUOUS
 10
5.022600
 20
5.019960
  0
VERTEX
  8
0
  6
CONTINUOUS
 10
5.667640
 20
5.379000
  0
VERTEX
  8
0
  6
CONTINUOUS
 10
5.668080
 20
5.373280
  0
VERTEX
  8
0
  6
CONTINUOUS
 10
5.023040
 20
5.014680
  0
VERTEX
  8
0
  6
CONTINUOUS
 10
5.022600
 20
5.019960
  0
SEQEND
  8
0
  0
SOLID
  8
0
 62
    15
 10
4.856280
 20
5.141840
 11
5.501320
 21
5.500880
 12
4.885320
 22
5.140960
 13
5.530360
 23
5.499560
  0
POLYLINE
  8
0
  6
CONTINUOUS
 66
     1
 40
0.000000
 41
0.000000
  0
VERTEX
  8
0
  6
CONTINUOUS
 10
4.856280
 20
5.141840
  0
VERTEX
  8
0
  6
CONTINUOUS
 10
5.501320
 20
5.500880
  0
VERTEX
  8
0
  6
CONTINUOUS
 10
5.530360
 20
5.499560
  0
VERTEX
  8
0
  6
CONTINUOUS
 10
4.885320
 20
5.140960
  0
VERTEX
  8
0
  6
CONTINUOUS
 10
4.856280
 20
5.141840
  0
SEQEND
  8
0
  0
SOLID
  8
0
 62
    15
 10
4.885320
 20
5.140960
 11
5.530360
 21
5.499560
 12
4.910400
 22
5.137000
 13
5.555440
 23
5.496040
  0
POLYLINE
  8
0
  6
CONTINUOUS
 66
     1
 40
0.000000
 41
0.000000
  0
VERTEX
  8
0
  6
CONTINUOUS
 10
4.885320
 20
5.140960
  0
VERTEX
  8
0
  6
CONTINUOUS
 10
5.530360
 20
5.499560
  0
VERTEX
  8
0
  6
CONTINUOUS
 10
5.555440
 20
5.496040
  0
VERTEX
  8
0
  6
CONTINUOUS
 10
4.910400
 20
5.137000
  0
VERTEX
  8
0
  6
CONTINUOUS
 10
4.885320
 20
5.140960
  0
SEQEND
  8
0
  0
SOLID
  8
0
 62
    15
 10
4.910400
 20
5.137000
 11
5.555440
 21
5.496040
 12
4.932400
 22
5.130840
 13
5.577440
 23
5.489880
  0
POLYLINE
  8
0
  6
CONTINUOUS
 66
     1
 40
0.000000
 41
0.000000
  0
VERTEX
  8
0
  6
CONTINUOUS
 10
4.910400
 20
5.137000
  0
VERTEX
  8
0
  6
CONTINUOUS
 10
5.555440
 20
5.496040
  0
VERTEX
  8
0
  6
CONTINUOUS
 10
5.577440
 20
5.489880
  0
VERTEX
  8
0
  6
CONTINUOUS
 10
4.932400
 20
5.130840
  0
VERTEX
  8
0
  6
CONTINUOUS
 10
4.910400
 20
5.137000
  0
SEQEND
  8
0
  0
SOLID
  8
0
 62
    15
 10
4.932400
 20
5.130840
 11
5.577440
 21
5.489880
 12
4.951320
 22
5.122920
 13
5.596360
 23
5.481960
  0
POLYLINE
  8
0
  6
CONTINUOUS
 66
     1
 40
0.000000
 41
0.000000
  0
VERTEX
  8
0
  6
CONTINUOUS
 10
4.932400
 20
5.130840
  0
VERTEX
  8
0
  6
CONTINUOUS
 10
5.577440
 20
5.489880
  0
VERTEX
  8
0
  6
CONTINUOUS
 10
5.596360
 20
5.481960
  0
VERTEX
  8
0
  6
CONTINUOUS
 10
4.951320
 20
5.122920
  0
VERTEX
  8
0
  6
CONTINUOUS
 10
4.932400
 20
5.130840
  0
SEQEND
  8
0
  0
SOLID
  8
0
 62
    15
 10
4.951320
 20
5.122920
 11
5.596360
 21
5.481960
 12
4.967600
 22
5.113240
 13
5.612640
 23
5.472280
  0
POLYLINE
  8
0
  6
CONTINUOUS
 66
     1
 40
0.000000
 41
0.000000
  0
VERTEX
  8
0
  6
CONTINUOUS
 10
4.951320
 20
5.122920
  0
VERTEX
  8
0
  6
CONTINUOUS
 10
5.596360
 20
5.481960
  0
VERTEX
  8
0
  6
CONTINUOUS
 10
5.612640
 20
5.472280
  0
VERTEX
  8
0
  6
CONTINUOUS
 10
4.967600
 20
5.113240
  0
VERTEX
  8
0
  6
CONTINUOUS
 10
4.951320
 20
5.122920
  0
SEQEND
  8
0
  0
SOLID
  8
0
 62
    15
 10
4.967600
 20
5.113240
 11
5.612640
 21
5.472280
 12
4.981240
 22
5.102680
 13
5.625840
 23
5.461720
  0
POLYLINE
  8
0
  6
CONTINUOUS
 66
     1
 40
0.000000
 41
0.000000
  0
VERTEX
  8
0
  6
CONTINUOUS
 10
4.967600
 20
5.113240
  0
VERTEX
  8
0
  6
CONTINUOUS
 10
5.612640
 20
5.472280
  0
VERTEX
  8
0
  6
CONTINUOUS
 10
5.625840
 20
5.461720
  0
VERTEX
  8
0
  6
CONTINUOUS
 10
4.981240
 20
5.102680
  0
VERTEX
  8
0
  6
CONTINUOUS
 10
4.967600
 20
5.113240
  0
SEQEND
  8
0
  0
SOLID
  8
0
 62
    15
 10
4.981240
 20
5.102680
 11
5.625840
 21
5.461720
 12
5.001040
 22
5.078920
 13
5.646080
 23
5.437960
  0
POLYLINE
  8
0
  6
CONTINUOUS
 66
     1
 40
0.000000
 41
0.000000
  0
VERTEX
  8
0
  6
CONTINUOUS
 10
4.981240
 20
5.102680
  0
VERTEX
  8
0
  6
CONTINUOUS
 10
5.625840
 20
5.461720
  0
VERTEX
  8
0
  6
CONTINUOUS
 10
5.646080
 20
5.437960
  0
VERTEX
  8
0
  6
CONTINUOUS
 10
5.001040
 20
5.078920
  0
VERTEX
  8
0
  6
CONTINUOUS
 10
4.981240
 20
5.102680
  0
SEQEND
  8
0
  0
SOLID
  8
0
 62
    15
 10
5.001040
 20
5.078920
 11
5.646080
 21
5.437960
 12
5.013360
 22
5.055600
 13
5.658400
 23
5.414640
  0
POLYLINE
  8
0
  6
CONTINUOUS
 66
     1
 40
0.000000
 41
0.000000
  0
VERTEX
  8
0
  6
CONTINUOUS
 10
5.001040
 20
5.078920
  0
VERTEX
  8
0
  6
CONTINUOUS
 10
5.646080
 20
5.437960
  0
VERTEX
  8
0
  6
CONTINUOUS
 10
5.658400
 20
5.414640
  0
VERTEX
  8
0
  6
CONTINUOUS
 10
5.013360
 20
5.055600
  0
VERTEX
  8
0
  6
CONTINUOUS
 10
5.001040
 20
5.078920
  0
SEQEND
  8
0
  0
SOLID
  8
0
 62
    15
 10
5.013360
 20
5.055600
 11
5.658400
 21
5.414640
 12
5.019960
 22
5.034920
 13
5.665000
 23
5.393520
  0
POLYLINE
  8
0
  6
CONTINUOUS
 66
     1
 40
0.000000
 41
0.000000
  0
VERTEX
  8
0
  6
CONTINUOUS
 10
5.013360
 20
5.055600
  0
VERTEX
  8
0
  6
CONTINUOUS
 10
5.658400
 20
5.414640
  0
VERTEX
  8
0
  6
CONTINUOUS
 10
5.665000
 20
5.393520
  0
VERTEX
  8
0
  6
CONTINUOUS
 10
5.019960
 20
5.034920
  0
VERTEX
  8
0
  6
CONTINUOUS
 10
5.013360
 20
5.055600
  0
SEQEND
  8
0
  0
SOLID
  8
0
 62
    15
 10
5.019960
 20
5.034920
 11
5.665000
 21
5.393520
 12
5.022600
 22
5.019960
 13
5.667640
 23
5.379000
  0
POLYLINE
  8
0
  6
CONTINUOUS
 66
     1
 40
0.000000
 41
0.000000
  0
VERTEX
  8
0
  6
CONTINUOUS
 10
5.019960
 20
5.034920
  0
VERTEX
  8
0
  6
CONTINUOUS
 10
5.665000
 20
5.393520
  0
VERTEX
  8
0
  6
CONTINUOUS
 10
5.667640
 20
5.379000
  0
VERTEX
  8
0
  6
CONTINUOUS
 10
5.022600
 20
5.019960
  0
VERTEX
  8
0
  6
CONTINUOUS
 10
5.019960
 20
5.034920
  0
SEQEND
  8
0
  0
SOLID
  8
0
 62
    15
 10
4.850560
 20
5.288800
 11
5.495600
 21
5.647840
 12
4.856280
 22
5.141840
 13
5.501320
 23
5.500880
  0
POLYLINE
  8
0
  6
CONTINUOUS
 66
     1
 40
0.000000
 41
0.000000
  0
VERTEX
  8
0
  6
CONTINUOUS
 10
4.850560
 20
5.288800
  0
VERTEX
  8
0
  6
CONTINUOUS
 10
5.495600
 20
5.647840
  0
VERTEX
  8
0
  6
CONTINUOUS
 10
5.501320
 20
5.500880
  0
VERTEX
  8
0
  6
CONTINUOUS
 10
4.856280
 20
5.141840
  0
VERTEX
  8
0
  6
CONTINUOUS
 10
4.850560
 20
5.288800
  0
SEQEND
  8
0
  0
SOLID
  8
0
 62
    15
 10
5.023040
 20
5.014680
 11
5.668080
 21
5.373280
 12
5.025240
 22
5.010280
 13
5.670280
 23
5.369320
  0
POLYLINE
  8
0
  6
CONTINUOUS
 66
     1
 40
0.000000
 41
0.000000
  0
VERTEX
  8
0
  6
CONTINUOUS
 10
5.023040
 20
5.014680
  0
VERTEX
  8
0
  6
CONTINUOUS
 10
5.668080
 20
5.373280
  0
VERTEX
  8
0
  6
CONTINUOUS
 10
5.670280
 20
5.369320
  0
VERTEX
  8
0
  6
CONTINUOUS
 10
5.025240
 20
5.010280
  0
VERTEX
  8
0
  6
CONTINUOUS
 10
5.023040
 20
5.014680
  0
SEQEND
  8
0
  0
SOLID
  8
0
 62
    15
 10
5.025240
 20
5.010280
 11
5.670280
 21
5.369320
 12
5.032720
 22
4.999280
 13
5.677320
 23
5.358320
  0
POLYLINE
  8
0
  6
CONTINUOUS
 66
     1
 40
0.000000
 41
0.000000
  0
VERTEX
  8
0
  6
CONTINUOUS
 10
5.025240
 20
5.010280
  0
VERTEX
  8
0
  6
CONTINUOUS
 10
5.670280
 20
5.369320
  0
VERTEX
  8
0
  6
CONTINUOUS
 10
5.677320
 20
5.358320
  0
VERTEX
  8
0
  6
CONTINUOUS
 10
5.032720
 20
4.999280
  0
VERTEX
  8
0
  6
CONTINUOUS
 10
5.025240
 20
5.010280
  0
SEQEND
  8
0
  0
SOLID
  8
0
 62
    15
 10
5.032720
 20
4.999280
 11
5.677320
 21
5.358320
 12
5.044600
 22
4.983880
 13
5.689640
 23
5.342920
  0
POLYLINE
  8
0
  6
CONTINUOUS
 66
     1
 40
0.000000
 41
0.000000
  0
VERTEX
  8
0
  6
CONTINUOUS
 10
5.032720
 20
4.999280
  0
VERTEX
  8
0
  6
CONTINUOUS
 10
5.677320
 20
5.358320
  0
VERTEX
  8
0
  6
CONTINUOUS
 10
5.689640
 20
5.342920
  0
VERTEX
  8
0
  6
CONTINUOUS
 10
5.044600
 20
4.983880
  0
VERTEX
  8
0
  6
CONTINUOUS
 10
5.032720
 20
4.999280
  0
SEQEND
  8
0
  0
SOLID
  8
0
 62
    15
 10
5.044600
 20
4.983880
 11
5.689640
 21
5.342920
 12
5.061320
 22
4.966280
 13
5.706360
 23
5.325320
  0
POLYLINE
  8
0
  6
CONTINUOUS
 66
     1
 40
0.000000
 41
0.000000
  0
VERTEX
  8
0
  6
CONTINUOUS
 10
5.044600
 20
4.983880
  0
VERTEX
  8
0
  6
CONTINUOUS
 10
5.689640
 20
5.342920
  0
VERTEX
  8
0
  6
CONTINUOUS
 10
5.706360
 20
5.325320
  0
VERTEX
  8
0
  6
CONTINUOUS
 10
5.061320
 20
4.966280
  0
VERTEX
  8
0
  6
CONTINUOUS
 10
5.044600
 20
4.983880
  0
SEQEND
  8
0
  0
SOLID
  8
0
 62
    15
 10
5.061320
 20
4.966280
 11
5.706360
 21
5.325320
 12
5.082440
 22
4.948680
 13
5.727480
 23
5.307720
  0
POLYLINE
  8
0
  6
CONTINUOUS
 66
     1
 40
0.000000
 41
0.000000
  0
VERTEX
  8
0
  6
CONTINUOUS
 10
5.061320
 20
4.966280
  0
VERTEX
  8
0
  6
CONTINUOUS
 10
5.706360
 20
5.325320
  0
VERTEX
  8
0
  6
CONTINUOUS
 10
5.727480
 20
5.307720
  0
VERTEX
  8
0
  6
CONTINUOUS
 10
5.082440
 20
4.948680
  0
VERTEX
  8
0
  6
CONTINUOUS
 10
5.061320
 20
4.966280
  0
SEQEND
  8
0
  0
SOLID
  8
0
 62
    15
 10
5.082440
 20
4.948680
 11
5.727480
 21
5.307720
 12
5.108840
 22
4.933280
 13
5.753880
 23
5.292320
  0
POLYLINE
  8
0
  6
CONTINUOUS
 66
     1
 40
0.000000
 41
0.000000
  0
VERTEX
  8
0
  6
CONTINUOUS
 10
5.082440
 20
4.948680
  0
VERTEX
  8
0
  6
CONTINUOUS
 10
5.727480
 20
5.307720
  0
VERTEX
  8
0
  6
CONTINUOUS
 10
5.753880
 20
5.292320
  0
VERTEX
  8
0
  6
CONTINUOUS
 10
5.108840
 20
4.933280
  0
VERTEX
  8
0
  6
CONTINUOUS
 10
5.082440
 20
4.948680
  0
SEQEND
  8
0
  0
SOLID
  8
0
 62
    15
 10
5.108840
 20
4.933280
 11
5.753880
 21
5.292320
 12
5.139640
 22
4.922720
 13
5.784680
 23
5.281320
  0
POLYLINE
  8
0
  6
CONTINUOUS
 66
     1
 40
0.000000
 41
0.000000
  0
VERTEX
  8
0
  6
CONTINUOUS
 10
5.108840
 20
4.933280
  0
VERTEX
  8
0
  6
CONTINUOUS
 10
5.753880
 20
5.292320
  0
VERTEX
  8
0
  6
CONTINUOUS
 10
5.784680
 20
5.281320
  0
VERTEX
  8
0
  6
CONTINUOUS
 10
5.139640
 20
4.922720
  0
VERTEX
  8
0
  6
CONTINUOUS
 10
5.108840
 20
4.933280
  0
SEQEND
  8
0
  0
SOLID
  8
0
 62
    15
 10
5.139640
 20
4.922720
 11
5.784680
 21
5.281320
 12
5.175720
 22
4.918320
 13
5.820760
 23
5.277360
  0
POLYLINE
  8
0
  6
CONTINUOUS
 66
     1
 40
0.000000
 41
0.000000
  0
VERTEX
  8
0
  6
CONTINUOUS
 10
5.139640
 20
4.922720
  0
VERTEX
  8
0
  6
CONTINUOUS
 10
5.784680
 20
5.281320
  0
VERTEX
  8
0
  6
CONTINUOUS
 10
5.820760
 20
5.277360
  0
VERTEX
  8
0
  6
CONTINUOUS
 10
5.175720
 20
4.918320
  0
VERTEX
  8
0
  6
CONTINUOUS
 10
5.139640
 20
4.922720
  0
SEQEND
  8
0
  0
SOLID
  8
0
 62
    15
 10
5.175720
 20
4.918320
 11
5.820760
 21
5.277360
 12
5.175720
 22
4.777080
 13
5.820760
 23
5.136120
  0
POLYLINE
  8
0
  6
CONTINUOUS
 66
     1
 40
0.000000
 41
0.000000
  0
VERTEX
  8
0
  6
CONTINUOUS
 10
5.175720
 20
4.918320
  0
VERTEX
  8
0
  6
CONTINUOUS
 10
5.820760
 20
5.277360
  0
VERTEX
  8
0
  6
CONTINUOUS
 10
5.820760
 20
5.136120
  0
VERTEX
  8
0
  6
CONTINUOUS
 10
5.175720
 20
4.777080
  0
VERTEX
  8
0
  6
CONTINUOUS
 10
5.175720
 20
4.918320
  0
SEQEND
  8
0
  0
SOLID
  8
0
 62
    15
 10
2.679600
 20
5.288800
 11
3.324640
 21
5.647840
 12
4.850560
 22
5.288800
 13
5.495600
 23
5.647840
  0
POLYLINE
  8
0
  6
CONTINUOUS
 66
     1
 40
0.000000
 41
0.000000
  0
VERTEX
  8
0
  6
CONTINUOUS
 10
2.679600
 20
5.288800
  0
VERTEX
  8
0
  6
CONTINUOUS
 10
3.324640
 20
5.647840
  0
VERTEX
  8
0
  6
CONTINUOUS
 10
5.495600
 20
5.647840
  0
VERTEX
  8
0
  6
CONTINUOUS
 10
4.850560
 20
5.288800
  0
VERTEX
  8
0
  6
CONTINUOUS
 10
2.679600
 20
5.288800
  0
SEQEND
  8
0
  0
POLYLINE
  8
0
  6
CONTINUOUS
 66
     1
 40
0.000000
 41
0.000000
  0
VERTEX
  8
0
  6
CONTINUOUS
 10
4.850560
 20
5.288800
  0
VERTEX
  8
0
  6
CONTINUOUS
 10
5.495600
 20
5.647840
  0
VERTEX
  8
0
  6
CONTINUOUS
 10
4.850560
 20
5.288800
  0
SEQEND
  8
0
  0
POLYLINE
  8
0
  6
CONTINUOUS
 66
     1
 40
0.000000
 41
0.000000
  0
VERTEX
  8
0
  6
CONTINUOUS
 10
4.850560
 20
5.288800
  0
VERTEX
  8
0
  6
CONTINUOUS
 10
4.856280
 20
5.141840
  0
VERTEX
  8
0
  6
CONTINUOUS
 10
4.885320
 20
5.140960
  0
VERTEX
  8
0
  6
CONTINUOUS
 10
4.910400
 20
5.137000
  0
VERTEX
  8
0
  6
CONTINUOUS
 10
4.932400
 20
5.130840
  0
VERTEX
  8
0
  6
CONTINUOUS
 10
4.951320
 20
5.122920
  0
VERTEX
  8
0
  6
CONTINUOUS
 10
4.967600
 20
5.113240
  0
VERTEX
  8
0
  6
CONTINUOUS
 10
4.981240
 20
5.102680
  0
VERTEX
  8
0
  6
CONTINUOUS
 10
5.001040
 20
5.078920
  0
VERTEX
  8
0
  6
CONTINUOUS
 10
5.013360
 20
5.055600
  0
VERTEX
  8
0
  6
CONTINUOUS
 10
5.019960
 20
5.034920
  0
VERTEX
  8
0
  6
CONTINUOUS
 10
5.022600
 20
5.019960
  0
VERTEX
  8
0
  6
CONTINUOUS
 10
5.023040
 20
5.014680
  0
VERTEX
  8
0
  6
CONTINUOUS
 10
5.025240
 20
5.010280
  0
VERTEX
  8
0
  6
CONTINUOUS
 10
5.032720
 20
4.999280
  0
VERTEX
  8
0
  6
CONTINUOUS
 10
5.044600
 20
4.983880
  0
VERTEX
  8
0
  6
CONTINUOUS
 10
5.061320
 20
4.966280
  0
VERTEX
  8
0
  6
CONTINUOUS
 10
5.082440
 20
4.948680
  0
VERTEX
  8
0
  6
CONTINUOUS
 10
5.108840
 20
4.933280
  0
VERTEX
  8
0
  6
CONTINUOUS
 10
5.139640
 20
4.922720
  0
VERTEX
  8
0
  6
CONTINUOUS
 10
5.175720
 20
4.918320
  0
VERTEX
  8
0
  6
CONTINUOUS
 10
5.175720
 20
4.777080
  0
VERTEX
  8
0
  6
CONTINUOUS
 10
2.679600
 20
4.777080
  0
VERTEX
  8
0
  6
CONTINUOUS
 10
2.679600
 20
5.288800
  0
VERTEX
  8
0
  6
CONTINUOUS
 10
4.850560
 20
5.288800
  0
SEQEND
  8
0
  0
POLYLINE
  8
0
  6
CONTINUOUS
 66
     1
 40
0.014080
 41
0.014080
  0
VERTEX
  8
0
  6
CONTINUOUS
 10
5.358320
 20
6.719240
  0
VERTEX
  8
0
  6
CONTINUOUS
 10
3.187360
 20
6.719240
  0
VERTEX
  8
0
  6
CONTINUOUS
 10
3.187360
 20
6.207520
  0
VERTEX
  8
0
  6
CONTINUOUS
 10
5.683480
 20
6.207520
  0
VERTEX
  8
0
  6
CONTINUOUS
 10
5.683480
 20
6.348760
  0
VERTEX
  8
0
  6
CONTINUOUS
 10
5.665000
 20
6.349640
  0
VERTEX
  8
0
  6
CONTINUOUS
 10
5.647400
 20
6.352720
  0
VERTEX
  8
0
  6
CONTINUOUS
 10
5.631560
 20
6.357560
  0
VERTEX
  8
0
  6
CONTINUOUS
 10
5.616600
 20
6.363720
  0
VERTEX
  8
0
  6
CONTINUOUS
 10
5.602960
 20
6.371200
  0
VERTEX
  8
0
  6
CONTINUOUS
 10
5.590200
 20
6.379120
  0
VERTEX
  8
0
  6
CONTINUOUS
 10
5.579200
 20
6.387920
  0
VERTEX
  8
0
  6
CONTINUOUS
 10
5.569080
 20
6.396720
  0
VERTEX
  8
0
  6
CONTINUOUS
 10
5.559840
 20
6.405960
  0
VERTEX
  8
0
  6
CONTINUOUS
 10
5.552360
 20
6.414760
  0
VERTEX
  8
0
  6
CONTINUOUS
 10
5.545760
 20
6.422680
  0
VERTEX
  8
0
  6
CONTINUOUS
 10
5.540480
 20
6.430160
  0
VERTEX
  8
0
  6
CONTINUOUS
 10
5.536080
 20
6.436320
  0
VERTEX
  8
0
  6
CONTINUOUS
 10
5.533000
 20
6.441160
  0
VERTEX
  8
0
  6
CONTINUOUS
 10
5.531240
 20
6.444240
  0
VERTEX
  8
0
  6
CONTINUOUS
 10
5.530800
 20
6.445120
  0
VERTEX
  8
0
  6
CONTINUOUS
 10
5.530800
 20
6.448200
  0
VERTEX
  8
0
  6
CONTINUOUS
 10
5.530360
 20
6.450840
  0
VERTEX
  8
0
  6
CONTINUOUS
 10
5.529480
 20
6.457000
  0
VERTEX
  8
0
  6
CONTINUOUS
 10
5.527720
 20
6.465360
  0
VERTEX
  8
0
  6
CONTINUOUS
 10
5.525080
 20
6.475040
  0
VERTEX
  8
0
  6
CONTINUOUS
 10
5.521120
 20
6.486040
  0
VERTEX
  8
0
  6
CONTINUOUS
 10
5.515840
 20
6.497480
  0
VERTEX
  8
0
  6
CONTINUOUS
 10
5.508800
 20
6.509800
  0
VERTEX
  8
0
  6
CONTINUOUS
 10
5.500000
 20
6.521680
  0
VERTEX
  8
0
  6
CONTINUOUS
 10
5.489000
 20
6.533120
  0
VERTEX
  8
0
  6
CONTINUOUS
 10
5.482400
 20
6.538840
  0
VERTEX
  8
0
  6
CONTINUOUS
 10
5.475360
 20
6.544120
  0
VERTEX
  8
0
  6
CONTINUOUS
 10
5.467880
 20
6.548960
  0
VERTEX
  8
0
  6
CONTINUOUS
 10
5.459520
 20
6.553360
  0
VERTEX
  8
0
  6
CONTINUOUS
 10
5.450280
 20
6.557760
  0
VERTEX
  8
0
  6
CONTINUOUS
 10
5.440160
 20
6.561720
  0
VERTEX
  8
0
  6
CONTINUOUS
 10
5.429600
 20
6.564800
  0
VERTEX
  8
0
  6
CONTINUOUS
 10
5.418160
 20
6.567440
  0
VERTEX
  8
0
  6
CONTINUOUS
 10
5.406280
 20
6.569640
  0
VERTEX
  8
0
  6
CONTINUOUS
 10
5.393080
 20
6.571400
  0
VERTEX
  8
0
  6
CONTINUOUS
 10
5.379000
 20
6.572280
  0
VERTEX
  8
0
  6
CONTINUOUS
 10
5.364040
 20
6.572280
  0
VERTEX
  8
0
  6
CONTINUOUS
 10
5.358320
 20
6.719240
  0
SEQEND
  8
0
  0
TEXT
  8
0
 10
4.070000
 20
6.510680
 40
0.138111
  1
BA  576
 41
1.000000
  7
SN0
 71
     0
 72
     5
 11
4.659918
 21
6.510680
  0
TEXT
  8
0
 10
3.943720
 20
6.318840
 40
0.138111
  1
1/2 x 2-1/2"
 41
1.000000
  7
SN0
 71
     0
 72
     5
 11
4.785473
 21
6.318840
  0
ENDSEC
  0
EOF
