  0
SECTION
  2
HEADER
  9
$ACADVER
  1
AC1006
  9
$EXTMIN
 10
3.822720
 20
0.448800
  9
$EXTMAX
 10
7.105560
 20
3.204960
  9
$LTSCALE
 40
0.044000
  9
$PDMODE
 70
    35
  9
$PDSIZE
 40
0.035200
  0
ENDSEC
  0
SECTION
  2
TABLES
  0
TABLE
  2
LTYPE
 70
     9
  0
LTYPE
  2
CONTINUOUS
 70
    64
  3
Solid line
 72
    65
 73
     0
 40
0.000000
  0
LTYPE
  2
DASHED
 70
    64
  3
__ __ __ __ __ __ __ __ __ __ __ __ __ __ __
 72
    65
 73
     2
 40
0.000330
 49
0.000220
 49
-0.000110
  0
LTYPE
  2
HIDDEN
 70
    64
  3
 _ _ _ _ _ _ _ _ _ _ _ _ _ _ _ _ _ _ _ _ _ _
 72
    65
 73
     2
 40
0.000165
 49
0.000110
 49
-0.000055
  0
LTYPE
  2
CENTER
 70
    64
  3
____ _ ____ _ ____ _ ____ _ ____ _ ____ _ ____
 72
    65
 73
     4
 40
0.000880
 49
0.000550
 49
-0.000110
 49
0.000110
 49
-0.000110
  0
LTYPE
  2
PHANTOM
 70
    64
  3
_____ _ _ _____ _ _ _____ _ _ _____ _ _ ____
 72
    65
 73
     6
 40
0.001100
 49
0.000550
 49
-0.000110
 49
0.000110
 49
-0.000110
 49
0.000110
 49
-0.000110
  0
LTYPE
  2
DOT
 70
    64
  3
...............................................
 72
    65
 73
     2
 40
0.000110
 49
0.000000
 49
-0.000110
  0
LTYPE
  2
DASHDOT
 70
    64
  3
__ . __ . __ . __ . __ . __ . __ . __ . __ . __
 72
    65
 73
     4
 40
0.000440
 49
0.000220
 49
-0.000110
 49
0.000000
 49
-0.000110
  0
LTYPE
  2
BORDER
 70
    64
  3
__ __ . __ __ . __ __ . __ __ . __ __ . __ __
 72
    65
 73
     6
 40
0.000770
 49
0.000220
 49
-0.000110
 49
0.000220
 49
-0.000110
 49
0.000000
 49
-0.000110
  0
LTYPE
  2
DIVIDE
 70
    64
  3
__ . . __ . . __ . . __ . . __ . . __ . . __
 72
    65
 73
     6
 40
0.000550
 49
0.000220
 49
-0.000110
 49
0.000000
 49
-0.000110
 49
0.000000
 49
-0.000110
  0
LTYPE
  2
DOTDOT
 70
    64
  3
 . .  . .  . .  . .  . .  . . 
 72
    65
 73
     5
 40
0.000242
 49
-0.000110
 49
0.000000
 49
-0.000110
 49
0.000000
 49
-0.000110
  0
ENDTAB
  0
TABLE
  2
STYLE
 70
     2
  0
STYLE
 70
     0
  2
SN0
 40
0.000000
 41
0.000440
 50
0.000000
 71
     0
 42
0.000000
  3
ROMAND
  0
STYLE
 70
    68
  2
SV0
 40
0.000000
 41
0.000440
 50
0.000000
 71
     0
 42
0.000000
  3
ROMAND
  0
ENDTAB
  0
TABLE
  2
LAYER
 70
     3
  0
LAYER
  2
FOREGROUND
 70
    64
 62
     7
  6
CONTINUOUS
  0
LAYER
  2
BACKGROUND
 70
    65
 62
    -7
  6
CONTINUOUS
  0
LAYER
  2
0
 70
    64
 62
     7
  6
CONTINUOUS
  0
ENDTAB
  0
ENDSEC
  0
SECTION
  2
ENTITIES
  0
POLYLINE
  8
FOREGROUND
  6
CONTINUOUS
 66
     1
 40
0.000000
 41
0.000000
  0
VERTEX
  8
FOREGROUND
  6
CONTINUOUS
 10
0.000000
 20
3.653760
  0
VERTEX
  8
FOREGROUND
  6
CONTINUOUS
 10
8.499920
 20
3.653760
  0
VERTEX
  8
FOREGROUND
  6
CONTINUOUS
 10
8.499920
 20
-7.346240
  0
VERTEX
  8
FOREGROUND
  6
CONTINUOUS
 10
0.000000
 20
-7.346240
  0
VERTEX
  8
FOREGROUND
  6
CONTINUOUS
 10
0.000000
 20
3.653760
  0
SEQEND
  8
0
  0
POLYLINE
  8
FOREGROUND
  6
CONTINUOUS
 66
     1
 40
0.000000
 41
0.000000
  0
VERTEX
  8
FOREGROUND
  6
CONTINUOUS
 10
0.000000
 20
3.653760
  0
VERTEX
  8
FOREGROUND
  6
CONTINUOUS
 10
8.499920
 20
3.653760
  0
VERTEX
  8
FOREGROUND
  6
CONTINUOUS
 10
8.499920
 20
-7.346240
  0
VERTEX
  8
FOREGROUND
  6
CONTINUOUS
 10
0.000000
 20
-7.346240
  0
VERTEX
  8
FOREGROUND
  6
CONTINUOUS
 10
0.000000
 20
3.653760
  0
SEQEND
  8
0
  0
POLYLINE
  8
0
  6
CONTINUOUS
 66
     1
 40
0.014080
 41
0.014080
  0
VERTEX
  8
0
  6
CONTINUOUS
 10
6.359760
 20
3.197040
  0
VERTEX
  8
0
  6
CONTINUOUS
 10
6.111160
 20
3.193960
  0
VERTEX
  8
0
  6
CONTINUOUS
 10
6.111160
 20
1.391720
  0
VERTEX
  8
0
  6
CONTINUOUS
 10
6.921640
 20
1.391720
  0
VERTEX
  8
0
  6
CONTINUOUS
 10
6.921640
 20
1.468280
  0
VERTEX
  8
0
  6
CONTINUOUS
 10
6.959480
 20
1.497320
  0
VERTEX
  8
0
  6
CONTINUOUS
 10
6.999960
 20
1.534720
  0
VERTEX
  8
0
  6
CONTINUOUS
 10
7.038240
 20
1.580480
  0
VERTEX
  8
0
  6
CONTINUOUS
 10
7.062440
 20
1.619200
  0
VERTEX
  8
0
  6
CONTINUOUS
 10
7.076960
 20
1.650440
  0
VERTEX
  8
0
  6
CONTINUOUS
 10
7.089720
 20
1.690040
  0
VERTEX
  8
0
  6
CONTINUOUS
 10
7.096760
 20
1.729200
  0
VERTEX
  8
0
  6
CONTINUOUS
 10
7.098960
 20
1.760440
  0
VERTEX
  8
0
  6
CONTINUOUS
 10
7.097200
 20
1.799600
  0
VERTEX
  8
0
  6
CONTINUOUS
 10
7.091040
 20
1.838320
  0
VERTEX
  8
0
  6
CONTINUOUS
 10
7.078720
 20
1.883640
  0
VERTEX
  8
0
  6
CONTINUOUS
 10
7.058480
 20
1.935120
  0
VERTEX
  8
0
  6
CONTINUOUS
 10
7.032960
 20
1.984400
  0
VERTEX
  8
0
  6
CONTINUOUS
 10
7.008320
 20
2.024880
  0
VERTEX
  8
0
  6
CONTINUOUS
 10
6.963440
 20
2.087360
  0
VERTEX
  8
0
  6
CONTINUOUS
 10
6.907560
 20
2.152480
  0
VERTEX
  8
0
  6
CONTINUOUS
 10
6.838040
 20
2.222000
  0
VERTEX
  8
0
  6
CONTINUOUS
 10
6.788760
 20
2.263800
  0
VERTEX
  8
0
  6
CONTINUOUS
 10
6.701200
 20
2.328040
  0
VERTEX
  8
0
  6
CONTINUOUS
 10
6.648400
 20
2.372480
  0
VERTEX
  8
0
  6
CONTINUOUS
 10
6.591640
 20
2.428360
  0
VERTEX
  8
0
  6
CONTINUOUS
 10
6.539720
 20
2.489520
  0
VERTEX
  8
0
  6
CONTINUOUS
 10
6.494400
 20
2.553760
  0
VERTEX
  8
0
  6
CONTINUOUS
 10
6.457000
 20
2.618880
  0
VERTEX
  8
0
  6
CONTINUOUS
 10
6.423560
 20
2.691480
  0
VERTEX
  8
0
  6
CONTINUOUS
 10
6.395400
 20
2.772000
  0
VERTEX
  8
0
  6
CONTINUOUS
 10
6.380880
 20
2.826560
  0
VERTEX
  8
0
  6
CONTINUOUS
 10
6.367680
 20
2.896520
  0
VERTEX
  8
0
  6
CONTINUOUS
 10
6.359760
 20
2.958560
  0
VERTEX
  8
0
  6
CONTINUOUS
 10
6.356240
 20
3.010920
  0
VERTEX
  8
0
  6
CONTINUOUS
 10
6.354920
 20
3.079560
  0
VERTEX
  8
0
  6
CONTINUOUS
 10
6.358880
 20
3.166680
  0
VERTEX
  8
0
  6
CONTINUOUS
 10
6.361520
 20
3.197040
  0
SEQEND
  8
0
  0
SOLID
  8
0
 62
    15
 10
4.553560
 20
1.748560
 11
5.199920
 21
2.111560
 12
4.584800
 22
1.718640
 13
5.231160
 23
2.081640
  0
POLYLINE
  8
0
  6
CONTINUOUS
 66
     1
 40
0.000000
 41
0.000000
  0
VERTEX
  8
0
  6
CONTINUOUS
 10
4.553560
 20
1.748560
  0
VERTEX
  8
0
  6
CONTINUOUS
 10
5.199920
 20
2.111560
  0
VERTEX
  8
0
  6
CONTINUOUS
 10
5.231160
 20
2.081640
  0
VERTEX
  8
0
  6
CONTINUOUS
 10
4.584800
 20
1.718640
  0
VERTEX
  8
0
  6
CONTINUOUS
 10
4.553560
 20
1.748560
  0
SEQEND
  8
0
  0
SOLID
  8
0
 62
    15
 10
4.067360
 20
2.609200
 11
4.713280
 21
2.972200
 12
4.070880
 22
2.501400
 13
4.717240
 23
2.864400
  0
POLYLINE
  8
0
  6
CONTINUOUS
 66
     1
 40
0.000000
 41
0.000000
  0
VERTEX
  8
0
  6
CONTINUOUS
 10
4.067360
 20
2.609200
  0
VERTEX
  8
0
  6
CONTINUOUS
 10
4.713280
 20
2.972200
  0
VERTEX
  8
0
  6
CONTINUOUS
 10
4.717240
 20
2.864400
  0
VERTEX
  8
0
  6
CONTINUOUS
 10
4.070880
 20
2.501400
  0
VERTEX
  8
0
  6
CONTINUOUS
 10
4.067360
 20
2.609200
  0
SEQEND
  8
0
  0
SOLID
  8
0
 62
    15
 10
4.070880
 20
2.501400
 11
4.717240
 21
2.864400
 12
4.083640
 22
2.402400
 13
4.730000
 23
2.765400
  0
POLYLINE
  8
0
  6
CONTINUOUS
 66
     1
 40
0.000000
 41
0.000000
  0
VERTEX
  8
0
  6
CONTINUOUS
 10
4.070880
 20
2.501400
  0
VERTEX
  8
0
  6
CONTINUOUS
 10
4.717240
 20
2.864400
  0
VERTEX
  8
0
  6
CONTINUOUS
 10
4.730000
 20
2.765400
  0
VERTEX
  8
0
  6
CONTINUOUS
 10
4.083640
 20
2.402400
  0
VERTEX
  8
0
  6
CONTINUOUS
 10
4.070880
 20
2.501400
  0
SEQEND
  8
0
  0
SOLID
  8
0
 62
    15
 10
4.083640
 20
2.402400
 11
4.730000
 21
2.765400
 12
4.104760
 22
2.312640
 13
4.750680
 23
2.675640
  0
POLYLINE
  8
0
  6
CONTINUOUS
 66
     1
 40
0.000000
 41
0.000000
  0
VERTEX
  8
0
  6
CONTINUOUS
 10
4.083640
 20
2.402400
  0
VERTEX
  8
0
  6
CONTINUOUS
 10
4.730000
 20
2.765400
  0
VERTEX
  8
0
  6
CONTINUOUS
 10
4.750680
 20
2.675640
  0
VERTEX
  8
0
  6
CONTINUOUS
 10
4.104760
 20
2.312640
  0
VERTEX
  8
0
  6
CONTINUOUS
 10
4.083640
 20
2.402400
  0
SEQEND
  8
0
  0
SOLID
  8
0
 62
    15
 10
4.104760
 20
2.312640
 11
4.750680
 21
2.675640
 12
4.132040
 22
2.230800
 13
4.778400
 23
2.593800
  0
POLYLINE
  8
0
  6
CONTINUOUS
 66
     1
 40
0.000000
 41
0.000000
  0
VERTEX
  8
0
  6
CONTINUOUS
 10
4.104760
 20
2.312640
  0
VERTEX
  8
0
  6
CONTINUOUS
 10
4.750680
 20
2.675640
  0
VERTEX
  8
0
  6
CONTINUOUS
 10
4.778400
 20
2.593800
  0
VERTEX
  8
0
  6
CONTINUOUS
 10
4.132040
 20
2.230800
  0
VERTEX
  8
0
  6
CONTINUOUS
 10
4.104760
 20
2.312640
  0
SEQEND
  8
0
  0
SOLID
  8
0
 62
    15
 10
4.132040
 20
2.230800
 11
4.778400
 21
2.593800
 12
4.165040
 22
2.157320
 13
4.811400
 23
2.520320
  0
POLYLINE
  8
0
  6
CONTINUOUS
 66
     1
 40
0.000000
 41
0.000000
  0
VERTEX
  8
0
  6
CONTINUOUS
 10
4.132040
 20
2.230800
  0
VERTEX
  8
0
  6
CONTINUOUS
 10
4.778400
 20
2.593800
  0
VERTEX
  8
0
  6
CONTINUOUS
 10
4.811400
 20
2.520320
  0
VERTEX
  8
0
  6
CONTINUOUS
 10
4.165040
 20
2.157320
  0
VERTEX
  8
0
  6
CONTINUOUS
 10
4.132040
 20
2.230800
  0
SEQEND
  8
0
  0
SOLID
  8
0
 62
    15
 10
4.165040
 20
2.157320
 11
4.811400
 21
2.520320
 12
4.202000
 22
2.091320
 13
4.848360
 23
2.454320
  0
POLYLINE
  8
0
  6
CONTINUOUS
 66
     1
 40
0.000000
 41
0.000000
  0
VERTEX
  8
0
  6
CONTINUOUS
 10
4.165040
 20
2.157320
  0
VERTEX
  8
0
  6
CONTINUOUS
 10
4.811400
 20
2.520320
  0
VERTEX
  8
0
  6
CONTINUOUS
 10
4.848360
 20
2.454320
  0
VERTEX
  8
0
  6
CONTINUOUS
 10
4.202000
 20
2.091320
  0
VERTEX
  8
0
  6
CONTINUOUS
 10
4.165040
 20
2.157320
  0
SEQEND
  8
0
  0
SOLID
  8
0
 62
    15
 10
4.202000
 20
2.091320
 11
4.848360
 21
2.454320
 12
4.241600
 22
2.032800
 13
4.887960
 23
2.395800
  0
POLYLINE
  8
0
  6
CONTINUOUS
 66
     1
 40
0.000000
 41
0.000000
  0
VERTEX
  8
0
  6
CONTINUOUS
 10
4.202000
 20
2.091320
  0
VERTEX
  8
0
  6
CONTINUOUS
 10
4.848360
 20
2.454320
  0
VERTEX
  8
0
  6
CONTINUOUS
 10
4.887960
 20
2.395800
  0
VERTEX
  8
0
  6
CONTINUOUS
 10
4.241600
 20
2.032800
  0
VERTEX
  8
0
  6
CONTINUOUS
 10
4.202000
 20
2.091320
  0
SEQEND
  8
0
  0
SOLID
  8
0
 62
    15
 10
4.241600
 20
2.032800
 11
4.887960
 21
2.395800
 12
4.283400
 22
1.981320
 13
4.929320
 23
2.344320
  0
POLYLINE
  8
0
  6
CONTINUOUS
 66
     1
 40
0.000000
 41
0.000000
  0
VERTEX
  8
0
  6
CONTINUOUS
 10
4.241600
 20
2.032800
  0
VERTEX
  8
0
  6
CONTINUOUS
 10
4.887960
 20
2.395800
  0
VERTEX
  8
0
  6
CONTINUOUS
 10
4.929320
 20
2.344320
  0
VERTEX
  8
0
  6
CONTINUOUS
 10
4.283400
 20
1.981320
  0
VERTEX
  8
0
  6
CONTINUOUS
 10
4.241600
 20
2.032800
  0
SEQEND
  8
0
  0
SOLID
  8
0
 62
    15
 10
4.283400
 20
1.981320
 11
4.929320
 21
2.344320
 12
4.324760
 22
1.936440
 13
4.971120
 23
2.299440
  0
POLYLINE
  8
0
  6
CONTINUOUS
 66
     1
 40
0.000000
 41
0.000000
  0
VERTEX
  8
0
  6
CONTINUOUS
 10
4.283400
 20
1.981320
  0
VERTEX
  8
0
  6
CONTINUOUS
 10
4.929320
 20
2.344320
  0
VERTEX
  8
0
  6
CONTINUOUS
 10
4.971120
 20
2.299440
  0
VERTEX
  8
0
  6
CONTINUOUS
 10
4.324760
 20
1.936440
  0
VERTEX
  8
0
  6
CONTINUOUS
 10
4.283400
 20
1.981320
  0
SEQEND
  8
0
  0
SOLID
  8
0
 62
    15
 10
4.324760
 20
1.936440
 11
4.971120
 21
2.299440
 12
4.365680
 22
1.897720
 13
5.012040
 23
2.260720
  0
POLYLINE
  8
0
  6
CONTINUOUS
 66
     1
 40
0.000000
 41
0.000000
  0
VERTEX
  8
0
  6
CONTINUOUS
 10
4.324760
 20
1.936440
  0
VERTEX
  8
0
  6
CONTINUOUS
 10
4.971120
 20
2.299440
  0
VERTEX
  8
0
  6
CONTINUOUS
 10
5.012040
 20
2.260720
  0
VERTEX
  8
0
  6
CONTINUOUS
 10
4.365680
 20
1.897720
  0
VERTEX
  8
0
  6
CONTINUOUS
 10
4.324760
 20
1.936440
  0
SEQEND
  8
0
  0
SOLID
  8
0
 62
    15
 10
4.365680
 20
1.897720
 11
5.012040
 21
2.260720
 12
4.404400
 22
1.865160
 13
5.050320
 23
2.228160
  0
POLYLINE
  8
0
  6
CONTINUOUS
 66
     1
 40
0.000000
 41
0.000000
  0
VERTEX
  8
0
  6
CONTINUOUS
 10
4.365680
 20
1.897720
  0
VERTEX
  8
0
  6
CONTINUOUS
 10
5.012040
 20
2.260720
  0
VERTEX
  8
0
  6
CONTINUOUS
 10
5.050320
 20
2.228160
  0
VERTEX
  8
0
  6
CONTINUOUS
 10
4.404400
 20
1.865160
  0
VERTEX
  8
0
  6
CONTINUOUS
 10
4.365680
 20
1.897720
  0
SEQEND
  8
0
  0
SOLID
  8
0
 62
    15
 10
4.404400
 20
1.865160
 11
5.050320
 21
2.228160
 12
4.439160
 22
1.837880
 13
5.085520
 23
2.200880
  0
POLYLINE
  8
0
  6
CONTINUOUS
 66
     1
 40
0.000000
 41
0.000000
  0
VERTEX
  8
0
  6
CONTINUOUS
 10
4.404400
 20
1.865160
  0
VERTEX
  8
0
  6
CONTINUOUS
 10
5.050320
 20
2.228160
  0
VERTEX
  8
0
  6
CONTINUOUS
 10
5.085520
 20
2.200880
  0
VERTEX
  8
0
  6
CONTINUOUS
 10
4.439160
 20
1.837880
  0
VERTEX
  8
0
  6
CONTINUOUS
 10
4.404400
 20
1.865160
  0
SEQEND
  8
0
  0
SOLID
  8
0
 62
    15
 10
4.439160
 20
1.837880
 11
5.085520
 21
2.200880
 12
4.469520
 22
1.815880
 13
5.115880
 23
2.178880
  0
POLYLINE
  8
0
  6
CONTINUOUS
 66
     1
 40
0.000000
 41
0.000000
  0
VERTEX
  8
0
  6
CONTINUOUS
 10
4.439160
 20
1.837880
  0
VERTEX
  8
0
  6
CONTINUOUS
 10
5.085520
 20
2.200880
  0
VERTEX
  8
0
  6
CONTINUOUS
 10
5.115880
 20
2.178880
  0
VERTEX
  8
0
  6
CONTINUOUS
 10
4.469520
 20
1.815880
  0
VERTEX
  8
0
  6
CONTINUOUS
 10
4.439160
 20
1.837880
  0
SEQEND
  8
0
  0
SOLID
  8
0
 62
    15
 10
4.469520
 20
1.815880
 11
5.115880
 21
2.178880
 12
4.493720
 22
1.798720
 13
5.140080
 23
2.161720
  0
POLYLINE
  8
0
  6
CONTINUOUS
 66
     1
 40
0.000000
 41
0.000000
  0
VERTEX
  8
0
  6
CONTINUOUS
 10
4.469520
 20
1.815880
  0
VERTEX
  8
0
  6
CONTINUOUS
 10
5.115880
 20
2.178880
  0
VERTEX
  8
0
  6
CONTINUOUS
 10
5.140080
 20
2.161720
  0
VERTEX
  8
0
  6
CONTINUOUS
 10
4.493720
 20
1.798720
  0
VERTEX
  8
0
  6
CONTINUOUS
 10
4.469520
 20
1.815880
  0
SEQEND
  8
0
  0
SOLID
  8
0
 62
    15
 10
4.493720
 20
1.798720
 11
5.140080
 21
2.161720
 12
4.510880
 22
1.785960
 13
5.157240
 23
2.148960
  0
POLYLINE
  8
0
  6
CONTINUOUS
 66
     1
 40
0.000000
 41
0.000000
  0
VERTEX
  8
0
  6
CONTINUOUS
 10
4.493720
 20
1.798720
  0
VERTEX
  8
0
  6
CONTINUOUS
 10
5.140080
 20
2.161720
  0
VERTEX
  8
0
  6
CONTINUOUS
 10
5.157240
 20
2.148960
  0
VERTEX
  8
0
  6
CONTINUOUS
 10
4.510880
 20
1.785960
  0
VERTEX
  8
0
  6
CONTINUOUS
 10
4.493720
 20
1.798720
  0
SEQEND
  8
0
  0
SOLID
  8
0
 62
    15
 10
4.510880
 20
1.785960
 11
5.157240
 21
2.148960
 12
4.528480
 22
1.771000
 13
5.174400
 23
2.134000
  0
POLYLINE
  8
0
  6
CONTINUOUS
 66
     1
 40
0.000000
 41
0.000000
  0
VERTEX
  8
0
  6
CONTINUOUS
 10
4.510880
 20
1.785960
  0
VERTEX
  8
0
  6
CONTINUOUS
 10
5.157240
 20
2.148960
  0
VERTEX
  8
0
  6
CONTINUOUS
 10
5.174400
 20
2.134000
  0
VERTEX
  8
0
  6
CONTINUOUS
 10
4.528480
 20
1.771000
  0
VERTEX
  8
0
  6
CONTINUOUS
 10
4.510880
 20
1.785960
  0
SEQEND
  8
0
  0
SOLID
  8
0
 62
    15
 10
4.528480
 20
1.771000
 11
5.174400
 21
2.134000
 12
4.553560
 22
1.748560
 13
5.199920
 23
2.111560
  0
POLYLINE
  8
0
  6
CONTINUOUS
 66
     1
 40
0.000000
 41
0.000000
  0
VERTEX
  8
0
  6
CONTINUOUS
 10
4.528480
 20
1.771000
  0
VERTEX
  8
0
  6
CONTINUOUS
 10
5.174400
 20
2.134000
  0
VERTEX
  8
0
  6
CONTINUOUS
 10
5.199920
 20
2.111560
  0
VERTEX
  8
0
  6
CONTINUOUS
 10
4.553560
 20
1.748560
  0
VERTEX
  8
0
  6
CONTINUOUS
 10
4.528480
 20
1.771000
  0
SEQEND
  8
0
  0
SOLID
  8
0
 62
    15
 10
4.073960
 20
2.726680
 11
4.720320
 21
3.089680
 12
4.067360
 22
2.609200
 13
4.713280
 23
2.972200
  0
POLYLINE
  8
0
  6
CONTINUOUS
 66
     1
 40
0.000000
 41
0.000000
  0
VERTEX
  8
0
  6
CONTINUOUS
 10
4.073960
 20
2.726680
  0
VERTEX
  8
0
  6
CONTINUOUS
 10
4.720320
 20
3.089680
  0
VERTEX
  8
0
  6
CONTINUOUS
 10
4.713280
 20
2.972200
  0
VERTEX
  8
0
  6
CONTINUOUS
 10
4.067360
 20
2.609200
  0
VERTEX
  8
0
  6
CONTINUOUS
 10
4.073960
 20
2.726680
  0
SEQEND
  8
0
  0
SOLID
  8
0
 62
    15
 10
4.584800
 20
1.718640
 11
5.231160
 21
2.081640
 12
4.620000
 22
1.682120
 13
5.265920
 23
2.045120
  0
POLYLINE
  8
0
  6
CONTINUOUS
 66
     1
 40
0.000000
 41
0.000000
  0
VERTEX
  8
0
  6
CONTINUOUS
 10
4.584800
 20
1.718640
  0
VERTEX
  8
0
  6
CONTINUOUS
 10
5.231160
 20
2.081640
  0
VERTEX
  8
0
  6
CONTINUOUS
 10
5.265920
 20
2.045120
  0
VERTEX
  8
0
  6
CONTINUOUS
 10
4.620000
 20
1.682120
  0
VERTEX
  8
0
  6
CONTINUOUS
 10
4.584800
 20
1.718640
  0
SEQEND
  8
0
  0
SOLID
  8
0
 62
    15
 10
4.620000
 20
1.682120
 11
5.265920
 21
2.045120
 12
4.656960
 22
1.640320
 13
5.303320
 23
2.003320
  0
POLYLINE
  8
0
  6
CONTINUOUS
 66
     1
 40
0.000000
 41
0.000000
  0
VERTEX
  8
0
  6
CONTINUOUS
 10
4.620000
 20
1.682120
  0
VERTEX
  8
0
  6
CONTINUOUS
 10
5.265920
 20
2.045120
  0
VERTEX
  8
0
  6
CONTINUOUS
 10
5.303320
 20
2.003320
  0
VERTEX
  8
0
  6
CONTINUOUS
 10
4.656960
 20
1.640320
  0
VERTEX
  8
0
  6
CONTINUOUS
 10
4.620000
 20
1.682120
  0
SEQEND
  8
0
  0
SOLID
  8
0
 62
    15
 10
4.656960
 20
1.640320
 11
5.303320
 21
2.003320
 12
4.693920
 22
1.592800
 13
5.340280
 23
1.955800
  0
POLYLINE
  8
0
  6
CONTINUOUS
 66
     1
 40
0.000000
 41
0.000000
  0
VERTEX
  8
0
  6
CONTINUOUS
 10
4.656960
 20
1.640320
  0
VERTEX
  8
0
  6
CONTINUOUS
 10
5.303320
 20
2.003320
  0
VERTEX
  8
0
  6
CONTINUOUS
 10
5.340280
 20
1.955800
  0
VERTEX
  8
0
  6
CONTINUOUS
 10
4.693920
 20
1.592800
  0
VERTEX
  8
0
  6
CONTINUOUS
 10
4.656960
 20
1.640320
  0
SEQEND
  8
0
  0
SOLID
  8
0
 62
    15
 10
4.693920
 20
1.592800
 11
5.340280
 21
1.955800
 12
4.729120
 22
1.541320
 13
5.375480
 23
1.904320
  0
POLYLINE
  8
0
  6
CONTINUOUS
 66
     1
 40
0.000000
 41
0.000000
  0
VERTEX
  8
0
  6
CONTINUOUS
 10
4.693920
 20
1.592800
  0
VERTEX
  8
0
  6
CONTINUOUS
 10
5.340280
 20
1.955800
  0
VERTEX
  8
0
  6
CONTINUOUS
 10
5.375480
 20
1.904320
  0
VERTEX
  8
0
  6
CONTINUOUS
 10
4.729120
 20
1.541320
  0
VERTEX
  8
0
  6
CONTINUOUS
 10
4.693920
 20
1.592800
  0
SEQEND
  8
0
  0
SOLID
  8
0
 62
    15
 10
4.729120
 20
1.541320
 11
5.375480
 21
1.904320
 12
4.760360
 22
1.486320
 13
5.406720
 23
1.849320
  0
POLYLINE
  8
0
  6
CONTINUOUS
 66
     1
 40
0.000000
 41
0.000000
  0
VERTEX
  8
0
  6
CONTINUOUS
 10
4.729120
 20
1.541320
  0
VERTEX
  8
0
  6
CONTINUOUS
 10
5.375480
 20
1.904320
  0
VERTEX
  8
0
  6
CONTINUOUS
 10
5.406720
 20
1.849320
  0
VERTEX
  8
0
  6
CONTINUOUS
 10
4.760360
 20
1.486320
  0
VERTEX
  8
0
  6
CONTINUOUS
 10
4.729120
 20
1.541320
  0
SEQEND
  8
0
  0
SOLID
  8
0
 62
    15
 10
4.760360
 20
1.486320
 11
5.406720
 21
1.849320
 12
4.785880
 22
1.428240
 13
5.431800
 23
1.791240
  0
POLYLINE
  8
0
  6
CONTINUOUS
 66
     1
 40
0.000000
 41
0.000000
  0
VERTEX
  8
0
  6
CONTINUOUS
 10
4.760360
 20
1.486320
  0
VERTEX
  8
0
  6
CONTINUOUS
 10
5.406720
 20
1.849320
  0
VERTEX
  8
0
  6
CONTINUOUS
 10
5.431800
 20
1.791240
  0
VERTEX
  8
0
  6
CONTINUOUS
 10
4.785880
 20
1.428240
  0
VERTEX
  8
0
  6
CONTINUOUS
 10
4.760360
 20
1.486320
  0
SEQEND
  8
0
  0
SOLID
  8
0
 62
    15
 10
4.785880
 20
1.428240
 11
5.431800
 21
1.791240
 12
4.803040
 22
1.367960
 13
5.449400
 23
1.730960
  0
POLYLINE
  8
0
  6
CONTINUOUS
 66
     1
 40
0.000000
 41
0.000000
  0
VERTEX
  8
0
  6
CONTINUOUS
 10
4.785880
 20
1.428240
  0
VERTEX
  8
0
  6
CONTINUOUS
 10
5.431800
 20
1.791240
  0
VERTEX
  8
0
  6
CONTINUOUS
 10
5.449400
 20
1.730960
  0
VERTEX
  8
0
  6
CONTINUOUS
 10
4.803040
 20
1.367960
  0
VERTEX
  8
0
  6
CONTINUOUS
 10
4.785880
 20
1.428240
  0
SEQEND
  8
0
  0
SOLID
  8
0
 62
    15
 10
4.803040
 20
1.367960
 11
5.449400
 21
1.730960
 12
4.810960
 22
1.305920
 13
5.457320
 23
1.668920
  0
POLYLINE
  8
0
  6
CONTINUOUS
 66
     1
 40
0.000000
 41
0.000000
  0
VERTEX
  8
0
  6
CONTINUOUS
 10
4.803040
 20
1.367960
  0
VERTEX
  8
0
  6
CONTINUOUS
 10
5.449400
 20
1.730960
  0
VERTEX
  8
0
  6
CONTINUOUS
 10
5.457320
 20
1.668920
  0
VERTEX
  8
0
  6
CONTINUOUS
 10
4.810960
 20
1.305920
  0
VERTEX
  8
0
  6
CONTINUOUS
 10
4.803040
 20
1.367960
  0
SEQEND
  8
0
  0
SOLID
  8
0
 62
    15
 10
4.810960
 20
1.305920
 11
5.457320
 21
1.668920
 12
4.807000
 22
1.243440
 13
5.452920
 23
1.606440
  0
POLYLINE
  8
0
  6
CONTINUOUS
 66
     1
 40
0.000000
 41
0.000000
  0
VERTEX
  8
0
  6
CONTINUOUS
 10
4.810960
 20
1.305920
  0
VERTEX
  8
0
  6
CONTINUOUS
 10
5.457320
 20
1.668920
  0
VERTEX
  8
0
  6
CONTINUOUS
 10
5.452920
 20
1.606440
  0
VERTEX
  8
0
  6
CONTINUOUS
 10
4.807000
 20
1.243440
  0
VERTEX
  8
0
  6
CONTINUOUS
 10
4.810960
 20
1.305920
  0
SEQEND
  8
0
  0
SOLID
  8
0
 62
    15
 10
4.807000
 20
1.243440
 11
5.452920
 21
1.606440
 12
4.788960
 22
1.180520
 13
5.435320
 23
1.543520
  0
POLYLINE
  8
0
  6
CONTINUOUS
 66
     1
 40
0.000000
 41
0.000000
  0
VERTEX
  8
0
  6
CONTINUOUS
 10
4.807000
 20
1.243440
  0
VERTEX
  8
0
  6
CONTINUOUS
 10
5.452920
 20
1.606440
  0
VERTEX
  8
0
  6
CONTINUOUS
 10
5.435320
 20
1.543520
  0
VERTEX
  8
0
  6
CONTINUOUS
 10
4.788960
 20
1.180520
  0
VERTEX
  8
0
  6
CONTINUOUS
 10
4.807000
 20
1.243440
  0
SEQEND
  8
0
  0
SOLID
  8
0
 62
    15
 10
4.788960
 20
1.180520
 11
5.435320
 21
1.543520
 12
4.755520
 22
1.118040
 13
5.401880
 23
1.481040
  0
POLYLINE
  8
0
  6
CONTINUOUS
 66
     1
 40
0.000000
 41
0.000000
  0
VERTEX
  8
0
  6
CONTINUOUS
 10
4.788960
 20
1.180520
  0
VERTEX
  8
0
  6
CONTINUOUS
 10
5.435320
 20
1.543520
  0
VERTEX
  8
0
  6
CONTINUOUS
 10
5.401880
 20
1.481040
  0
VERTEX
  8
0
  6
CONTINUOUS
 10
4.755520
 20
1.118040
  0
VERTEX
  8
0
  6
CONTINUOUS
 10
4.788960
 20
1.180520
  0
SEQEND
  8
0
  0
SOLID
  8
0
 62
    15
 10
4.755520
 20
1.118040
 11
5.401880
 21
1.481040
 12
4.704480
 22
1.056880
 13
5.350840
 23
1.419880
  0
POLYLINE
  8
0
  6
CONTINUOUS
 66
     1
 40
0.000000
 41
0.000000
  0
VERTEX
  8
0
  6
CONTINUOUS
 10
4.755520
 20
1.118040
  0
VERTEX
  8
0
  6
CONTINUOUS
 10
5.401880
 20
1.481040
  0
VERTEX
  8
0
  6
CONTINUOUS
 10
5.350840
 20
1.419880
  0
VERTEX
  8
0
  6
CONTINUOUS
 10
4.704480
 20
1.056880
  0
VERTEX
  8
0
  6
CONTINUOUS
 10
4.755520
 20
1.118040
  0
SEQEND
  8
0
  0
SOLID
  8
0
 62
    15
 10
4.704480
 20
1.056880
 11
5.350840
 21
1.419880
 12
4.671920
 22
1.026960
 13
5.318280
 23
1.389960
  0
POLYLINE
  8
0
  6
CONTINUOUS
 66
     1
 40
0.000000
 41
0.000000
  0
VERTEX
  8
0
  6
CONTINUOUS
 10
4.704480
 20
1.056880
  0
VERTEX
  8
0
  6
CONTINUOUS
 10
5.350840
 20
1.419880
  0
VERTEX
  8
0
  6
CONTINUOUS
 10
5.318280
 20
1.389960
  0
VERTEX
  8
0
  6
CONTINUOUS
 10
4.671920
 20
1.026960
  0
VERTEX
  8
0
  6
CONTINUOUS
 10
4.704480
 20
1.056880
  0
SEQEND
  8
0
  0
SOLID
  8
0
 62
    15
 10
4.671920
 20
1.026960
 11
5.318280
 21
1.389960
 12
4.634080
 22
0.997920
 13
5.280000
 23
1.360920
  0
POLYLINE
  8
0
  6
CONTINUOUS
 66
     1
 40
0.000000
 41
0.000000
  0
VERTEX
  8
0
  6
CONTINUOUS
 10
4.671920
 20
1.026960
  0
VERTEX
  8
0
  6
CONTINUOUS
 10
5.318280
 20
1.389960
  0
VERTEX
  8
0
  6
CONTINUOUS
 10
5.280000
 20
1.360920
  0
VERTEX
  8
0
  6
CONTINUOUS
 10
4.634080
 20
0.997920
  0
VERTEX
  8
0
  6
CONTINUOUS
 10
4.671920
 20
1.026960
  0
SEQEND
  8
0
  0
SOLID
  8
0
 62
    15
 10
4.634080
 20
0.997920
 11
5.280000
 21
1.360920
 12
4.634080
 22
0.921360
 13
5.280000
 23
1.284360
  0
POLYLINE
  8
0
  6
CONTINUOUS
 66
     1
 40
0.000000
 41
0.000000
  0
VERTEX
  8
0
  6
CONTINUOUS
 10
4.634080
 20
0.997920
  0
VERTEX
  8
0
  6
CONTINUOUS
 10
5.280000
 20
1.360920
  0
VERTEX
  8
0
  6
CONTINUOUS
 10
5.280000
 20
1.284360
  0
VERTEX
  8
0
  6
CONTINUOUS
 10
4.634080
 20
0.921360
  0
VERTEX
  8
0
  6
CONTINUOUS
 10
4.634080
 20
0.997920
  0
SEQEND
  8
0
  0
SOLID
  8
0
 62
    15
 10
3.823600
 20
2.724040
 11
4.469520
 21
3.087040
 12
4.072200
 22
2.726680
 13
4.718560
 23
3.089680
  0
POLYLINE
  8
0
  6
CONTINUOUS
 66
     1
 40
0.000000
 41
0.000000
  0
VERTEX
  8
0
  6
CONTINUOUS
 10
3.823600
 20
2.724040
  0
VERTEX
  8
0
  6
CONTINUOUS
 10
4.469520
 20
3.087040
  0
VERTEX
  8
0
  6
CONTINUOUS
 10
4.718560
 20
3.089680
  0
VERTEX
  8
0
  6
CONTINUOUS
 10
4.072200
 20
2.726680
  0
VERTEX
  8
0
  6
CONTINUOUS
 10
3.823600
 20
2.724040
  0
SEQEND
  8
0
  0
SOLID
  8
0
 62
    15
 10
4.072200
 20
2.726680
 11
4.718560
 21
3.089680
 12
4.073960
 22
2.726680
 13
4.720320
 23
3.089680
  0
POLYLINE
  8
0
  6
CONTINUOUS
 66
     1
 40
0.000000
 41
0.000000
  0
VERTEX
  8
0
  6
CONTINUOUS
 10
4.072200
 20
2.726680
  0
VERTEX
  8
0
  6
CONTINUOUS
 10
4.718560
 20
3.089680
  0
VERTEX
  8
0
  6
CONTINUOUS
 10
4.720320
 20
3.089680
  0
VERTEX
  8
0
  6
CONTINUOUS
 10
4.073960
 20
2.726680
  0
VERTEX
  8
0
  6
CONTINUOUS
 10
4.072200
 20
2.726680
  0
SEQEND
  8
0
  0
POLYLINE
  8
0
  6
CONTINUOUS
 66
     1
 40
0.000000
 41
0.000000
  0
VERTEX
  8
0
  6
CONTINUOUS
 10
4.073960
 20
2.726680
  0
VERTEX
  8
0
  6
CONTINUOUS
 10
4.067360
 20
2.609200
  0
VERTEX
  8
0
  6
CONTINUOUS
 10
4.070880
 20
2.501400
  0
VERTEX
  8
0
  6
CONTINUOUS
 10
4.083640
 20
2.402400
  0
VERTEX
  8
0
  6
CONTINUOUS
 10
4.104760
 20
2.312640
  0
VERTEX
  8
0
  6
CONTINUOUS
 10
4.132040
 20
2.230800
  0
VERTEX
  8
0
  6
CONTINUOUS
 10
4.165040
 20
2.157320
  0
VERTEX
  8
0
  6
CONTINUOUS
 10
4.202000
 20
2.091320
  0
VERTEX
  8
0
  6
CONTINUOUS
 10
4.241600
 20
2.032800
  0
VERTEX
  8
0
  6
CONTINUOUS
 10
4.283400
 20
1.981320
  0
VERTEX
  8
0
  6
CONTINUOUS
 10
4.324760
 20
1.936440
  0
VERTEX
  8
0
  6
CONTINUOUS
 10
4.365680
 20
1.897720
  0
VERTEX
  8
0
  6
CONTINUOUS
 10
4.404400
 20
1.865160
  0
VERTEX
  8
0
  6
CONTINUOUS
 10
4.439160
 20
1.837880
  0
VERTEX
  8
0
  6
CONTINUOUS
 10
4.469520
 20
1.815880
  0
VERTEX
  8
0
  6
CONTINUOUS
 10
4.493720
 20
1.798720
  0
VERTEX
  8
0
  6
CONTINUOUS
 10
4.510880
 20
1.785960
  0
VERTEX
  8
0
  6
CONTINUOUS
 10
4.528480
 20
1.771000
  0
VERTEX
  8
0
  6
CONTINUOUS
 10
4.553560
 20
1.748560
  0
VERTEX
  8
0
  6
CONTINUOUS
 10
4.584800
 20
1.718640
  0
VERTEX
  8
0
  6
CONTINUOUS
 10
4.620000
 20
1.682120
  0
VERTEX
  8
0
  6
CONTINUOUS
 10
4.656960
 20
1.640320
  0
VERTEX
  8
0
  6
CONTINUOUS
 10
4.693920
 20
1.592800
  0
VERTEX
  8
0
  6
CONTINUOUS
 10
4.729120
 20
1.541320
  0
VERTEX
  8
0
  6
CONTINUOUS
 10
4.760360
 20
1.486320
  0
VERTEX
  8
0
  6
CONTINUOUS
 10
4.785880
 20
1.428240
  0
VERTEX
  8
0
  6
CONTINUOUS
 10
4.803040
 20
1.367960
  0
VERTEX
  8
0
  6
CONTINUOUS
 10
4.810960
 20
1.305920
  0
VERTEX
  8
0
  6
CONTINUOUS
 10
4.807000
 20
1.243440
  0
VERTEX
  8
0
  6
CONTINUOUS
 10
4.788960
 20
1.180520
  0
VERTEX
  8
0
  6
CONTINUOUS
 10
4.755520
 20
1.118040
  0
VERTEX
  8
0
  6
CONTINUOUS
 10
4.704480
 20
1.056880
  0
VERTEX
  8
0
  6
CONTINUOUS
 10
4.671920
 20
1.026960
  0
VERTEX
  8
0
  6
CONTINUOUS
 10
4.634080
 20
0.997920
  0
VERTEX
  8
0
  6
CONTINUOUS
 10
4.634080
 20
0.921360
  0
VERTEX
  8
0
  6
CONTINUOUS
 10
3.823600
 20
0.921360
  0
VERTEX
  8
0
  6
CONTINUOUS
 10
3.823600
 20
2.724040
  0
VERTEX
  8
0
  6
CONTINUOUS
 10
4.072200
 20
2.726680
  0
VERTEX
  8
0
  6
CONTINUOUS
 10
4.073960
 20
2.726680
  0
SEQEND
  8
0
  0
TEXT
  8
0
 10
4.342360
 20
0.684200
 40
0.138131
  1
BA  575
 41
1.000000
  7
SN0
 71
     0
 72
     5
 11
4.932615
 21
0.684200
  0
TEXT
  8
0
 10
4.163720
 20
0.492800
 40
0.138131
  1
1" x 1-13/16"
 41
1.000000
  7
SN0
 71
     0
 72
     5
 11
5.110983
 21
0.492800
  0
ENDSEC
  0
EOF
