  0
SECTION
  2
HEADER
  9
$ACADVER
  1
AC1006
  9
$EXTMIN
 10
3.256000
 20
0.528440
  9
$EXTMAX
 10
7.078720
 20
6.301240
  9
$LTSCALE
 40
0.044000
  9
$PDMODE
 70
    35
  9
$PDSIZE
 40
0.035200
  0
ENDSEC
  0
SECTION
  2
TABLES
  0
TABLE
  2
LTYPE
 70
     9
  0
LTYPE
  2
CONTINUOUS
 70
    64
  3
Solid line
 72
    65
 73
     0
 40
0.000000
  0
LTYPE
  2
DASHED
 70
    64
  3
__ __ __ __ __ __ __ __ __ __ __ __ __ __ __
 72
    65
 73
     2
 40
0.000330
 49
0.000220
 49
-0.000110
  0
LTYPE
  2
HIDDEN
 70
    64
  3
 _ _ _ _ _ _ _ _ _ _ _ _ _ _ _ _ _ _ _ _ _ _
 72
    65
 73
     2
 40
0.000165
 49
0.000110
 49
-0.000055
  0
LTYPE
  2
CENTER
 70
    64
  3
____ _ ____ _ ____ _ ____ _ ____ _ ____ _ ____
 72
    65
 73
     4
 40
0.000880
 49
0.000550
 49
-0.000110
 49
0.000110
 49
-0.000110
  0
LTYPE
  2
PHANTOM
 70
    64
  3
_____ _ _ _____ _ _ _____ _ _ _____ _ _ ____
 72
    65
 73
     6
 40
0.001100
 49
0.000550
 49
-0.000110
 49
0.000110
 49
-0.000110
 49
0.000110
 49
-0.000110
  0
LTYPE
  2
DOT
 70
    64
  3
...............................................
 72
    65
 73
     2
 40
0.000110
 49
0.000000
 49
-0.000110
  0
LTYPE
  2
DASHDOT
 70
    64
  3
__ . __ . __ . __ . __ . __ . __ . __ . __ . __
 72
    65
 73
     4
 40
0.000440
 49
0.000220
 49
-0.000110
 49
0.000000
 49
-0.000110
  0
LTYPE
  2
BORDER
 70
    64
  3
__ __ . __ __ . __ __ . __ __ . __ __ . __ __
 72
    65
 73
     6
 40
0.000770
 49
0.000220
 49
-0.000110
 49
0.000220
 49
-0.000110
 49
0.000000
 49
-0.000110
  0
LTYPE
  2
DIVIDE
 70
    64
  3
__ . . __ . . __ . . __ . . __ . . __ . . __
 72
    65
 73
     6
 40
0.000550
 49
0.000220
 49
-0.000110
 49
0.000000
 49
-0.000110
 49
0.000000
 49
-0.000110
  0
LTYPE
  2
DOTDOT
 70
    64
  3
 . .  . .  . .  . .  . .  . . 
 72
    65
 73
     5
 40
0.000242
 49
-0.000110
 49
0.000000
 49
-0.000110
 49
0.000000
 49
-0.000110
  0
ENDTAB
  0
TABLE
  2
STYLE
 70
     2
  0
STYLE
 70
     0
  2
SN0
 40
0.000000
 41
0.000440
 50
0.000000
 71
     0
 42
0.000000
  3
ROMAND
  0
STYLE
 70
    68
  2
SV0
 40
0.000000
 41
0.000440
 50
0.000000
 71
     0
 42
0.000000
  3
ROMAND
  0
ENDTAB
  0
TABLE
  2
LAYER
 70
     3
  0
LAYER
  2
FOREGROUND
 70
    64
 62
     7
  6
CONTINUOUS
  0
LAYER
  2
BACKGROUND
 70
    65
 62
    -7
  6
CONTINUOUS
  0
LAYER
  2
0
 70
    64
 62
     7
  6
CONTINUOUS
  0
ENDTAB
  0
ENDSEC
  0
SECTION
  2
ENTITIES
  0
POLYLINE
  8
FOREGROUND
  6
CONTINUOUS
 66
     1
 40
0.000000
 41
0.000000
  0
VERTEX
  8
FOREGROUND
  6
CONTINUOUS
 10
0.000000
 20
6.829680
  0
VERTEX
  8
FOREGROUND
  6
CONTINUOUS
 10
8.499920
 20
6.829680
  0
VERTEX
  8
FOREGROUND
  6
CONTINUOUS
 10
8.499920
 20
-4.170320
  0
VERTEX
  8
FOREGROUND
  6
CONTINUOUS
 10
0.000000
 20
-4.170320
  0
VERTEX
  8
FOREGROUND
  6
CONTINUOUS
 10
0.000000
 20
6.829680
  0
SEQEND
  8
0
  0
POLYLINE
  8
FOREGROUND
  6
CONTINUOUS
 66
     1
 40
0.000000
 41
0.000000
  0
VERTEX
  8
FOREGROUND
  6
CONTINUOUS
 10
0.000000
 20
6.829680
  0
VERTEX
  8
FOREGROUND
  6
CONTINUOUS
 10
8.499920
 20
6.829680
  0
VERTEX
  8
FOREGROUND
  6
CONTINUOUS
 10
8.499920
 20
-4.170320
  0
VERTEX
  8
FOREGROUND
  6
CONTINUOUS
 10
0.000000
 20
-4.170320
  0
VERTEX
  8
FOREGROUND
  6
CONTINUOUS
 10
0.000000
 20
6.829680
  0
SEQEND
  8
0
  0
POLYLINE
  8
0
  6
CONTINUOUS
 66
     1
 40
0.014080
 41
0.014080
  0
VERTEX
  8
0
  6
CONTINUOUS
 10
7.069040
 20
5.797000
  0
VERTEX
  8
0
  6
CONTINUOUS
 10
7.069920
 20
5.792600
  0
VERTEX
  8
0
  6
CONTINUOUS
 10
3.263920
 20
5.793480
  0
VERTEX
  8
0
  6
CONTINUOUS
 10
3.263920
 20
6.293320
  0
VERTEX
  8
0
  6
CONTINUOUS
 10
6.628600
 20
6.293320
  0
VERTEX
  8
0
  6
CONTINUOUS
 10
6.628600
 20
6.221160
  0
VERTEX
  8
0
  6
CONTINUOUS
 10
6.682720
 20
6.211040
  0
VERTEX
  8
0
  6
CONTINUOUS
 10
6.728480
 20
6.197400
  0
VERTEX
  8
0
  6
CONTINUOUS
 10
6.759720
 20
6.182880
  0
VERTEX
  8
0
  6
CONTINUOUS
 10
6.784360
 20
6.164840
  0
VERTEX
  8
0
  6
CONTINUOUS
 10
6.798880
 20
6.148560
  0
VERTEX
  8
0
  6
CONTINUOUS
 10
6.811200
 20
6.127440
  0
VERTEX
  8
0
  6
CONTINUOUS
 10
6.823080
 20
6.096640
  0
VERTEX
  8
0
  6
CONTINUOUS
 10
6.839800
 20
6.050000
  0
VERTEX
  8
0
  6
CONTINUOUS
 10
6.856960
 20
6.017880
  0
VERTEX
  8
0
  6
CONTINUOUS
 10
6.878080
 20
5.990160
  0
VERTEX
  8
0
  6
CONTINUOUS
 10
6.910640
 20
5.958480
  0
VERTEX
  8
0
  6
CONTINUOUS
 10
6.944080
 20
5.934280
  0
VERTEX
  8
0
  6
CONTINUOUS
 10
6.977080
 20
5.916680
  0
VERTEX
  8
0
  6
CONTINUOUS
 10
7.018000
 20
5.901280
  0
VERTEX
  8
0
  6
CONTINUOUS
 10
7.051440
 20
5.892920
  0
VERTEX
  8
0
  6
CONTINUOUS
 10
7.069040
 20
5.890720
  0
VERTEX
  8
0
  6
CONTINUOUS
 10
7.069040
 20
5.796560
  0
SEQEND
  8
0
  0
SOLID
  8
0
 62
    15
 10
5.837920
 20
4.611640
 11
6.479000
 21
4.986520
 12
5.870480
 22
4.600640
 13
6.511560
 23
4.975520
  0
POLYLINE
  8
0
  6
CONTINUOUS
 66
     1
 40
0.000000
 41
0.000000
  0
VERTEX
  8
0
  6
CONTINUOUS
 10
5.837920
 20
4.611640
  0
VERTEX
  8
0
  6
CONTINUOUS
 10
6.479000
 20
4.986520
  0
VERTEX
  8
0
  6
CONTINUOUS
 10
6.511560
 20
4.975520
  0
VERTEX
  8
0
  6
CONTINUOUS
 10
5.870480
 20
4.600640
  0
VERTEX
  8
0
  6
CONTINUOUS
 10
5.837920
 20
4.611640
  0
SEQEND
  8
0
  0
SOLID
  8
0
 62
    15
 10
5.657080
 20
4.848800
 11
6.298160
 21
5.223680
 12
5.657080
 22
4.847480
 13
6.298160
 23
5.222800
  0
POLYLINE
  8
0
  6
CONTINUOUS
 66
     1
 40
0.000000
 41
0.000000
  0
VERTEX
  8
0
  6
CONTINUOUS
 10
5.657080
 20
4.848800
  0
VERTEX
  8
0
  6
CONTINUOUS
 10
6.298160
 20
5.223680
  0
VERTEX
  8
0
  6
CONTINUOUS
 10
6.298160
 20
5.222800
  0
VERTEX
  8
0
  6
CONTINUOUS
 10
5.657080
 20
4.847480
  0
VERTEX
  8
0
  6
CONTINUOUS
 10
5.657080
 20
4.848800
  0
SEQEND
  8
0
  0
SOLID
  8
0
 62
    15
 10
5.657080
 20
4.847480
 11
6.298160
 21
5.222800
 12
5.657520
 22
4.843520
 13
6.298600
 23
5.218840
  0
POLYLINE
  8
0
  6
CONTINUOUS
 66
     1
 40
0.000000
 41
0.000000
  0
VERTEX
  8
0
  6
CONTINUOUS
 10
5.657080
 20
4.847480
  0
VERTEX
  8
0
  6
CONTINUOUS
 10
6.298160
 20
5.222800
  0
VERTEX
  8
0
  6
CONTINUOUS
 10
6.298600
 20
5.218840
  0
VERTEX
  8
0
  6
CONTINUOUS
 10
5.657520
 20
4.843520
  0
VERTEX
  8
0
  6
CONTINUOUS
 10
5.657080
 20
4.847480
  0
SEQEND
  8
0
  0
SOLID
  8
0
 62
    15
 10
5.657520
 20
4.843520
 11
6.298600
 21
5.218840
 12
5.659720
 22
4.829440
 13
6.300800
 23
5.204320
  0
POLYLINE
  8
0
  6
CONTINUOUS
 66
     1
 40
0.000000
 41
0.000000
  0
VERTEX
  8
0
  6
CONTINUOUS
 10
5.657520
 20
4.843520
  0
VERTEX
  8
0
  6
CONTINUOUS
 10
6.298600
 20
5.218840
  0
VERTEX
  8
0
  6
CONTINUOUS
 10
6.300800
 20
5.204320
  0
VERTEX
  8
0
  6
CONTINUOUS
 10
5.659720
 20
4.829440
  0
VERTEX
  8
0
  6
CONTINUOUS
 10
5.657520
 20
4.843520
  0
SEQEND
  8
0
  0
SOLID
  8
0
 62
    15
 10
5.659720
 20
4.829440
 11
6.300800
 21
5.204320
 12
5.664560
 22
4.807880
 13
6.305640
 23
5.182760
  0
POLYLINE
  8
0
  6
CONTINUOUS
 66
     1
 40
0.000000
 41
0.000000
  0
VERTEX
  8
0
  6
CONTINUOUS
 10
5.659720
 20
4.829440
  0
VERTEX
  8
0
  6
CONTINUOUS
 10
6.300800
 20
5.204320
  0
VERTEX
  8
0
  6
CONTINUOUS
 10
6.305640
 20
5.182760
  0
VERTEX
  8
0
  6
CONTINUOUS
 10
5.664560
 20
4.807880
  0
VERTEX
  8
0
  6
CONTINUOUS
 10
5.659720
 20
4.829440
  0
SEQEND
  8
0
  0
SOLID
  8
0
 62
    15
 10
5.664560
 20
4.807880
 11
6.305640
 21
5.182760
 12
5.673360
 22
4.780160
 13
6.314440
 23
5.155480
  0
POLYLINE
  8
0
  6
CONTINUOUS
 66
     1
 40
0.000000
 41
0.000000
  0
VERTEX
  8
0
  6
CONTINUOUS
 10
5.664560
 20
4.807880
  0
VERTEX
  8
0
  6
CONTINUOUS
 10
6.305640
 20
5.182760
  0
VERTEX
  8
0
  6
CONTINUOUS
 10
6.314440
 20
5.155480
  0
VERTEX
  8
0
  6
CONTINUOUS
 10
5.673360
 20
4.780160
  0
VERTEX
  8
0
  6
CONTINUOUS
 10
5.664560
 20
4.807880
  0
SEQEND
  8
0
  0
SOLID
  8
0
 62
    15
 10
5.673360
 20
4.780160
 11
6.314440
 21
5.155480
 12
5.686560
 22
4.748920
 13
6.327640
 23
5.124240
  0
POLYLINE
  8
0
  6
CONTINUOUS
 66
     1
 40
0.000000
 41
0.000000
  0
VERTEX
  8
0
  6
CONTINUOUS
 10
5.673360
 20
4.780160
  0
VERTEX
  8
0
  6
CONTINUOUS
 10
6.314440
 20
5.155480
  0
VERTEX
  8
0
  6
CONTINUOUS
 10
6.327640
 20
5.124240
  0
VERTEX
  8
0
  6
CONTINUOUS
 10
5.686560
 20
4.748920
  0
VERTEX
  8
0
  6
CONTINUOUS
 10
5.673360
 20
4.780160
  0
SEQEND
  8
0
  0
SOLID
  8
0
 62
    15
 10
5.686560
 20
4.748920
 11
6.327640
 21
5.124240
 12
5.705920
 22
4.715920
 13
6.347000
 23
5.090800
  0
POLYLINE
  8
0
  6
CONTINUOUS
 66
     1
 40
0.000000
 41
0.000000
  0
VERTEX
  8
0
  6
CONTINUOUS
 10
5.686560
 20
4.748920
  0
VERTEX
  8
0
  6
CONTINUOUS
 10
6.327640
 20
5.124240
  0
VERTEX
  8
0
  6
CONTINUOUS
 10
6.347000
 20
5.090800
  0
VERTEX
  8
0
  6
CONTINUOUS
 10
5.705920
 20
4.715920
  0
VERTEX
  8
0
  6
CONTINUOUS
 10
5.686560
 20
4.748920
  0
SEQEND
  8
0
  0
SOLID
  8
0
 62
    15
 10
5.705920
 20
4.715920
 11
6.347000
 21
5.090800
 12
5.731880
 22
4.682480
 13
6.372960
 23
5.057360
  0
POLYLINE
  8
0
  6
CONTINUOUS
 66
     1
 40
0.000000
 41
0.000000
  0
VERTEX
  8
0
  6
CONTINUOUS
 10
5.705920
 20
4.715920
  0
VERTEX
  8
0
  6
CONTINUOUS
 10
6.347000
 20
5.090800
  0
VERTEX
  8
0
  6
CONTINUOUS
 10
6.372960
 20
5.057360
  0
VERTEX
  8
0
  6
CONTINUOUS
 10
5.731880
 20
4.682480
  0
VERTEX
  8
0
  6
CONTINUOUS
 10
5.705920
 20
4.715920
  0
SEQEND
  8
0
  0
SOLID
  8
0
 62
    15
 10
5.731880
 20
4.682480
 11
6.372960
 21
5.057360
 12
5.765320
 22
4.650360
 13
6.406400
 23
5.025680
  0
POLYLINE
  8
0
  6
CONTINUOUS
 66
     1
 40
0.000000
 41
0.000000
  0
VERTEX
  8
0
  6
CONTINUOUS
 10
5.731880
 20
4.682480
  0
VERTEX
  8
0
  6
CONTINUOUS
 10
6.372960
 20
5.057360
  0
VERTEX
  8
0
  6
CONTINUOUS
 10
6.406400
 20
5.025680
  0
VERTEX
  8
0
  6
CONTINUOUS
 10
5.765320
 20
4.650360
  0
VERTEX
  8
0
  6
CONTINUOUS
 10
5.731880
 20
4.682480
  0
SEQEND
  8
0
  0
SOLID
  8
0
 62
    15
 10
5.765320
 20
4.650360
 11
6.406400
 21
5.025680
 12
5.784240
 22
4.637160
 13
6.425320
 23
5.012040
  0
POLYLINE
  8
0
  6
CONTINUOUS
 66
     1
 40
0.000000
 41
0.000000
  0
VERTEX
  8
0
  6
CONTINUOUS
 10
5.765320
 20
4.650360
  0
VERTEX
  8
0
  6
CONTINUOUS
 10
6.406400
 20
5.025680
  0
VERTEX
  8
0
  6
CONTINUOUS
 10
6.425320
 20
5.012040
  0
VERTEX
  8
0
  6
CONTINUOUS
 10
5.784240
 20
4.637160
  0
VERTEX
  8
0
  6
CONTINUOUS
 10
5.765320
 20
4.650360
  0
SEQEND
  8
0
  0
SOLID
  8
0
 62
    15
 10
5.784240
 20
4.637160
 11
6.425320
 21
5.012040
 12
5.802720
 22
4.626600
 13
6.443800
 23
5.001480
  0
POLYLINE
  8
0
  6
CONTINUOUS
 66
     1
 40
0.000000
 41
0.000000
  0
VERTEX
  8
0
  6
CONTINUOUS
 10
5.784240
 20
4.637160
  0
VERTEX
  8
0
  6
CONTINUOUS
 10
6.425320
 20
5.012040
  0
VERTEX
  8
0
  6
CONTINUOUS
 10
6.443800
 20
5.001480
  0
VERTEX
  8
0
  6
CONTINUOUS
 10
5.802720
 20
4.626600
  0
VERTEX
  8
0
  6
CONTINUOUS
 10
5.784240
 20
4.637160
  0
SEQEND
  8
0
  0
SOLID
  8
0
 62
    15
 10
5.802720
 20
4.626600
 11
6.443800
 21
5.001480
 12
5.837920
 22
4.611640
 13
6.479000
 23
4.986520
  0
POLYLINE
  8
0
  6
CONTINUOUS
 66
     1
 40
0.000000
 41
0.000000
  0
VERTEX
  8
0
  6
CONTINUOUS
 10
5.802720
 20
4.626600
  0
VERTEX
  8
0
  6
CONTINUOUS
 10
6.443800
 20
5.001480
  0
VERTEX
  8
0
  6
CONTINUOUS
 10
6.479000
 20
4.986520
  0
VERTEX
  8
0
  6
CONTINUOUS
 10
5.837920
 20
4.611640
  0
VERTEX
  8
0
  6
CONTINUOUS
 10
5.802720
 20
4.626600
  0
SEQEND
  8
0
  0
SOLID
  8
0
 62
    15
 10
5.562920
 20
4.848800
 11
6.204000
 21
5.223680
 12
5.657080
 22
4.848800
 13
6.298160
 23
5.223680
  0
POLYLINE
  8
0
  6
CONTINUOUS
 66
     1
 40
0.000000
 41
0.000000
  0
VERTEX
  8
0
  6
CONTINUOUS
 10
5.562920
 20
4.848800
  0
VERTEX
  8
0
  6
CONTINUOUS
 10
6.204000
 20
5.223680
  0
VERTEX
  8
0
  6
CONTINUOUS
 10
6.298160
 20
5.223680
  0
VERTEX
  8
0
  6
CONTINUOUS
 10
5.657080
 20
4.848800
  0
VERTEX
  8
0
  6
CONTINUOUS
 10
5.562920
 20
4.848800
  0
SEQEND
  8
0
  0
SOLID
  8
0
 62
    15
 10
5.870480
 20
4.600640
 11
6.511560
 21
4.975520
 12
5.900840
 22
4.587880
 13
6.541920
 23
4.962760
  0
POLYLINE
  8
0
  6
CONTINUOUS
 66
     1
 40
0.000000
 41
0.000000
  0
VERTEX
  8
0
  6
CONTINUOUS
 10
5.870480
 20
4.600640
  0
VERTEX
  8
0
  6
CONTINUOUS
 10
6.511560
 20
4.975520
  0
VERTEX
  8
0
  6
CONTINUOUS
 10
6.541920
 20
4.962760
  0
VERTEX
  8
0
  6
CONTINUOUS
 10
5.900840
 20
4.587880
  0
VERTEX
  8
0
  6
CONTINUOUS
 10
5.870480
 20
4.600640
  0
SEQEND
  8
0
  0
SOLID
  8
0
 62
    15
 10
5.900840
 20
4.587880
 11
6.541920
 21
4.962760
 12
5.914920
 22
4.579080
 13
6.556000
 23
4.953960
  0
POLYLINE
  8
0
  6
CONTINUOUS
 66
     1
 40
0.000000
 41
0.000000
  0
VERTEX
  8
0
  6
CONTINUOUS
 10
5.900840
 20
4.587880
  0
VERTEX
  8
0
  6
CONTINUOUS
 10
6.541920
 20
4.962760
  0
VERTEX
  8
0
  6
CONTINUOUS
 10
6.556000
 20
4.953960
  0
VERTEX
  8
0
  6
CONTINUOUS
 10
5.914920
 20
4.579080
  0
VERTEX
  8
0
  6
CONTINUOUS
 10
5.900840
 20
4.587880
  0
SEQEND
  8
0
  0
SOLID
  8
0
 62
    15
 10
5.914920
 20
4.579080
 11
6.556000
 21
4.953960
 12
5.928120
 22
4.567640
 13
6.569200
 23
4.942520
  0
POLYLINE
  8
0
  6
CONTINUOUS
 66
     1
 40
0.000000
 41
0.000000
  0
VERTEX
  8
0
  6
CONTINUOUS
 10
5.914920
 20
4.579080
  0
VERTEX
  8
0
  6
CONTINUOUS
 10
6.556000
 20
4.953960
  0
VERTEX
  8
0
  6
CONTINUOUS
 10
6.569200
 20
4.942520
  0
VERTEX
  8
0
  6
CONTINUOUS
 10
5.928120
 20
4.567640
  0
VERTEX
  8
0
  6
CONTINUOUS
 10
5.914920
 20
4.579080
  0
SEQEND
  8
0
  0
SOLID
  8
0
 62
    15
 10
5.928120
 20
4.567640
 11
6.569200
 21
4.942520
 12
5.940440
 22
4.553120
 13
6.581520
 23
4.928000
  0
POLYLINE
  8
0
  6
CONTINUOUS
 66
     1
 40
0.000000
 41
0.000000
  0
VERTEX
  8
0
  6
CONTINUOUS
 10
5.928120
 20
4.567640
  0
VERTEX
  8
0
  6
CONTINUOUS
 10
6.569200
 20
4.942520
  0
VERTEX
  8
0
  6
CONTINUOUS
 10
6.581520
 20
4.928000
  0
VERTEX
  8
0
  6
CONTINUOUS
 10
5.940440
 20
4.553120
  0
VERTEX
  8
0
  6
CONTINUOUS
 10
5.928120
 20
4.567640
  0
SEQEND
  8
0
  0
SOLID
  8
0
 62
    15
 10
5.940440
 20
4.553120
 11
6.581520
 21
4.928000
 12
5.951880
 22
4.534640
 13
6.592960
 23
4.909520
  0
POLYLINE
  8
0
  6
CONTINUOUS
 66
     1
 40
0.000000
 41
0.000000
  0
VERTEX
  8
0
  6
CONTINUOUS
 10
5.940440
 20
4.553120
  0
VERTEX
  8
0
  6
CONTINUOUS
 10
6.581520
 20
4.928000
  0
VERTEX
  8
0
  6
CONTINUOUS
 10
6.592960
 20
4.909520
  0
VERTEX
  8
0
  6
CONTINUOUS
 10
5.951880
 20
4.534640
  0
VERTEX
  8
0
  6
CONTINUOUS
 10
5.940440
 20
4.553120
  0
SEQEND
  8
0
  0
SOLID
  8
0
 62
    15
 10
5.951880
 20
4.534640
 11
6.592960
 21
4.909520
 12
5.962000
 22
4.511760
 13
6.603080
 23
4.886640
  0
POLYLINE
  8
0
  6
CONTINUOUS
 66
     1
 40
0.000000
 41
0.000000
  0
VERTEX
  8
0
  6
CONTINUOUS
 10
5.951880
 20
4.534640
  0
VERTEX
  8
0
  6
CONTINUOUS
 10
6.592960
 20
4.909520
  0
VERTEX
  8
0
  6
CONTINUOUS
 10
6.603080
 20
4.886640
  0
VERTEX
  8
0
  6
CONTINUOUS
 10
5.962000
 20
4.511760
  0
VERTEX
  8
0
  6
CONTINUOUS
 10
5.951880
 20
4.534640
  0
SEQEND
  8
0
  0
SOLID
  8
0
 62
    15
 10
5.962000
 20
4.511760
 11
6.603080
 21
4.886640
 12
5.971680
 22
4.483600
 13
6.612760
 23
4.858480
  0
POLYLINE
  8
0
  6
CONTINUOUS
 66
     1
 40
0.000000
 41
0.000000
  0
VERTEX
  8
0
  6
CONTINUOUS
 10
5.962000
 20
4.511760
  0
VERTEX
  8
0
  6
CONTINUOUS
 10
6.603080
 20
4.886640
  0
VERTEX
  8
0
  6
CONTINUOUS
 10
6.612760
 20
4.858480
  0
VERTEX
  8
0
  6
CONTINUOUS
 10
5.971680
 20
4.483600
  0
VERTEX
  8
0
  6
CONTINUOUS
 10
5.962000
 20
4.511760
  0
SEQEND
  8
0
  0
SOLID
  8
0
 62
    15
 10
5.971680
 20
4.483600
 11
6.612760
 21
4.858480
 12
5.980040
 22
4.449280
 13
6.621120
 23
4.824600
  0
POLYLINE
  8
0
  6
CONTINUOUS
 66
     1
 40
0.000000
 41
0.000000
  0
VERTEX
  8
0
  6
CONTINUOUS
 10
5.971680
 20
4.483600
  0
VERTEX
  8
0
  6
CONTINUOUS
 10
6.612760
 20
4.858480
  0
VERTEX
  8
0
  6
CONTINUOUS
 10
6.621120
 20
4.824600
  0
VERTEX
  8
0
  6
CONTINUOUS
 10
5.980040
 20
4.449280
  0
VERTEX
  8
0
  6
CONTINUOUS
 10
5.971680
 20
4.483600
  0
SEQEND
  8
0
  0
SOLID
  8
0
 62
    15
 10
5.980040
 20
4.449280
 11
6.621120
 21
4.824600
 12
5.987520
 22
4.408360
 13
6.628600
 23
4.783680
  0
POLYLINE
  8
0
  6
CONTINUOUS
 66
     1
 40
0.000000
 41
0.000000
  0
VERTEX
  8
0
  6
CONTINUOUS
 10
5.980040
 20
4.449280
  0
VERTEX
  8
0
  6
CONTINUOUS
 10
6.621120
 20
4.824600
  0
VERTEX
  8
0
  6
CONTINUOUS
 10
6.628600
 20
4.783680
  0
VERTEX
  8
0
  6
CONTINUOUS
 10
5.987520
 20
4.408360
  0
VERTEX
  8
0
  6
CONTINUOUS
 10
5.980040
 20
4.449280
  0
SEQEND
  8
0
  0
SOLID
  8
0
 62
    15
 10
5.987520
 20
4.408360
 11
6.628600
 21
4.783680
 12
6.059680
 22
4.408360
 13
6.700760
 23
4.783680
  0
POLYLINE
  8
0
  6
CONTINUOUS
 66
     1
 40
0.000000
 41
0.000000
  0
VERTEX
  8
0
  6
CONTINUOUS
 10
5.987520
 20
4.408360
  0
VERTEX
  8
0
  6
CONTINUOUS
 10
6.628600
 20
4.783680
  0
VERTEX
  8
0
  6
CONTINUOUS
 10
6.700760
 20
4.783680
  0
VERTEX
  8
0
  6
CONTINUOUS
 10
6.059680
 20
4.408360
  0
VERTEX
  8
0
  6
CONTINUOUS
 10
5.987520
 20
4.408360
  0
SEQEND
  8
0
  0
SOLID
  8
0
 62
    15
 10
6.059680
 20
4.408360
 11
6.700760
 21
4.783680
 12
6.059680
 22
1.043680
 13
6.700760
 23
1.418560
  0
POLYLINE
  8
0
  6
CONTINUOUS
 66
     1
 40
0.000000
 41
0.000000
  0
VERTEX
  8
0
  6
CONTINUOUS
 10
6.059680
 20
4.408360
  0
VERTEX
  8
0
  6
CONTINUOUS
 10
6.700760
 20
4.783680
  0
VERTEX
  8
0
  6
CONTINUOUS
 10
6.700760
 20
1.418560
  0
VERTEX
  8
0
  6
CONTINUOUS
 10
6.059680
 20
1.043680
  0
VERTEX
  8
0
  6
CONTINUOUS
 10
6.059680
 20
4.408360
  0
SEQEND
  8
0
  0
SOLID
  8
0
 62
    15
 10
5.558960
 20
4.849680
 11
6.200040
 21
5.225000
 12
5.563360
 22
4.848800
 13
6.204440
 23
5.223680
  0
POLYLINE
  8
0
  6
CONTINUOUS
 66
     1
 40
0.000000
 41
0.000000
  0
VERTEX
  8
0
  6
CONTINUOUS
 10
5.558960
 20
4.849680
  0
VERTEX
  8
0
  6
CONTINUOUS
 10
6.200040
 20
5.225000
  0
VERTEX
  8
0
  6
CONTINUOUS
 10
6.204440
 20
5.223680
  0
VERTEX
  8
0
  6
CONTINUOUS
 10
5.563360
 20
4.848800
  0
VERTEX
  8
0
  6
CONTINUOUS
 10
5.558960
 20
4.849680
  0
SEQEND
  8
0
  0
POLYLINE
  8
0
  6
CONTINUOUS
 66
     1
 40
0.000000
 41
0.000000
  0
VERTEX
  8
0
  6
CONTINUOUS
 10
5.562920
 20
4.848800
  0
VERTEX
  8
0
  6
CONTINUOUS
 10
5.657080
 20
4.848800
  0
VERTEX
  8
0
  6
CONTINUOUS
 10
5.657080
 20
4.847480
  0
VERTEX
  8
0
  6
CONTINUOUS
 10
5.657520
 20
4.843520
  0
VERTEX
  8
0
  6
CONTINUOUS
 10
5.659720
 20
4.829440
  0
VERTEX
  8
0
  6
CONTINUOUS
 10
5.664560
 20
4.807880
  0
VERTEX
  8
0
  6
CONTINUOUS
 10
5.673360
 20
4.780160
  0
VERTEX
  8
0
  6
CONTINUOUS
 10
5.686560
 20
4.748920
  0
VERTEX
  8
0
  6
CONTINUOUS
 10
5.705920
 20
4.715920
  0
VERTEX
  8
0
  6
CONTINUOUS
 10
5.731880
 20
4.682480
  0
VERTEX
  8
0
  6
CONTINUOUS
 10
5.765320
 20
4.650360
  0
VERTEX
  8
0
  6
CONTINUOUS
 10
5.784240
 20
4.637160
  0
VERTEX
  8
0
  6
CONTINUOUS
 10
5.802720
 20
4.626600
  0
VERTEX
  8
0
  6
CONTINUOUS
 10
5.837920
 20
4.611640
  0
VERTEX
  8
0
  6
CONTINUOUS
 10
5.870480
 20
4.600640
  0
VERTEX
  8
0
  6
CONTINUOUS
 10
5.900840
 20
4.587880
  0
VERTEX
  8
0
  6
CONTINUOUS
 10
5.914920
 20
4.579080
  0
VERTEX
  8
0
  6
CONTINUOUS
 10
5.928120
 20
4.567640
  0
VERTEX
  8
0
  6
CONTINUOUS
 10
5.940440
 20
4.553120
  0
VERTEX
  8
0
  6
CONTINUOUS
 10
5.951880
 20
4.534640
  0
VERTEX
  8
0
  6
CONTINUOUS
 10
5.962000
 20
4.511760
  0
VERTEX
  8
0
  6
CONTINUOUS
 10
5.971680
 20
4.483600
  0
VERTEX
  8
0
  6
CONTINUOUS
 10
5.980040
 20
4.449280
  0
VERTEX
  8
0
  6
CONTINUOUS
 10
5.987520
 20
4.408360
  0
VERTEX
  8
0
  6
CONTINUOUS
 10
6.059680
 20
4.408360
  0
VERTEX
  8
0
  6
CONTINUOUS
 10
6.059680
 20
1.043680
  0
VERTEX
  8
0
  6
CONTINUOUS
 10
5.559840
 20
1.043680
  0
VERTEX
  8
0
  6
CONTINUOUS
 10
5.558960
 20
4.849680
  0
VERTEX
  8
0
  6
CONTINUOUS
 10
5.563360
 20
4.848800
  0
VERTEX
  8
0
  6
CONTINUOUS
 10
5.562920
 20
4.848800
  0
SEQEND
  8
0
  0
TEXT
  8
0
 10
5.836160
 20
0.763400
 40
0.138119
  1
BA  574
 41
1.000000
  7
SN0
 71
     0
 72
     5
 11
6.427006
 21
0.763400
  0
TEXT
  8
0
 10
5.588000
 20
0.571560
 40
0.138119
  1
1/2" x 3-13/16"
 41
1.000000
  7
SN0
 71
     0
 72
     5
 11
6.674441
 21
0.571560
  0
ENDSEC
  0
EOF
