  0
SECTION
  2
HEADER
  9
$ACADVER
  1
AC1006
  9
$EXTMIN
 10
2.725360
 20
4.609440
  9
$EXTMAX
 10
5.774560
 20
6.390120
  9
$LTSCALE
 40
0.044000
  9
$PDMODE
 70
    35
  9
$PDSIZE
 40
0.035200
  0
ENDSEC
  0
SECTION
  2
TABLES
  0
TABLE
  2
LTYPE
 70
     9
  0
LTYPE
  2
CONTINUOUS
 70
    64
  3
Solid line
 72
    65
 73
     0
 40
0.000000
  0
LTYPE
  2
DASHED
 70
    64
  3
__ __ __ __ __ __ __ __ __ __ __ __ __ __ __
 72
    65
 73
     2
 40
0.000330
 49
0.000220
 49
-0.000110
  0
LTYPE
  2
HIDDEN
 70
    64
  3
 _ _ _ _ _ _ _ _ _ _ _ _ _ _ _ _ _ _ _ _ _ _
 72
    65
 73
     2
 40
0.000165
 49
0.000110
 49
-0.000055
  0
LTYPE
  2
CENTER
 70
    64
  3
____ _ ____ _ ____ _ ____ _ ____ _ ____ _ ____
 72
    65
 73
     4
 40
0.000880
 49
0.000550
 49
-0.000110
 49
0.000110
 49
-0.000110
  0
LTYPE
  2
PHANTOM
 70
    64
  3
_____ _ _ _____ _ _ _____ _ _ _____ _ _ ____
 72
    65
 73
     6
 40
0.001100
 49
0.000550
 49
-0.000110
 49
0.000110
 49
-0.000110
 49
0.000110
 49
-0.000110
  0
LTYPE
  2
DOT
 70
    64
  3
...............................................
 72
    65
 73
     2
 40
0.000110
 49
0.000000
 49
-0.000110
  0
LTYPE
  2
DASHDOT
 70
    64
  3
__ . __ . __ . __ . __ . __ . __ . __ . __ . __
 72
    65
 73
     4
 40
0.000440
 49
0.000220
 49
-0.000110
 49
0.000000
 49
-0.000110
  0
LTYPE
  2
BORDER
 70
    64
  3
__ __ . __ __ . __ __ . __ __ . __ __ . __ __
 72
    65
 73
     6
 40
0.000770
 49
0.000220
 49
-0.000110
 49
0.000220
 49
-0.000110
 49
0.000000
 49
-0.000110
  0
LTYPE
  2
DIVIDE
 70
    64
  3
__ . . __ . . __ . . __ . . __ . . __ . . __
 72
    65
 73
     6
 40
0.000550
 49
0.000220
 49
-0.000110
 49
0.000000
 49
-0.000110
 49
0.000000
 49
-0.000110
  0
LTYPE
  2
DOTDOT
 70
    64
  3
 . .  . .  . .  . .  . .  . . 
 72
    65
 73
     5
 40
0.000242
 49
-0.000110
 49
0.000000
 49
-0.000110
 49
0.000000
 49
-0.000110
  0
ENDTAB
  0
TABLE
  2
STYLE
 70
     2
  0
STYLE
 70
     0
  2
SN0
 40
0.000000
 41
0.000440
 50
0.000000
 71
     0
 42
0.000000
  3
ROMAND
  0
STYLE
 70
    68
  2
SV0
 40
0.000000
 41
0.000440
 50
0.000000
 71
     0
 42
0.000000
  3
ROMAND
  0
ENDTAB
  0
TABLE
  2
LAYER
 70
     3
  0
LAYER
  2
FOREGROUND
 70
    64
 62
     7
  6
CONTINUOUS
  0
LAYER
  2
BACKGROUND
 70
    65
 62
    -7
  6
CONTINUOUS
  0
LAYER
  2
0
 70
    64
 62
     7
  6
CONTINUOUS
  0
ENDTAB
  0
ENDSEC
  0
SECTION
  2
ENTITIES
  0
POLYLINE
  8
FOREGROUND
  6
CONTINUOUS
 66
     1
 40
0.000000
 41
0.000000
  0
VERTEX
  8
FOREGROUND
  6
CONTINUOUS
 10
0.000000
 20
10.999560
  0
VERTEX
  8
FOREGROUND
  6
CONTINUOUS
 10
8.499920
 20
10.999560
  0
VERTEX
  8
FOREGROUND
  6
CONTINUOUS
 10
8.499920
 20
-0.000440
  0
VERTEX
  8
FOREGROUND
  6
CONTINUOUS
 10
0.000000
 20
-0.000440
  0
VERTEX
  8
FOREGROUND
  6
CONTINUOUS
 10
0.000000
 20
10.999560
  0
SEQEND
  8
0
  0
POLYLINE
  8
FOREGROUND
  6
CONTINUOUS
 66
     1
 40
0.000000
 41
0.000000
  0
VERTEX
  8
FOREGROUND
  6
CONTINUOUS
 10
0.000000
 20
10.999560
  0
VERTEX
  8
FOREGROUND
  6
CONTINUOUS
 10
8.499920
 20
10.999560
  0
VERTEX
  8
FOREGROUND
  6
CONTINUOUS
 10
8.499920
 20
-0.000440
  0
VERTEX
  8
FOREGROUND
  6
CONTINUOUS
 10
0.000000
 20
-0.000440
  0
VERTEX
  8
FOREGROUND
  6
CONTINUOUS
 10
0.000000
 20
10.999560
  0
SEQEND
  8
0
  0
TEXT
  8
0
 10
3.119160
 20
4.845720
 40
0.138223
  1
BA  571
 41
1.000000
  7
SN0
 71
     0
 72
     5
 11
3.709333
 21
4.845720
  0
TEXT
  8
0
 10
2.963400
 20
4.653880
 40
0.138223
  1
1/2" x 1-3/8"
 41
1.000000
  7
SN0
 71
     0
 72
     5
 11
3.864286
 21
4.653880
  0
SOLID
  8
0
 62
    15
 10
3.268760
 20
5.474480
 11
3.268760
 21
6.221160
 12
3.278440
 22
5.456880
 13
3.278440
 23
6.203560
  0
POLYLINE
  8
0
  6
CONTINUOUS
 66
     1
 40
0.000000
 41
0.000000
  0
VERTEX
  8
0
  6
CONTINUOUS
 10
3.268760
 20
5.474480
  0
VERTEX
  8
0
  6
CONTINUOUS
 10
3.268760
 20
6.221160
  0
VERTEX
  8
0
  6
CONTINUOUS
 10
3.278440
 20
6.203560
  0
VERTEX
  8
0
  6
CONTINUOUS
 10
3.278440
 20
5.456880
  0
VERTEX
  8
0
  6
CONTINUOUS
 10
3.268760
 20
5.474480
  0
SEQEND
  8
0
  0
SOLID
  8
0
 62
    15
 10
2.725800
 20
5.476680
 11
2.726240
 21
6.223360
 12
2.738560
 22
5.518480
 13
2.738560
 23
6.265160
  0
POLYLINE
  8
0
  6
CONTINUOUS
 66
     1
 40
0.000000
 41
0.000000
  0
VERTEX
  8
0
  6
CONTINUOUS
 10
2.725800
 20
5.476680
  0
VERTEX
  8
0
  6
CONTINUOUS
 10
2.726240
 20
6.223360
  0
VERTEX
  8
0
  6
CONTINUOUS
 10
2.738560
 20
6.265160
  0
VERTEX
  8
0
  6
CONTINUOUS
 10
2.738560
 20
5.518480
  0
VERTEX
  8
0
  6
CONTINUOUS
 10
2.725800
 20
5.476680
  0
SEQEND
  8
0
  0
SOLID
  8
0
 62
    15
 10
2.738560
 20
5.518480
 11
2.738560
 21
6.265160
 12
2.757480
 22
5.553680
 13
2.757480
 23
6.300360
  0
POLYLINE
  8
0
  6
CONTINUOUS
 66
     1
 40
0.000000
 41
0.000000
  0
VERTEX
  8
0
  6
CONTINUOUS
 10
2.738560
 20
5.518480
  0
VERTEX
  8
0
  6
CONTINUOUS
 10
2.738560
 20
6.265160
  0
VERTEX
  8
0
  6
CONTINUOUS
 10
2.757480
 20
6.300360
  0
VERTEX
  8
0
  6
CONTINUOUS
 10
2.757480
 20
5.553680
  0
VERTEX
  8
0
  6
CONTINUOUS
 10
2.738560
 20
5.518480
  0
SEQEND
  8
0
  0
SOLID
  8
0
 62
    15
 10
2.757480
 20
5.553680
 11
2.757480
 21
6.300360
 12
2.782120
 22
5.582720
 13
2.782120
 23
6.329400
  0
POLYLINE
  8
0
  6
CONTINUOUS
 66
     1
 40
0.000000
 41
0.000000
  0
VERTEX
  8
0
  6
CONTINUOUS
 10
2.757480
 20
5.553680
  0
VERTEX
  8
0
  6
CONTINUOUS
 10
2.757480
 20
6.300360
  0
VERTEX
  8
0
  6
CONTINUOUS
 10
2.782120
 20
6.329400
  0
VERTEX
  8
0
  6
CONTINUOUS
 10
2.782120
 20
5.582720
  0
VERTEX
  8
0
  6
CONTINUOUS
 10
2.757480
 20
5.553680
  0
SEQEND
  8
0
  0
SOLID
  8
0
 62
    15
 10
2.782120
 20
5.582720
 11
2.782120
 21
6.329400
 12
2.811160
 22
5.605600
 13
2.811600
 23
6.352280
  0
POLYLINE
  8
0
  6
CONTINUOUS
 66
     1
 40
0.000000
 41
0.000000
  0
VERTEX
  8
0
  6
CONTINUOUS
 10
2.782120
 20
5.582720
  0
VERTEX
  8
0
  6
CONTINUOUS
 10
2.782120
 20
6.329400
  0
VERTEX
  8
0
  6
CONTINUOUS
 10
2.811600
 20
6.352280
  0
VERTEX
  8
0
  6
CONTINUOUS
 10
2.811160
 20
5.605600
  0
VERTEX
  8
0
  6
CONTINUOUS
 10
2.782120
 20
5.582720
  0
SEQEND
  8
0
  0
SOLID
  8
0
 62
    15
 10
2.811160
 20
5.605600
 11
2.811600
 21
6.352280
 12
2.844600
 22
5.623200
 13
2.844600
 23
6.369880
  0
POLYLINE
  8
0
  6
CONTINUOUS
 66
     1
 40
0.000000
 41
0.000000
  0
VERTEX
  8
0
  6
CONTINUOUS
 10
2.811160
 20
5.605600
  0
VERTEX
  8
0
  6
CONTINUOUS
 10
2.811600
 20
6.352280
  0
VERTEX
  8
0
  6
CONTINUOUS
 10
2.844600
 20
6.369880
  0
VERTEX
  8
0
  6
CONTINUOUS
 10
2.844600
 20
5.623200
  0
VERTEX
  8
0
  6
CONTINUOUS
 10
2.811160
 20
5.605600
  0
SEQEND
  8
0
  0
SOLID
  8
0
 62
    15
 10
2.844600
 20
5.623200
 11
2.844600
 21
6.369880
 12
2.880240
 22
5.634640
 13
2.880680
 23
6.381320
  0
POLYLINE
  8
0
  6
CONTINUOUS
 66
     1
 40
0.000000
 41
0.000000
  0
VERTEX
  8
0
  6
CONTINUOUS
 10
2.844600
 20
5.623200
  0
VERTEX
  8
0
  6
CONTINUOUS
 10
2.844600
 20
6.369880
  0
VERTEX
  8
0
  6
CONTINUOUS
 10
2.880680
 20
6.381320
  0
VERTEX
  8
0
  6
CONTINUOUS
 10
2.880240
 20
5.634640
  0
VERTEX
  8
0
  6
CONTINUOUS
 10
2.844600
 20
5.623200
  0
SEQEND
  8
0
  0
SOLID
  8
0
 62
    15
 10
2.880240
 20
5.634640
 11
2.880680
 21
6.381320
 12
2.918080
 22
5.641240
 13
2.918520
 23
6.387920
  0
POLYLINE
  8
0
  6
CONTINUOUS
 66
     1
 40
0.000000
 41
0.000000
  0
VERTEX
  8
0
  6
CONTINUOUS
 10
2.880240
 20
5.634640
  0
VERTEX
  8
0
  6
CONTINUOUS
 10
2.880680
 20
6.381320
  0
VERTEX
  8
0
  6
CONTINUOUS
 10
2.918520
 20
6.387920
  0
VERTEX
  8
0
  6
CONTINUOUS
 10
2.918080
 20
5.641240
  0
VERTEX
  8
0
  6
CONTINUOUS
 10
2.880240
 20
5.634640
  0
SEQEND
  8
0
  0
SOLID
  8
0
 62
    15
 10
2.918080
 20
5.641240
 11
2.918520
 21
6.387920
 12
2.957240
 22
5.642560
 13
2.957240
 23
6.389240
  0
POLYLINE
  8
0
  6
CONTINUOUS
 66
     1
 40
0.000000
 41
0.000000
  0
VERTEX
  8
0
  6
CONTINUOUS
 10
2.918080
 20
5.641240
  0
VERTEX
  8
0
  6
CONTINUOUS
 10
2.918520
 20
6.387920
  0
VERTEX
  8
0
  6
CONTINUOUS
 10
2.957240
 20
6.389240
  0
VERTEX
  8
0
  6
CONTINUOUS
 10
2.957240
 20
5.642560
  0
VERTEX
  8
0
  6
CONTINUOUS
 10
2.918080
 20
5.641240
  0
SEQEND
  8
0
  0
SOLID
  8
0
 62
    15
 10
2.957240
 20
5.642560
 11
2.957240
 21
6.389240
 12
2.996400
 22
5.639040
 13
2.996400
 23
6.385720
  0
POLYLINE
  8
0
  6
CONTINUOUS
 66
     1
 40
0.000000
 41
0.000000
  0
VERTEX
  8
0
  6
CONTINUOUS
 10
2.957240
 20
5.642560
  0
VERTEX
  8
0
  6
CONTINUOUS
 10
2.957240
 20
6.389240
  0
VERTEX
  8
0
  6
CONTINUOUS
 10
2.996400
 20
6.385720
  0
VERTEX
  8
0
  6
CONTINUOUS
 10
2.996400
 20
5.639040
  0
VERTEX
  8
0
  6
CONTINUOUS
 10
2.957240
 20
5.642560
  0
SEQEND
  8
0
  0
SOLID
  8
0
 62
    15
 10
2.996400
 20
5.639040
 11
2.996400
 21
6.385720
 12
3.034240
 22
5.630680
 13
3.034680
 23
6.377800
  0
POLYLINE
  8
0
  6
CONTINUOUS
 66
     1
 40
0.000000
 41
0.000000
  0
VERTEX
  8
0
  6
CONTINUOUS
 10
2.996400
 20
5.639040
  0
VERTEX
  8
0
  6
CONTINUOUS
 10
2.996400
 20
6.385720
  0
VERTEX
  8
0
  6
CONTINUOUS
 10
3.034680
 20
6.377800
  0
VERTEX
  8
0
  6
CONTINUOUS
 10
3.034240
 20
5.630680
  0
VERTEX
  8
0
  6
CONTINUOUS
 10
2.996400
 20
5.639040
  0
SEQEND
  8
0
  0
SOLID
  8
0
 62
    15
 10
3.034240
 20
5.630680
 11
3.034680
 21
6.377800
 12
3.070760
 22
5.618360
 13
3.071200
 23
6.365040
  0
POLYLINE
  8
0
  6
CONTINUOUS
 66
     1
 40
0.000000
 41
0.000000
  0
VERTEX
  8
0
  6
CONTINUOUS
 10
3.034240
 20
5.630680
  0
VERTEX
  8
0
  6
CONTINUOUS
 10
3.034680
 20
6.377800
  0
VERTEX
  8
0
  6
CONTINUOUS
 10
3.071200
 20
6.365040
  0
VERTEX
  8
0
  6
CONTINUOUS
 10
3.070760
 20
5.618360
  0
VERTEX
  8
0
  6
CONTINUOUS
 10
3.034240
 20
5.630680
  0
SEQEND
  8
0
  0
SOLID
  8
0
 62
    15
 10
3.070760
 20
5.618360
 11
3.071200
 21
6.365040
 12
3.104640
 22
5.601200
 13
3.105080
 23
6.347880
  0
POLYLINE
  8
0
  6
CONTINUOUS
 66
     1
 40
0.000000
 41
0.000000
  0
VERTEX
  8
0
  6
CONTINUOUS
 10
3.070760
 20
5.618360
  0
VERTEX
  8
0
  6
CONTINUOUS
 10
3.071200
 20
6.365040
  0
VERTEX
  8
0
  6
CONTINUOUS
 10
3.105080
 20
6.347880
  0
VERTEX
  8
0
  6
CONTINUOUS
 10
3.104640
 20
5.601200
  0
VERTEX
  8
0
  6
CONTINUOUS
 10
3.070760
 20
5.618360
  0
SEQEND
  8
0
  0
SOLID
  8
0
 62
    15
 10
3.104640
 20
5.601200
 11
3.105080
 21
6.347880
 12
3.135000
 22
5.580520
 13
3.135000
 23
6.327200
  0
POLYLINE
  8
0
  6
CONTINUOUS
 66
     1
 40
0.000000
 41
0.000000
  0
VERTEX
  8
0
  6
CONTINUOUS
 10
3.104640
 20
5.601200
  0
VERTEX
  8
0
  6
CONTINUOUS
 10
3.105080
 20
6.347880
  0
VERTEX
  8
0
  6
CONTINUOUS
 10
3.135000
 20
6.327200
  0
VERTEX
  8
0
  6
CONTINUOUS
 10
3.135000
 20
5.580520
  0
VERTEX
  8
0
  6
CONTINUOUS
 10
3.104640
 20
5.601200
  0
SEQEND
  8
0
  0
SOLID
  8
0
 62
    15
 10
3.135000
 20
5.580520
 11
3.135000
 21
6.327200
 12
3.160960
 22
5.555880
 13
3.160960
 23
6.302560
  0
POLYLINE
  8
0
  6
CONTINUOUS
 66
     1
 40
0.000000
 41
0.000000
  0
VERTEX
  8
0
  6
CONTINUOUS
 10
3.135000
 20
5.580520
  0
VERTEX
  8
0
  6
CONTINUOUS
 10
3.135000
 20
6.327200
  0
VERTEX
  8
0
  6
CONTINUOUS
 10
3.160960
 20
6.302560
  0
VERTEX
  8
0
  6
CONTINUOUS
 10
3.160960
 20
5.555880
  0
VERTEX
  8
0
  6
CONTINUOUS
 10
3.135000
 20
5.580520
  0
SEQEND
  8
0
  0
SOLID
  8
0
 62
    15
 10
3.160960
 20
5.555880
 11
3.160960
 21
6.302560
 12
3.181200
 22
5.527720
 13
3.181200
 23
6.274400
  0
POLYLINE
  8
0
  6
CONTINUOUS
 66
     1
 40
0.000000
 41
0.000000
  0
VERTEX
  8
0
  6
CONTINUOUS
 10
3.160960
 20
5.555880
  0
VERTEX
  8
0
  6
CONTINUOUS
 10
3.160960
 20
6.302560
  0
VERTEX
  8
0
  6
CONTINUOUS
 10
3.181200
 20
6.274400
  0
VERTEX
  8
0
  6
CONTINUOUS
 10
3.181200
 20
5.527720
  0
VERTEX
  8
0
  6
CONTINUOUS
 10
3.160960
 20
5.555880
  0
SEQEND
  8
0
  0
SOLID
  8
0
 62
    15
 10
3.181200
 20
5.527720
 11
3.181200
 21
6.274400
 12
3.195280
 22
5.496040
 13
3.195280
 23
6.242720
  0
POLYLINE
  8
0
  6
CONTINUOUS
 66
     1
 40
0.000000
 41
0.000000
  0
VERTEX
  8
0
  6
CONTINUOUS
 10
3.181200
 20
5.527720
  0
VERTEX
  8
0
  6
CONTINUOUS
 10
3.181200
 20
6.274400
  0
VERTEX
  8
0
  6
CONTINUOUS
 10
3.195280
 20
6.242720
  0
VERTEX
  8
0
  6
CONTINUOUS
 10
3.195280
 20
5.496040
  0
VERTEX
  8
0
  6
CONTINUOUS
 10
3.181200
 20
5.527720
  0
SEQEND
  8
0
  0
SOLID
  8
0
 62
    15
 10
3.195280
 20
5.496040
 11
3.195280
 21
6.242720
 12
3.262600
 22
5.492080
 13
3.263040
 23
6.239200
  0
POLYLINE
  8
0
  6
CONTINUOUS
 66
     1
 40
0.000000
 41
0.000000
  0
VERTEX
  8
0
  6
CONTINUOUS
 10
3.195280
 20
5.496040
  0
VERTEX
  8
0
  6
CONTINUOUS
 10
3.195280
 20
6.242720
  0
VERTEX
  8
0
  6
CONTINUOUS
 10
3.263040
 20
6.239200
  0
VERTEX
  8
0
  6
CONTINUOUS
 10
3.262600
 20
5.492080
  0
VERTEX
  8
0
  6
CONTINUOUS
 10
3.195280
 20
5.496040
  0
SEQEND
  8
0
  0
SOLID
  8
0
 62
    15
 10
3.262600
 20
5.492080
 11
3.263040
 21
6.239200
 12
3.268760
 22
5.474480
 13
3.268760
 23
6.221160
  0
POLYLINE
  8
0
  6
CONTINUOUS
 66
     1
 40
0.000000
 41
0.000000
  0
VERTEX
  8
0
  6
CONTINUOUS
 10
3.262600
 20
5.492080
  0
VERTEX
  8
0
  6
CONTINUOUS
 10
3.263040
 20
6.239200
  0
VERTEX
  8
0
  6
CONTINUOUS
 10
3.268760
 20
6.221160
  0
VERTEX
  8
0
  6
CONTINUOUS
 10
3.268760
 20
5.474480
  0
VERTEX
  8
0
  6
CONTINUOUS
 10
3.262600
 20
5.492080
  0
SEQEND
  8
0
  0
SOLID
  8
0
 62
    15
 10
4.105200
 20
5.208720
 11
4.105200
 21
5.955400
 12
4.105200
 22
5.115880
 13
4.105200
 23
5.862560
  0
POLYLINE
  8
0
  6
CONTINUOUS
 66
     1
 40
0.000000
 41
0.000000
  0
VERTEX
  8
0
  6
CONTINUOUS
 10
4.105200
 20
5.208720
  0
VERTEX
  8
0
  6
CONTINUOUS
 10
4.105200
 20
5.955400
  0
VERTEX
  8
0
  6
CONTINUOUS
 10
4.105200
 20
5.862560
  0
VERTEX
  8
0
  6
CONTINUOUS
 10
4.105200
 20
5.115880
  0
VERTEX
  8
0
  6
CONTINUOUS
 10
4.105200
 20
5.208720
  0
SEQEND
  8
0
  0
SOLID
  8
0
 62
    15
 10
3.278440
 20
5.456880
 11
3.278440
 21
6.203560
 12
3.291200
 22
5.439720
 13
3.291200
 23
6.186400
  0
POLYLINE
  8
0
  6
CONTINUOUS
 66
     1
 40
0.000000
 41
0.000000
  0
VERTEX
  8
0
  6
CONTINUOUS
 10
3.278440
 20
5.456880
  0
VERTEX
  8
0
  6
CONTINUOUS
 10
3.278440
 20
6.203560
  0
VERTEX
  8
0
  6
CONTINUOUS
 10
3.291200
 20
6.186400
  0
VERTEX
  8
0
  6
CONTINUOUS
 10
3.291200
 20
5.439720
  0
VERTEX
  8
0
  6
CONTINUOUS
 10
3.278440
 20
5.456880
  0
SEQEND
  8
0
  0
SOLID
  8
0
 62
    15
 10
3.291200
 20
5.439720
 11
3.291200
 21
6.186400
 12
3.307480
 22
5.424320
 13
3.307920
 23
6.171000
  0
POLYLINE
  8
0
  6
CONTINUOUS
 66
     1
 40
0.000000
 41
0.000000
  0
VERTEX
  8
0
  6
CONTINUOUS
 10
3.291200
 20
5.439720
  0
VERTEX
  8
0
  6
CONTINUOUS
 10
3.291200
 20
6.186400
  0
VERTEX
  8
0
  6
CONTINUOUS
 10
3.307920
 20
6.171000
  0
VERTEX
  8
0
  6
CONTINUOUS
 10
3.307480
 20
5.424320
  0
VERTEX
  8
0
  6
CONTINUOUS
 10
3.291200
 20
5.439720
  0
SEQEND
  8
0
  0
SOLID
  8
0
 62
    15
 10
3.307480
 20
5.424320
 11
3.307920
 21
6.171000
 12
3.327280
 22
5.410680
 13
3.327720
 23
6.157360
  0
POLYLINE
  8
0
  6
CONTINUOUS
 66
     1
 40
0.000000
 41
0.000000
  0
VERTEX
  8
0
  6
CONTINUOUS
 10
3.307480
 20
5.424320
  0
VERTEX
  8
0
  6
CONTINUOUS
 10
3.307920
 20
6.171000
  0
VERTEX
  8
0
  6
CONTINUOUS
 10
3.327720
 20
6.157360
  0
VERTEX
  8
0
  6
CONTINUOUS
 10
3.327280
 20
5.410680
  0
VERTEX
  8
0
  6
CONTINUOUS
 10
3.307480
 20
5.424320
  0
SEQEND
  8
0
  0
SOLID
  8
0
 62
    15
 10
3.327280
 20
5.410680
 11
3.327720
 21
6.157360
 12
3.350600
 22
5.399240
 13
3.350600
 23
6.145920
  0
POLYLINE
  8
0
  6
CONTINUOUS
 66
     1
 40
0.000000
 41
0.000000
  0
VERTEX
  8
0
  6
CONTINUOUS
 10
3.327280
 20
5.410680
  0
VERTEX
  8
0
  6
CONTINUOUS
 10
3.327720
 20
6.157360
  0
VERTEX
  8
0
  6
CONTINUOUS
 10
3.350600
 20
6.145920
  0
VERTEX
  8
0
  6
CONTINUOUS
 10
3.350600
 20
5.399240
  0
VERTEX
  8
0
  6
CONTINUOUS
 10
3.327280
 20
5.410680
  0
SEQEND
  8
0
  0
SOLID
  8
0
 62
    15
 10
3.350600
 20
5.399240
 11
3.350600
 21
6.145920
 12
3.377000
 22
5.390880
 13
3.377000
 23
6.137560
  0
POLYLINE
  8
0
  6
CONTINUOUS
 66
     1
 40
0.000000
 41
0.000000
  0
VERTEX
  8
0
  6
CONTINUOUS
 10
3.350600
 20
5.399240
  0
VERTEX
  8
0
  6
CONTINUOUS
 10
3.350600
 20
6.145920
  0
VERTEX
  8
0
  6
CONTINUOUS
 10
3.377000
 20
6.137560
  0
VERTEX
  8
0
  6
CONTINUOUS
 10
3.377000
 20
5.390880
  0
VERTEX
  8
0
  6
CONTINUOUS
 10
3.350600
 20
5.399240
  0
SEQEND
  8
0
  0
SOLID
  8
0
 62
    15
 10
3.377000
 20
5.390880
 11
3.377000
 21
6.137560
 12
3.406920
 22
5.386480
 13
3.406920
 23
6.133160
  0
POLYLINE
  8
0
  6
CONTINUOUS
 66
     1
 40
0.000000
 41
0.000000
  0
VERTEX
  8
0
  6
CONTINUOUS
 10
3.377000
 20
5.390880
  0
VERTEX
  8
0
  6
CONTINUOUS
 10
3.377000
 20
6.137560
  0
VERTEX
  8
0
  6
CONTINUOUS
 10
3.406920
 20
6.133160
  0
VERTEX
  8
0
  6
CONTINUOUS
 10
3.406920
 20
5.386480
  0
VERTEX
  8
0
  6
CONTINUOUS
 10
3.377000
 20
5.390880
  0
SEQEND
  8
0
  0
SOLID
  8
0
 62
    15
 10
3.406920
 20
5.386480
 11
3.406920
 21
6.133160
 12
3.730320
 22
5.379880
 13
3.730320
 23
6.127000
  0
POLYLINE
  8
0
  6
CONTINUOUS
 66
     1
 40
0.000000
 41
0.000000
  0
VERTEX
  8
0
  6
CONTINUOUS
 10
3.406920
 20
5.386480
  0
VERTEX
  8
0
  6
CONTINUOUS
 10
3.406920
 20
6.133160
  0
VERTEX
  8
0
  6
CONTINUOUS
 10
3.730320
 20
6.127000
  0
VERTEX
  8
0
  6
CONTINUOUS
 10
3.730320
 20
5.379880
  0
VERTEX
  8
0
  6
CONTINUOUS
 10
3.406920
 20
5.386480
  0
SEQEND
  8
0
  0
SOLID
  8
0
 62
    15
 10
3.730320
 20
5.379880
 11
3.730320
 21
6.127000
 12
3.752760
 22
5.340280
 13
3.752760
 23
6.086960
  0
POLYLINE
  8
0
  6
CONTINUOUS
 66
     1
 40
0.000000
 41
0.000000
  0
VERTEX
  8
0
  6
CONTINUOUS
 10
3.730320
 20
5.379880
  0
VERTEX
  8
0
  6
CONTINUOUS
 10
3.730320
 20
6.127000
  0
VERTEX
  8
0
  6
CONTINUOUS
 10
3.752760
 20
6.086960
  0
VERTEX
  8
0
  6
CONTINUOUS
 10
3.752760
 20
5.340280
  0
VERTEX
  8
0
  6
CONTINUOUS
 10
3.730320
 20
5.379880
  0
SEQEND
  8
0
  0
SOLID
  8
0
 62
    15
 10
3.752760
 20
5.340280
 11
3.752760
 21
6.086960
 12
3.789280
 22
5.338960
 13
3.789720
 23
6.086080
  0
POLYLINE
  8
0
  6
CONTINUOUS
 66
     1
 40
0.000000
 41
0.000000
  0
VERTEX
  8
0
  6
CONTINUOUS
 10
3.752760
 20
5.340280
  0
VERTEX
  8
0
  6
CONTINUOUS
 10
3.752760
 20
6.086960
  0
VERTEX
  8
0
  6
CONTINUOUS
 10
3.789720
 20
6.086080
  0
VERTEX
  8
0
  6
CONTINUOUS
 10
3.789280
 20
5.338960
  0
VERTEX
  8
0
  6
CONTINUOUS
 10
3.752760
 20
5.340280
  0
SEQEND
  8
0
  0
SOLID
  8
0
 62
    15
 10
3.789280
 20
5.338960
 11
3.789720
 21
6.086080
 12
3.819640
 22
5.336320
 13
3.819640
 23
6.083440
  0
POLYLINE
  8
0
  6
CONTINUOUS
 66
     1
 40
0.000000
 41
0.000000
  0
VERTEX
  8
0
  6
CONTINUOUS
 10
3.789280
 20
5.338960
  0
VERTEX
  8
0
  6
CONTINUOUS
 10
3.789720
 20
6.086080
  0
VERTEX
  8
0
  6
CONTINUOUS
 10
3.819640
 20
6.083440
  0
VERTEX
  8
0
  6
CONTINUOUS
 10
3.819640
 20
5.336320
  0
VERTEX
  8
0
  6
CONTINUOUS
 10
3.789280
 20
5.338960
  0
SEQEND
  8
0
  0
SOLID
  8
0
 62
    15
 10
3.819640
 20
5.336320
 11
3.819640
 21
6.083440
 12
3.844720
 22
5.331920
 13
3.844720
 23
6.078600
  0
POLYLINE
  8
0
  6
CONTINUOUS
 66
     1
 40
0.000000
 41
0.000000
  0
VERTEX
  8
0
  6
CONTINUOUS
 10
3.819640
 20
5.336320
  0
VERTEX
  8
0
  6
CONTINUOUS
 10
3.819640
 20
6.083440
  0
VERTEX
  8
0
  6
CONTINUOUS
 10
3.844720
 20
6.078600
  0
VERTEX
  8
0
  6
CONTINUOUS
 10
3.844720
 20
5.331920
  0
VERTEX
  8
0
  6
CONTINUOUS
 10
3.819640
 20
5.336320
  0
SEQEND
  8
0
  0
SOLID
  8
0
 62
    15
 10
3.844720
 20
5.331920
 11
3.844720
 21
6.078600
 12
3.865840
 22
5.325760
 13
3.865840
 23
6.072440
  0
POLYLINE
  8
0
  6
CONTINUOUS
 66
     1
 40
0.000000
 41
0.000000
  0
VERTEX
  8
0
  6
CONTINUOUS
 10
3.844720
 20
5.331920
  0
VERTEX
  8
0
  6
CONTINUOUS
 10
3.844720
 20
6.078600
  0
VERTEX
  8
0
  6
CONTINUOUS
 10
3.865840
 20
6.072440
  0
VERTEX
  8
0
  6
CONTINUOUS
 10
3.865840
 20
5.325760
  0
VERTEX
  8
0
  6
CONTINUOUS
 10
3.844720
 20
5.331920
  0
SEQEND
  8
0
  0
SOLID
  8
0
 62
    15
 10
3.865840
 20
5.325760
 11
3.865840
 21
6.072440
 12
3.901040
 22
5.306840
 13
3.901480
 23
6.053520
  0
POLYLINE
  8
0
  6
CONTINUOUS
 66
     1
 40
0.000000
 41
0.000000
  0
VERTEX
  8
0
  6
CONTINUOUS
 10
3.865840
 20
5.325760
  0
VERTEX
  8
0
  6
CONTINUOUS
 10
3.865840
 20
6.072440
  0
VERTEX
  8
0
  6
CONTINUOUS
 10
3.901480
 20
6.053520
  0
VERTEX
  8
0
  6
CONTINUOUS
 10
3.901040
 20
5.306840
  0
VERTEX
  8
0
  6
CONTINUOUS
 10
3.865840
 20
5.325760
  0
SEQEND
  8
0
  0
SOLID
  8
0
 62
    15
 10
3.901040
 20
5.306840
 11
3.901480
 21
6.053520
 12
3.936240
 22
5.280000
 13
3.936680
 23
6.026680
  0
POLYLINE
  8
0
  6
CONTINUOUS
 66
     1
 40
0.000000
 41
0.000000
  0
VERTEX
  8
0
  6
CONTINUOUS
 10
3.901040
 20
5.306840
  0
VERTEX
  8
0
  6
CONTINUOUS
 10
3.901480
 20
6.053520
  0
VERTEX
  8
0
  6
CONTINUOUS
 10
3.936680
 20
6.026680
  0
VERTEX
  8
0
  6
CONTINUOUS
 10
3.936240
 20
5.280000
  0
VERTEX
  8
0
  6
CONTINUOUS
 10
3.901040
 20
5.306840
  0
SEQEND
  8
0
  0
SOLID
  8
0
 62
    15
 10
3.936240
 20
5.280000
 11
3.936680
 21
6.026680
 12
3.976720
 22
5.251400
 13
3.976720
 23
5.998080
  0
POLYLINE
  8
0
  6
CONTINUOUS
 66
     1
 40
0.000000
 41
0.000000
  0
VERTEX
  8
0
  6
CONTINUOUS
 10
3.936240
 20
5.280000
  0
VERTEX
  8
0
  6
CONTINUOUS
 10
3.936680
 20
6.026680
  0
VERTEX
  8
0
  6
CONTINUOUS
 10
3.976720
 20
5.998080
  0
VERTEX
  8
0
  6
CONTINUOUS
 10
3.976720
 20
5.251400
  0
VERTEX
  8
0
  6
CONTINUOUS
 10
3.936240
 20
5.280000
  0
SEQEND
  8
0
  0
SOLID
  8
0
 62
    15
 10
3.976720
 20
5.251400
 11
3.976720
 21
5.998080
 12
4.019400
 22
5.228960
 13
4.019840
 23
5.975640
  0
POLYLINE
  8
0
  6
CONTINUOUS
 66
     1
 40
0.000000
 41
0.000000
  0
VERTEX
  8
0
  6
CONTINUOUS
 10
3.976720
 20
5.251400
  0
VERTEX
  8
0
  6
CONTINUOUS
 10
3.976720
 20
5.998080
  0
VERTEX
  8
0
  6
CONTINUOUS
 10
4.019840
 20
5.975640
  0
VERTEX
  8
0
  6
CONTINUOUS
 10
4.019400
 20
5.228960
  0
VERTEX
  8
0
  6
CONTINUOUS
 10
3.976720
 20
5.251400
  0
SEQEND
  8
0
  0
SOLID
  8
0
 62
    15
 10
4.019400
 20
5.228960
 11
4.019840
 21
5.975640
 12
4.062960
 22
5.214000
 13
4.062960
 23
5.960680
  0
POLYLINE
  8
0
  6
CONTINUOUS
 66
     1
 40
0.000000
 41
0.000000
  0
VERTEX
  8
0
  6
CONTINUOUS
 10
4.019400
 20
5.228960
  0
VERTEX
  8
0
  6
CONTINUOUS
 10
4.019840
 20
5.975640
  0
VERTEX
  8
0
  6
CONTINUOUS
 10
4.062960
 20
5.960680
  0
VERTEX
  8
0
  6
CONTINUOUS
 10
4.062960
 20
5.214000
  0
VERTEX
  8
0
  6
CONTINUOUS
 10
4.019400
 20
5.228960
  0
SEQEND
  8
0
  0
SOLID
  8
0
 62
    15
 10
4.062960
 20
5.214000
 11
4.062960
 21
5.960680
 12
4.084080
 22
5.210040
 13
4.084520
 23
5.956720
  0
POLYLINE
  8
0
  6
CONTINUOUS
 66
     1
 40
0.000000
 41
0.000000
  0
VERTEX
  8
0
  6
CONTINUOUS
 10
4.062960
 20
5.214000
  0
VERTEX
  8
0
  6
CONTINUOUS
 10
4.062960
 20
5.960680
  0
VERTEX
  8
0
  6
CONTINUOUS
 10
4.084520
 20
5.956720
  0
VERTEX
  8
0
  6
CONTINUOUS
 10
4.084080
 20
5.210040
  0
VERTEX
  8
0
  6
CONTINUOUS
 10
4.062960
 20
5.214000
  0
SEQEND
  8
0
  0
SOLID
  8
0
 62
    15
 10
4.084080
 20
5.210040
 11
4.084520
 21
5.956720
 12
4.105200
 22
5.208720
 13
4.105640
 23
5.955400
  0
POLYLINE
  8
0
  6
CONTINUOUS
 66
     1
 40
0.000000
 41
0.000000
  0
VERTEX
  8
0
  6
CONTINUOUS
 10
4.084080
 20
5.210040
  0
VERTEX
  8
0
  6
CONTINUOUS
 10
4.084520
 20
5.956720
  0
VERTEX
  8
0
  6
CONTINUOUS
 10
4.105640
 20
5.955400
  0
VERTEX
  8
0
  6
CONTINUOUS
 10
4.105200
 20
5.208720
  0
VERTEX
  8
0
  6
CONTINUOUS
 10
4.084080
 20
5.210040
  0
SEQEND
  8
0
  0
POLYLINE
  8
0
  6
CONTINUOUS
 66
     1
 40
0.000000
 41
0.000000
  0
VERTEX
  8
0
  6
CONTINUOUS
 10
4.105200
 20
5.208720
  0
VERTEX
  8
0
  6
CONTINUOUS
 10
4.105200
 20
5.115880
  0
VERTEX
  8
0
  6
CONTINUOUS
 10
2.725800
 20
5.115880
  0
VERTEX
  8
0
  6
CONTINUOUS
 10
2.725800
 20
5.476680
  0
VERTEX
  8
0
  6
CONTINUOUS
 10
2.738560
 20
5.518480
  0
VERTEX
  8
0
  6
CONTINUOUS
 10
2.757480
 20
5.553680
  0
VERTEX
  8
0
  6
CONTINUOUS
 10
2.782120
 20
5.582720
  0
VERTEX
  8
0
  6
CONTINUOUS
 10
2.811160
 20
5.605600
  0
VERTEX
  8
0
  6
CONTINUOUS
 10
2.844600
 20
5.623200
  0
VERTEX
  8
0
  6
CONTINUOUS
 10
2.880240
 20
5.634640
  0
VERTEX
  8
0
  6
CONTINUOUS
 10
2.918080
 20
5.641240
  0
VERTEX
  8
0
  6
CONTINUOUS
 10
2.957240
 20
5.642560
  0
VERTEX
  8
0
  6
CONTINUOUS
 10
2.996400
 20
5.639040
  0
VERTEX
  8
0
  6
CONTINUOUS
 10
3.034240
 20
5.630680
  0
VERTEX
  8
0
  6
CONTINUOUS
 10
3.070760
 20
5.618360
  0
VERTEX
  8
0
  6
CONTINUOUS
 10
3.104640
 20
5.601200
  0
VERTEX
  8
0
  6
CONTINUOUS
 10
3.135000
 20
5.580520
  0
VERTEX
  8
0
  6
CONTINUOUS
 10
3.160960
 20
5.555880
  0
VERTEX
  8
0
  6
CONTINUOUS
 10
3.181200
 20
5.527720
  0
VERTEX
  8
0
  6
CONTINUOUS
 10
3.195280
 20
5.496040
  0
VERTEX
  8
0
  6
CONTINUOUS
 10
3.262600
 20
5.492080
  0
VERTEX
  8
0
  6
CONTINUOUS
 10
3.268760
 20
5.474480
  0
VERTEX
  8
0
  6
CONTINUOUS
 10
3.278440
 20
5.456880
  0
VERTEX
  8
0
  6
CONTINUOUS
 10
3.291200
 20
5.439720
  0
VERTEX
  8
0
  6
CONTINUOUS
 10
3.307480
 20
5.424320
  0
VERTEX
  8
0
  6
CONTINUOUS
 10
3.327280
 20
5.410680
  0
VERTEX
  8
0
  6
CONTINUOUS
 10
3.350600
 20
5.399240
  0
VERTEX
  8
0
  6
CONTINUOUS
 10
3.377000
 20
5.390880
  0
VERTEX
  8
0
  6
CONTINUOUS
 10
3.406920
 20
5.386480
  0
VERTEX
  8
0
  6
CONTINUOUS
 10
3.730320
 20
5.379880
  0
VERTEX
  8
0
  6
CONTINUOUS
 10
3.752760
 20
5.340280
  0
VERTEX
  8
0
  6
CONTINUOUS
 10
3.789280
 20
5.338960
  0
VERTEX
  8
0
  6
CONTINUOUS
 10
3.819640
 20
5.336320
  0
VERTEX
  8
0
  6
CONTINUOUS
 10
3.844720
 20
5.331920
  0
VERTEX
  8
0
  6
CONTINUOUS
 10
3.865840
 20
5.325760
  0
VERTEX
  8
0
  6
CONTINUOUS
 10
3.901040
 20
5.306840
  0
VERTEX
  8
0
  6
CONTINUOUS
 10
3.936240
 20
5.280000
  0
VERTEX
  8
0
  6
CONTINUOUS
 10
3.976720
 20
5.251400
  0
VERTEX
  8
0
  6
CONTINUOUS
 10
4.019400
 20
5.228960
  0
VERTEX
  8
0
  6
CONTINUOUS
 10
4.062960
 20
5.214000
  0
VERTEX
  8
0
  6
CONTINUOUS
 10
4.084080
 20
5.210040
  0
VERTEX
  8
0
  6
CONTINUOUS
 10
4.105200
 20
5.208720
  0
SEQEND
  8
0
  0
POLYLINE
  8
0
  6
CONTINUOUS
 66
     1
 40
0.014080
 41
0.014080
  0
VERTEX
  8
0
  6
CONTINUOUS
 10
5.767080
 20
5.848040
  0
VERTEX
  8
0
  6
CONTINUOUS
 10
5.745960
 20
5.849360
  0
VERTEX
  8
0
  6
CONTINUOUS
 10
5.724840
 20
5.853320
  0
VERTEX
  8
0
  6
CONTINUOUS
 10
5.702840
 20
5.859920
  0
VERTEX
  8
0
  6
CONTINUOUS
 10
5.681280
 20
5.868280
  0
VERTEX
  8
0
  6
CONTINUOUS
 10
5.638600
 20
5.890720
  0
VERTEX
  8
0
  6
CONTINUOUS
 10
5.598560
 20
5.919320
  0
VERTEX
  8
0
  6
CONTINUOUS
 10
5.563360
 20
5.946160
  0
VERTEX
  8
0
  6
CONTINUOUS
 10
5.536960
 20
5.961120
  0
VERTEX
  8
0
  6
CONTINUOUS
 10
5.517600
 20
5.968600
  0
VERTEX
  8
0
  6
CONTINUOUS
 10
5.481520
 20
5.976080
  0
VERTEX
  8
0
  6
CONTINUOUS
 10
5.434000
 20
5.979160
  0
VERTEX
  8
0
  6
CONTINUOUS
 10
5.414640
 20
5.979600
  0
VERTEX
  8
0
  6
CONTINUOUS
 10
5.392200
 20
6.019640
  0
VERTEX
  8
0
  6
CONTINUOUS
 10
5.068800
 20
6.025800
  0
VERTEX
  8
0
  6
CONTINUOUS
 10
5.038880
 20
6.030640
  0
VERTEX
  8
0
  6
CONTINUOUS
 10
5.012480
 20
6.038560
  0
VERTEX
  8
0
  6
CONTINUOUS
 10
4.989160
 20
6.050000
  0
VERTEX
  8
0
  6
CONTINUOUS
 10
4.969360
 20
6.063640
  0
VERTEX
  8
0
  6
CONTINUOUS
 10
4.946040
 20
6.087400
  0
VERTEX
  8
0
  6
CONTINUOUS
 10
4.930640
 20
6.113800
  0
VERTEX
  8
0
  6
CONTINUOUS
 10
4.924920
 20
6.131840
  0
VERTEX
  8
0
  6
CONTINUOUS
 10
4.857160
 20
6.135360
  0
VERTEX
  8
0
  6
CONTINUOUS
 10
4.851000
 20
6.151640
  0
VERTEX
  8
0
  6
CONTINUOUS
 10
4.843080
 20
6.167040
  0
VERTEX
  8
0
  6
CONTINUOUS
 10
4.822840
 20
6.195200
  0
VERTEX
  8
0
  6
CONTINUOUS
 10
4.796880
 20
6.219840
  0
VERTEX
  8
0
  6
CONTINUOUS
 10
4.766520
 20
6.240520
  0
VERTEX
  8
0
  6
CONTINUOUS
 10
4.732640
 20
6.257680
  0
VERTEX
  8
0
  6
CONTINUOUS
 10
4.696120
 20
6.270000
  0
VERTEX
  8
0
  6
CONTINUOUS
 10
4.658280
 20
6.278360
  0
VERTEX
  8
0
  6
CONTINUOUS
 10
4.619120
 20
6.281880
  0
VERTEX
  8
0
  6
CONTINUOUS
 10
4.580400
 20
6.280560
  0
VERTEX
  8
0
  6
CONTINUOUS
 10
4.542560
 20
6.273960
  0
VERTEX
  8
0
  6
CONTINUOUS
 10
4.524080
 20
6.269120
  0
VERTEX
  8
0
  6
CONTINUOUS
 10
4.489760
 20
6.254600
  0
VERTEX
  8
0
  6
CONTINUOUS
 10
4.458520
 20
6.234360
  0
VERTEX
  8
0
  6
CONTINUOUS
 10
4.444000
 20
6.222040
  0
VERTEX
  8
0
  6
CONTINUOUS
 10
4.431240
 20
6.208400
  0
VERTEX
  8
0
  6
CONTINUOUS
 10
4.409240
 20
6.176280
  0
VERTEX
  8
0
  6
CONTINUOUS
 10
4.400440
 20
6.157800
  0
VERTEX
  8
0
  6
CONTINUOUS
 10
4.393400
 20
6.137560
  0
VERTEX
  8
0
  6
CONTINUOUS
 10
4.388120
 20
6.116000
  0
VERTEX
  8
0
  6
CONTINUOUS
 10
4.388120
 20
5.755200
  0
VERTEX
  8
0
  6
CONTINUOUS
 10
5.767080
 20
5.755200
  0
VERTEX
  8
0
  6
CONTINUOUS
 10
5.767080
 20
5.848040
  0
SEQEND
  8
0
  0
TEXT
  8
0
 10
4.799520
 20
5.525080
 40
0.138223
  1
BA  571
 41
1.000000
  7
SN0
 71
     0
 72
     5
 11
5.389693
 21
5.525080
  0
TEXT
  8
0
 10
4.643320
 20
5.333240
 40
0.138223
  1
1/2" x 1-3/8"
 41
1.000000
  7
SN0
 71
     0
 72
     5
 11
5.544206
 21
5.333240
  0
ENDSEC
  0
EOF
