  0
SECTION
  2
HEADER
  9
$ACADVER
  1
AC1006
  9
$EXTMIN
 10
4.117960
 20
0.603680
  9
$EXTMAX
 10
7.263520
 20
3.482600
  9
$LTSCALE
 40
0.044000
  9
$PDMODE
 70
    35
  9
$PDSIZE
 40
0.035200
  0
ENDSEC
  0
SECTION
  2
TABLES
  0
TABLE
  2
LTYPE
 70
     9
  0
LTYPE
  2
CONTINUOUS
 70
    64
  3
Solid line
 72
    65
 73
     0
 40
0.000000
  0
LTYPE
  2
DASHED
 70
    64
  3
__ __ __ __ __ __ __ __ __ __ __ __ __ __ __
 72
    65
 73
     2
 40
0.000330
 49
0.000220
 49
-0.000110
  0
LTYPE
  2
HIDDEN
 70
    64
  3
 _ _ _ _ _ _ _ _ _ _ _ _ _ _ _ _ _ _ _ _ _ _
 72
    65
 73
     2
 40
0.000165
 49
0.000110
 49
-0.000055
  0
LTYPE
  2
CENTER
 70
    64
  3
____ _ ____ _ ____ _ ____ _ ____ _ ____ _ ____
 72
    65
 73
     4
 40
0.000880
 49
0.000550
 49
-0.000110
 49
0.000110
 49
-0.000110
  0
LTYPE
  2
PHANTOM
 70
    64
  3
_____ _ _ _____ _ _ _____ _ _ _____ _ _ ____
 72
    65
 73
     6
 40
0.001100
 49
0.000550
 49
-0.000110
 49
0.000110
 49
-0.000110
 49
0.000110
 49
-0.000110
  0
LTYPE
  2
DOT
 70
    64
  3
...............................................
 72
    65
 73
     2
 40
0.000110
 49
0.000000
 49
-0.000110
  0
LTYPE
  2
DASHDOT
 70
    64
  3
__ . __ . __ . __ . __ . __ . __ . __ . __ . __
 72
    65
 73
     4
 40
0.000440
 49
0.000220
 49
-0.000110
 49
0.000000
 49
-0.000110
  0
LTYPE
  2
BORDER
 70
    64
  3
__ __ . __ __ . __ __ . __ __ . __ __ . __ __
 72
    65
 73
     6
 40
0.000770
 49
0.000220
 49
-0.000110
 49
0.000220
 49
-0.000110
 49
0.000000
 49
-0.000110
  0
LTYPE
  2
DIVIDE
 70
    64
  3
__ . . __ . . __ . . __ . . __ . . __ . . __
 72
    65
 73
     6
 40
0.000550
 49
0.000220
 49
-0.000110
 49
0.000000
 49
-0.000110
 49
0.000000
 49
-0.000110
  0
LTYPE
  2
DOTDOT
 70
    64
  3
 . .  . .  . .  . .  . .  . . 
 72
    65
 73
     5
 40
0.000242
 49
-0.000110
 49
0.000000
 49
-0.000110
 49
0.000000
 49
-0.000110
  0
ENDTAB
  0
TABLE
  2
STYLE
 70
     2
  0
STYLE
 70
     0
  2
SN0
 40
0.000000
 41
0.000440
 50
0.000000
 71
     0
 42
0.000000
  3
ROMAND
  0
STYLE
 70
    68
  2
SV0
 40
0.000000
 41
0.000440
 50
0.000000
 71
     0
 42
0.000000
  3
ROMAND
  0
ENDTAB
  0
TABLE
  2
LAYER
 70
     3
  0
LAYER
  2
FOREGROUND
 70
    64
 62
     7
  6
CONTINUOUS
  0
LAYER
  2
BACKGROUND
 70
    65
 62
    -7
  6
CONTINUOUS
  0
LAYER
  2
0
 70
    64
 62
     7
  6
CONTINUOUS
  0
ENDTAB
  0
ENDSEC
  0
SECTION
  2
ENTITIES
  0
POLYLINE
  8
FOREGROUND
  6
CONTINUOUS
 66
     1
 40
0.000000
 41
0.000000
  0
VERTEX
  8
FOREGROUND
  6
CONTINUOUS
 10
0.000000
 20
4.086280
  0
VERTEX
  8
FOREGROUND
  6
CONTINUOUS
 10
8.499920
 20
4.086280
  0
VERTEX
  8
FOREGROUND
  6
CONTINUOUS
 10
8.499920
 20
-6.913720
  0
VERTEX
  8
FOREGROUND
  6
CONTINUOUS
 10
0.000000
 20
-6.913720
  0
VERTEX
  8
FOREGROUND
  6
CONTINUOUS
 10
0.000000
 20
4.086280
  0
SEQEND
  8
0
  0
POLYLINE
  8
0
  6
CONTINUOUS
 66
     1
 40
0.014080
 41
0.014080
  0
VERTEX
  8
0
  6
CONTINUOUS
 10
6.093120
 20
3.474680
  0
VERTEX
  8
0
  6
CONTINUOUS
 10
4.292200
 20
3.474680
  0
VERTEX
  8
0
  6
CONTINUOUS
 10
4.292200
 20
2.734600
  0
VERTEX
  8
0
  6
CONTINUOUS
 10
6.465360
 20
2.734600
  0
VERTEX
  8
0
  6
CONTINUOUS
 10
6.465360
 20
2.802800
  0
VERTEX
  8
0
  6
CONTINUOUS
 10
6.501440
 20
2.803240
  0
VERTEX
  8
0
  6
CONTINUOUS
 10
6.532240
 20
2.806320
  0
VERTEX
  8
0
  6
CONTINUOUS
 10
6.576680
 20
2.816440
  0
VERTEX
  8
0
  6
CONTINUOUS
 10
6.604840
 20
2.827000
  0
VERTEX
  8
0
  6
CONTINUOUS
 10
6.644440
 20
2.847240
  0
VERTEX
  8
0
  6
CONTINUOUS
 10
6.669080
 20
2.863520
  0
VERTEX
  8
0
  6
CONTINUOUS
 10
6.702520
 20
2.892560
  0
VERTEX
  8
0
  6
CONTINUOUS
 10
6.731560
 20
2.926000
  0
VERTEX
  8
0
  6
CONTINUOUS
 10
6.755320
 20
2.963400
  0
VERTEX
  8
0
  6
CONTINUOUS
 10
6.773800
 20
3.003880
  0
VERTEX
  8
0
  6
CONTINUOUS
 10
6.786120
 20
3.047880
  0
VERTEX
  8
0
  6
CONTINUOUS
 10
6.790520
 20
3.078240
  0
VERTEX
  8
0
  6
CONTINUOUS
 10
6.792280
 20
3.109480
  0
VERTEX
  8
0
  6
CONTINUOUS
 10
6.790520
 20
3.140720
  0
VERTEX
  8
0
  6
CONTINUOUS
 10
6.786120
 20
3.171080
  0
VERTEX
  8
0
  6
CONTINUOUS
 10
6.773800
 20
3.215080
  0
VERTEX
  8
0
  6
CONTINUOUS
 10
6.755320
 20
3.255560
  0
VERTEX
  8
0
  6
CONTINUOUS
 10
6.731560
 20
3.292960
  0
VERTEX
  8
0
  6
CONTINUOUS
 10
6.702520
 20
3.326400
  0
VERTEX
  8
0
  6
CONTINUOUS
 10
6.669080
 20
3.355440
  0
VERTEX
  8
0
  6
CONTINUOUS
 10
6.631680
 20
3.379200
  0
VERTEX
  8
0
  6
CONTINUOUS
 10
6.591200
 20
3.397680
  0
VERTEX
  8
0
  6
CONTINUOUS
 10
6.547200
 20
3.410000
  0
VERTEX
  8
0
  6
CONTINUOUS
 10
6.516840
 20
3.414400
  0
VERTEX
  8
0
  6
CONTINUOUS
 10
6.485600
 20
3.416160
  0
VERTEX
  8
0
  6
CONTINUOUS
 10
6.461400
 20
3.415280
  0
VERTEX
  8
0
  6
CONTINUOUS
 10
6.414320
 20
3.407800
  0
VERTEX
  8
0
  6
CONTINUOUS
 10
6.391880
 20
3.401640
  0
VERTEX
  8
0
  6
CONTINUOUS
 10
6.370320
 20
3.393720
  0
VERTEX
  8
0
  6
CONTINUOUS
 10
6.329400
 20
3.373040
  0
VERTEX
  8
0
  6
CONTINUOUS
 10
6.292000
 20
3.347080
  0
VERTEX
  8
0
  6
CONTINUOUS
 10
6.259000
 20
3.315840
  0
VERTEX
  8
0
  6
CONTINUOUS
 10
6.231280
 20
3.280200
  0
VERTEX
  8
0
  6
CONTINUOUS
 10
6.218960
 20
3.260840
  0
VERTEX
  8
0
  6
CONTINUOUS
 10
6.199600
 20
3.219480
  0
VERTEX
  8
0
  6
CONTINUOUS
 10
6.109840
 20
3.219480
  0
VERTEX
  8
0
  6
CONTINUOUS
 10
6.093120
 20
3.475120
  0
SEQEND
  8
0
  0
SOLID
  8
0
 62
    15
 10
6.566560
 20
1.607760
 11
7.211160
 21
1.987040
 12
6.594720
 22
1.555840
 13
7.239320
 23
1.935120
  0
POLYLINE
  8
0
  6
CONTINUOUS
 66
     1
 40
0.000000
 41
0.000000
  0
VERTEX
  8
0
  6
CONTINUOUS
 10
6.566560
 20
1.607760
  0
VERTEX
  8
0
  6
CONTINUOUS
 10
7.211160
 20
1.987040
  0
VERTEX
  8
0
  6
CONTINUOUS
 10
7.239320
 20
1.935120
  0
VERTEX
  8
0
  6
CONTINUOUS
 10
6.594720
 20
1.555840
  0
VERTEX
  8
0
  6
CONTINUOUS
 10
6.566560
 20
1.607760
  0
SEQEND
  8
0
  0
SOLID
  8
0
 62
    15
 10
5.936480
 20
1.546600
 11
6.581080
 21
1.925880
 12
6.026240
 22
1.546600
 13
6.670840
 23
1.925880
  0
POLYLINE
  8
0
  6
CONTINUOUS
 66
     1
 40
0.000000
 41
0.000000
  0
VERTEX
  8
0
  6
CONTINUOUS
 10
5.936480
 20
1.546600
  0
VERTEX
  8
0
  6
CONTINUOUS
 10
6.581080
 20
1.925880
  0
VERTEX
  8
0
  6
CONTINUOUS
 10
6.670840
 20
1.925880
  0
VERTEX
  8
0
  6
CONTINUOUS
 10
6.026240
 20
1.546600
  0
VERTEX
  8
0
  6
CONTINUOUS
 10
5.936480
 20
1.546600
  0
SEQEND
  8
0
  0
SOLID
  8
0
 62
    15
 10
4.118840
 20
1.801800
 11
4.763440
 21
2.181080
 12
5.920200
 22
1.801800
 13
6.564360
 23
2.181080
  0
POLYLINE
  8
0
  6
CONTINUOUS
 66
     1
 40
0.000000
 41
0.000000
  0
VERTEX
  8
0
  6
CONTINUOUS
 10
4.118840
 20
1.801800
  0
VERTEX
  8
0
  6
CONTINUOUS
 10
4.763440
 20
2.181080
  0
VERTEX
  8
0
  6
CONTINUOUS
 10
6.564360
 20
2.181080
  0
VERTEX
  8
0
  6
CONTINUOUS
 10
5.920200
 20
1.801800
  0
VERTEX
  8
0
  6
CONTINUOUS
 10
4.118840
 20
1.801800
  0
SEQEND
  8
0
  0
SOLID
  8
0
 62
    15
 10
5.920200
 20
1.802240
 11
6.564360
 21
2.181520
 12
5.936480
 22
1.546600
 13
6.581080
 23
1.925880
  0
POLYLINE
  8
0
  6
CONTINUOUS
 66
     1
 40
0.000000
 41
0.000000
  0
VERTEX
  8
0
  6
CONTINUOUS
 10
5.920200
 20
1.802240
  0
VERTEX
  8
0
  6
CONTINUOUS
 10
6.564360
 20
2.181520
  0
VERTEX
  8
0
  6
CONTINUOUS
 10
6.581080
 20
1.925880
  0
VERTEX
  8
0
  6
CONTINUOUS
 10
5.936480
 20
1.546600
  0
VERTEX
  8
0
  6
CONTINUOUS
 10
5.920200
 20
1.802240
  0
SEQEND
  8
0
  0
SOLID
  8
0
 62
    15
 10
6.264280
 20
1.739320
 11
6.908880
 21
2.118600
 12
6.312240
 22
1.743280
 13
6.956840
 23
2.122560
  0
POLYLINE
  8
0
  6
CONTINUOUS
 66
     1
 40
0.000000
 41
0.000000
  0
VERTEX
  8
0
  6
CONTINUOUS
 10
6.264280
 20
1.739320
  0
VERTEX
  8
0
  6
CONTINUOUS
 10
6.908880
 20
2.118600
  0
VERTEX
  8
0
  6
CONTINUOUS
 10
6.956840
 20
2.122560
  0
VERTEX
  8
0
  6
CONTINUOUS
 10
6.312240
 20
1.743280
  0
VERTEX
  8
0
  6
CONTINUOUS
 10
6.264280
 20
1.739320
  0
SEQEND
  8
0
  0
SOLID
  8
0
 62
    15
 10
6.312240
 20
1.743280
 11
6.956840
 21
2.122560
 12
6.373840
 22
1.736680
 13
7.018440
 23
2.115960
  0
POLYLINE
  8
0
  6
CONTINUOUS
 66
     1
 40
0.000000
 41
0.000000
  0
VERTEX
  8
0
  6
CONTINUOUS
 10
6.312240
 20
1.743280
  0
VERTEX
  8
0
  6
CONTINUOUS
 10
6.956840
 20
2.122560
  0
VERTEX
  8
0
  6
CONTINUOUS
 10
7.018440
 20
2.115960
  0
VERTEX
  8
0
  6
CONTINUOUS
 10
6.373840
 20
1.736680
  0
VERTEX
  8
0
  6
CONTINUOUS
 10
6.312240
 20
1.743280
  0
SEQEND
  8
0
  0
SOLID
  8
0
 62
    15
 10
6.373840
 20
1.736680
 11
7.018440
 21
2.115960
 12
6.431480
 22
1.719080
 13
7.076080
 23
2.098360
  0
POLYLINE
  8
0
  6
CONTINUOUS
 66
     1
 40
0.000000
 41
0.000000
  0
VERTEX
  8
0
  6
CONTINUOUS
 10
6.373840
 20
1.736680
  0
VERTEX
  8
0
  6
CONTINUOUS
 10
7.018440
 20
2.115960
  0
VERTEX
  8
0
  6
CONTINUOUS
 10
7.076080
 20
2.098360
  0
VERTEX
  8
0
  6
CONTINUOUS
 10
6.431480
 20
1.719080
  0
VERTEX
  8
0
  6
CONTINUOUS
 10
6.373840
 20
1.736680
  0
SEQEND
  8
0
  0
SOLID
  8
0
 62
    15
 10
6.431480
 20
1.719080
 11
7.076080
 21
2.098360
 12
6.483840
 22
1.690920
 13
7.128000
 23
2.070200
  0
POLYLINE
  8
0
  6
CONTINUOUS
 66
     1
 40
0.000000
 41
0.000000
  0
VERTEX
  8
0
  6
CONTINUOUS
 10
6.431480
 20
1.719080
  0
VERTEX
  8
0
  6
CONTINUOUS
 10
7.076080
 20
2.098360
  0
VERTEX
  8
0
  6
CONTINUOUS
 10
7.128000
 20
2.070200
  0
VERTEX
  8
0
  6
CONTINUOUS
 10
6.483840
 20
1.690920
  0
VERTEX
  8
0
  6
CONTINUOUS
 10
6.431480
 20
1.719080
  0
SEQEND
  8
0
  0
SOLID
  8
0
 62
    15
 10
6.483840
 20
1.690920
 11
7.128000
 21
2.070200
 12
6.529160
 22
1.653080
 13
7.173760
 23
2.032360
  0
POLYLINE
  8
0
  6
CONTINUOUS
 66
     1
 40
0.000000
 41
0.000000
  0
VERTEX
  8
0
  6
CONTINUOUS
 10
6.483840
 20
1.690920
  0
VERTEX
  8
0
  6
CONTINUOUS
 10
7.128000
 20
2.070200
  0
VERTEX
  8
0
  6
CONTINUOUS
 10
7.173760
 20
2.032360
  0
VERTEX
  8
0
  6
CONTINUOUS
 10
6.529160
 20
1.653080
  0
VERTEX
  8
0
  6
CONTINUOUS
 10
6.483840
 20
1.690920
  0
SEQEND
  8
0
  0
SOLID
  8
0
 62
    15
 10
6.529160
 20
1.653080
 11
7.173760
 21
2.032360
 12
6.566560
 22
1.607760
 13
7.211160
 23
1.987040
  0
POLYLINE
  8
0
  6
CONTINUOUS
 66
     1
 40
0.000000
 41
0.000000
  0
VERTEX
  8
0
  6
CONTINUOUS
 10
6.529160
 20
1.653080
  0
VERTEX
  8
0
  6
CONTINUOUS
 10
7.173760
 20
2.032360
  0
VERTEX
  8
0
  6
CONTINUOUS
 10
7.211160
 20
1.987040
  0
VERTEX
  8
0
  6
CONTINUOUS
 10
6.566560
 20
1.607760
  0
VERTEX
  8
0
  6
CONTINUOUS
 10
6.529160
 20
1.653080
  0
SEQEND
  8
0
  0
SOLID
  8
0
 62
    15
 10
6.176280
 20
1.711160
 11
6.820440
 21
2.090440
 12
6.218960
 22
1.728760
 13
6.863120
 23
2.107600
  0
POLYLINE
  8
0
  6
CONTINUOUS
 66
     1
 40
0.000000
 41
0.000000
  0
VERTEX
  8
0
  6
CONTINUOUS
 10
6.176280
 20
1.711160
  0
VERTEX
  8
0
  6
CONTINUOUS
 10
6.820440
 20
2.090440
  0
VERTEX
  8
0
  6
CONTINUOUS
 10
6.863120
 20
2.107600
  0
VERTEX
  8
0
  6
CONTINUOUS
 10
6.218960
 20
1.728760
  0
VERTEX
  8
0
  6
CONTINUOUS
 10
6.176280
 20
1.711160
  0
SEQEND
  8
0
  0
SOLID
  8
0
 62
    15
 10
6.594720
 20
1.555840
 11
7.239320
 21
1.935120
 12
6.612760
 22
1.498200
 13
7.256920
 23
1.877480
  0
POLYLINE
  8
0
  6
CONTINUOUS
 66
     1
 40
0.000000
 41
0.000000
  0
VERTEX
  8
0
  6
CONTINUOUS
 10
6.594720
 20
1.555840
  0
VERTEX
  8
0
  6
CONTINUOUS
 10
7.239320
 20
1.935120
  0
VERTEX
  8
0
  6
CONTINUOUS
 10
7.256920
 20
1.877480
  0
VERTEX
  8
0
  6
CONTINUOUS
 10
6.612760
 20
1.498200
  0
VERTEX
  8
0
  6
CONTINUOUS
 10
6.594720
 20
1.555840
  0
SEQEND
  8
0
  0
SOLID
  8
0
 62
    15
 10
6.612760
 20
1.498200
 11
7.256920
 21
1.877480
 12
6.618920
 22
1.436600
 13
7.263520
 23
1.815880
  0
POLYLINE
  8
0
  6
CONTINUOUS
 66
     1
 40
0.000000
 41
0.000000
  0
VERTEX
  8
0
  6
CONTINUOUS
 10
6.612760
 20
1.498200
  0
VERTEX
  8
0
  6
CONTINUOUS
 10
7.256920
 20
1.877480
  0
VERTEX
  8
0
  6
CONTINUOUS
 10
7.263520
 20
1.815880
  0
VERTEX
  8
0
  6
CONTINUOUS
 10
6.618920
 20
1.436600
  0
VERTEX
  8
0
  6
CONTINUOUS
 10
6.612760
 20
1.498200
  0
SEQEND
  8
0
  0
SOLID
  8
0
 62
    15
 10
6.618920
 20
1.436600
 11
7.263520
 21
1.815880
 12
6.612760
 22
1.375000
 13
7.256920
 23
1.753840
  0
POLYLINE
  8
0
  6
CONTINUOUS
 66
     1
 40
0.000000
 41
0.000000
  0
VERTEX
  8
0
  6
CONTINUOUS
 10
6.618920
 20
1.436600
  0
VERTEX
  8
0
  6
CONTINUOUS
 10
7.263520
 20
1.815880
  0
VERTEX
  8
0
  6
CONTINUOUS
 10
7.256920
 20
1.753840
  0
VERTEX
  8
0
  6
CONTINUOUS
 10
6.612760
 20
1.375000
  0
VERTEX
  8
0
  6
CONTINUOUS
 10
6.618920
 20
1.436600
  0
SEQEND
  8
0
  0
SOLID
  8
0
 62
    15
 10
6.612760
 20
1.375000
 11
7.256920
 21
1.753840
 12
6.594720
 22
1.317360
 13
7.239320
 23
1.696640
  0
POLYLINE
  8
0
  6
CONTINUOUS
 66
     1
 40
0.000000
 41
0.000000
  0
VERTEX
  8
0
  6
CONTINUOUS
 10
6.612760
 20
1.375000
  0
VERTEX
  8
0
  6
CONTINUOUS
 10
7.256920
 20
1.753840
  0
VERTEX
  8
0
  6
CONTINUOUS
 10
7.239320
 20
1.696640
  0
VERTEX
  8
0
  6
CONTINUOUS
 10
6.594720
 20
1.317360
  0
VERTEX
  8
0
  6
CONTINUOUS
 10
6.612760
 20
1.375000
  0
SEQEND
  8
0
  0
SOLID
  8
0
 62
    15
 10
6.292000
 20
1.129920
 11
6.936600
 21
1.509200
 12
6.292000
 22
1.061720
 13
6.936600
 23
1.441000
  0
POLYLINE
  8
0
  6
CONTINUOUS
 66
     1
 40
0.000000
 41
0.000000
  0
VERTEX
  8
0
  6
CONTINUOUS
 10
6.292000
 20
1.129920
  0
VERTEX
  8
0
  6
CONTINUOUS
 10
6.936600
 20
1.509200
  0
VERTEX
  8
0
  6
CONTINUOUS
 10
6.936600
 20
1.441000
  0
VERTEX
  8
0
  6
CONTINUOUS
 10
6.292000
 20
1.061720
  0
VERTEX
  8
0
  6
CONTINUOUS
 10
6.292000
 20
1.129920
  0
SEQEND
  8
0
  0
SOLID
  8
0
 62
    15
 10
6.566560
 20
1.265000
 11
7.211160
 21
1.644280
 12
6.529160
 22
1.219680
 13
7.173760
 23
1.598960
  0
POLYLINE
  8
0
  6
CONTINUOUS
 66
     1
 40
0.000000
 41
0.000000
  0
VERTEX
  8
0
  6
CONTINUOUS
 10
6.566560
 20
1.265000
  0
VERTEX
  8
0
  6
CONTINUOUS
 10
7.211160
 20
1.644280
  0
VERTEX
  8
0
  6
CONTINUOUS
 10
7.173760
 20
1.598960
  0
VERTEX
  8
0
  6
CONTINUOUS
 10
6.529160
 20
1.219680
  0
VERTEX
  8
0
  6
CONTINUOUS
 10
6.566560
 20
1.265000
  0
SEQEND
  8
0
  0
SOLID
  8
0
 62
    15
 10
6.529160
 20
1.219680
 11
7.173760
 21
1.598960
 12
6.483840
 22
1.182280
 13
7.128000
 23
1.561560
  0
POLYLINE
  8
0
  6
CONTINUOUS
 66
     1
 40
0.000000
 41
0.000000
  0
VERTEX
  8
0
  6
CONTINUOUS
 10
6.529160
 20
1.219680
  0
VERTEX
  8
0
  6
CONTINUOUS
 10
7.173760
 20
1.598960
  0
VERTEX
  8
0
  6
CONTINUOUS
 10
7.128000
 20
1.561560
  0
VERTEX
  8
0
  6
CONTINUOUS
 10
6.483840
 20
1.182280
  0
VERTEX
  8
0
  6
CONTINUOUS
 10
6.529160
 20
1.219680
  0
SEQEND
  8
0
  0
SOLID
  8
0
 62
    15
 10
6.594720
 20
1.317360
 11
7.239320
 21
1.696640
 12
6.566560
 22
1.265000
 13
7.211160
 23
1.644280
  0
POLYLINE
  8
0
  6
CONTINUOUS
 66
     1
 40
0.000000
 41
0.000000
  0
VERTEX
  8
0
  6
CONTINUOUS
 10
6.594720
 20
1.317360
  0
VERTEX
  8
0
  6
CONTINUOUS
 10
7.239320
 20
1.696640
  0
VERTEX
  8
0
  6
CONTINUOUS
 10
7.211160
 20
1.644280
  0
VERTEX
  8
0
  6
CONTINUOUS
 10
6.566560
 20
1.265000
  0
VERTEX
  8
0
  6
CONTINUOUS
 10
6.594720
 20
1.317360
  0
SEQEND
  8
0
  0
SOLID
  8
0
 62
    15
 10
6.218960
 20
1.728760
 11
6.863120
 21
2.107600
 12
6.264280
 22
1.739320
 13
6.908880
 23
2.118600
  0
POLYLINE
  8
0
  6
CONTINUOUS
 66
     1
 40
0.000000
 41
0.000000
  0
VERTEX
  8
0
  6
CONTINUOUS
 10
6.218960
 20
1.728760
  0
VERTEX
  8
0
  6
CONTINUOUS
 10
6.863120
 20
2.107600
  0
VERTEX
  8
0
  6
CONTINUOUS
 10
6.908880
 20
2.118600
  0
VERTEX
  8
0
  6
CONTINUOUS
 10
6.264280
 20
1.739320
  0
VERTEX
  8
0
  6
CONTINUOUS
 10
6.218960
 20
1.728760
  0
SEQEND
  8
0
  0
POLYLINE
  8
0
  6
CONTINUOUS
 66
     1
 40
0.000000
 41
0.000000
  0
VERTEX
  8
0
  6
CONTINUOUS
 10
5.920200
 20
1.802240
  0
VERTEX
  8
0
  6
CONTINUOUS
 10
5.936480
 20
1.546600
  0
VERTEX
  8
0
  6
CONTINUOUS
 10
6.026240
 20
1.546600
  0
VERTEX
  8
0
  6
CONTINUOUS
 10
6.045600
 20
1.587960
  0
VERTEX
  8
0
  6
CONTINUOUS
 10
6.071120
 20
1.625800
  0
VERTEX
  8
0
  6
CONTINUOUS
 10
6.101480
 20
1.659240
  0
VERTEX
  8
0
  6
CONTINUOUS
 10
6.136680
 20
1.687840
  0
VERTEX
  8
0
  6
CONTINUOUS
 10
6.176280
 20
1.711160
  0
VERTEX
  8
0
  6
CONTINUOUS
 10
6.218960
 20
1.728760
  0
VERTEX
  8
0
  6
CONTINUOUS
 10
6.264280
 20
1.739320
  0
VERTEX
  8
0
  6
CONTINUOUS
 10
6.312240
 20
1.743280
  0
VERTEX
  8
0
  6
CONTINUOUS
 10
6.373840
 20
1.736680
  0
VERTEX
  8
0
  6
CONTINUOUS
 10
6.431480
 20
1.719080
  0
VERTEX
  8
0
  6
CONTINUOUS
 10
6.483840
 20
1.690920
  0
VERTEX
  8
0
  6
CONTINUOUS
 10
6.529160
 20
1.653080
  0
VERTEX
  8
0
  6
CONTINUOUS
 10
6.566560
 20
1.607760
  0
VERTEX
  8
0
  6
CONTINUOUS
 10
6.594720
 20
1.555840
  0
VERTEX
  8
0
  6
CONTINUOUS
 10
6.612760
 20
1.498200
  0
VERTEX
  8
0
  6
CONTINUOUS
 10
6.618920
 20
1.436600
  0
VERTEX
  8
0
  6
CONTINUOUS
 10
6.612760
 20
1.375000
  0
VERTEX
  8
0
  6
CONTINUOUS
 10
6.594720
 20
1.317360
  0
VERTEX
  8
0
  6
CONTINUOUS
 10
6.566560
 20
1.265000
  0
VERTEX
  8
0
  6
CONTINUOUS
 10
6.529160
 20
1.219680
  0
VERTEX
  8
0
  6
CONTINUOUS
 10
6.483840
 20
1.182280
  0
VERTEX
  8
0
  6
CONTINUOUS
 10
6.431480
 20
1.154120
  0
VERTEX
  8
0
  6
CONTINUOUS
 10
6.373840
 20
1.136080
  0
VERTEX
  8
0
  6
CONTINUOUS
 10
6.312240
 20
1.129920
  0
VERTEX
  8
0
  6
CONTINUOUS
 10
6.292000
 20
1.129920
  0
VERTEX
  8
0
  6
CONTINUOUS
 10
6.292000
 20
1.061720
  0
VERTEX
  8
0
  6
CONTINUOUS
 10
4.118840
 20
1.061720
  0
VERTEX
  8
0
  6
CONTINUOUS
 10
4.118840
 20
1.801800
  0
VERTEX
  8
0
  6
CONTINUOUS
 10
5.920200
 20
1.801800
  0
VERTEX
  8
0
  6
CONTINUOUS
 10
5.920200
 20
1.802240
  0
SEQEND
  8
0
  0
TEXT
  8
0
 10
5.397040
 20
0.839080
 40
0.138121
  1
BA  570
 41
1.000000
  7
SN0
 71
     0
 72
     5
 11
5.987147
 21
0.839080
  0
TEXT
  8
0
 10
5.240840
 20
0.647680
 40
0.138121
  1
3/4" x 2-1/2"
 41
1.000000
  7
SN0
 71
     0
 72
     5
 11
6.141257
 21
0.647680
  0
ENDSEC
  0
EOF
