  0
SECTION
  2
HEADER
  9
$ACADVER
  1
AC1006
  9
$EXTMIN
 10
2.911920
 20
0.533280
  9
$EXTMAX
 10
7.105560
 20
2.278760
  9
$LTSCALE
 40
0.044000
  9
$PDMODE
 70
    35
  9
$PDSIZE
 40
0.035200
  0
ENDSEC
  0
SECTION
  2
TABLES
  0
TABLE
  2
LTYPE
 70
     9
  0
LTYPE
  2
CONTINUOUS
 70
    64
  3
Solid line
 72
    65
 73
     0
 40
0.000000
  0
LTYPE
  2
DASHED
 70
    64
  3
__ __ __ __ __ __ __ __ __ __ __ __ __ __ __
 72
    65
 73
     2
 40
0.000330
 49
0.000220
 49
-0.000110
  0
LTYPE
  2
HIDDEN
 70
    64
  3
 _ _ _ _ _ _ _ _ _ _ _ _ _ _ _ _ _ _ _ _ _ _
 72
    65
 73
     2
 40
0.000165
 49
0.000110
 49
-0.000055
  0
LTYPE
  2
CENTER
 70
    64
  3
____ _ ____ _ ____ _ ____ _ ____ _ ____ _ ____
 72
    65
 73
     4
 40
0.000880
 49
0.000550
 49
-0.000110
 49
0.000110
 49
-0.000110
  0
LTYPE
  2
PHANTOM
 70
    64
  3
_____ _ _ _____ _ _ _____ _ _ _____ _ _ ____
 72
    65
 73
     6
 40
0.001100
 49
0.000550
 49
-0.000110
 49
0.000110
 49
-0.000110
 49
0.000110
 49
-0.000110
  0
LTYPE
  2
DOT
 70
    64
  3
...............................................
 72
    65
 73
     2
 40
0.000110
 49
0.000000
 49
-0.000110
  0
LTYPE
  2
DASHDOT
 70
    64
  3
__ . __ . __ . __ . __ . __ . __ . __ . __ . __
 72
    65
 73
     4
 40
0.000440
 49
0.000220
 49
-0.000110
 49
0.000000
 49
-0.000110
  0
LTYPE
  2
BORDER
 70
    64
  3
__ __ . __ __ . __ __ . __ __ . __ __ . __ __
 72
    65
 73
     6
 40
0.000770
 49
0.000220
 49
-0.000110
 49
0.000220
 49
-0.000110
 49
0.000000
 49
-0.000110
  0
LTYPE
  2
DIVIDE
 70
    64
  3
__ . . __ . . __ . . __ . . __ . . __ . . __
 72
    65
 73
     6
 40
0.000550
 49
0.000220
 49
-0.000110
 49
0.000000
 49
-0.000110
 49
0.000000
 49
-0.000110
  0
LTYPE
  2
DOTDOT
 70
    64
  3
 . .  . .  . .  . .  . .  . . 
 72
    65
 73
     5
 40
0.000242
 49
-0.000110
 49
0.000000
 49
-0.000110
 49
0.000000
 49
-0.000110
  0
ENDTAB
  0
TABLE
  2
STYLE
 70
     2
  0
STYLE
 70
     0
  2
SN0
 40
0.000000
 41
0.000440
 50
0.000000
 71
     0
 42
0.000000
  3
ROMAND
  0
STYLE
 70
    68
  2
SV0
 40
0.000000
 41
0.000440
 50
0.000000
 71
     0
 42
0.000000
  3
ROMAND
  0
ENDTAB
  0
TABLE
  2
LAYER
 70
     3
  0
LAYER
  2
FOREGROUND
 70
    64
 62
     7
  6
CONTINUOUS
  0
LAYER
  2
BACKGROUND
 70
    65
 62
    -7
  6
CONTINUOUS
  0
LAYER
  2
0
 70
    64
 62
     7
  6
CONTINUOUS
  0
ENDTAB
  0
ENDSEC
  0
SECTION
  2
ENTITIES
  0
POLYLINE
  8
FOREGROUND
  6
CONTINUOUS
 66
     1
 40
0.000000
 41
0.000000
  0
VERTEX
  8
FOREGROUND
  6
CONTINUOUS
 10
0.000000
 20
2.812040
  0
VERTEX
  8
FOREGROUND
  6
CONTINUOUS
 10
8.499920
 20
2.812040
  0
VERTEX
  8
FOREGROUND
  6
CONTINUOUS
 10
8.499920
 20
-8.187960
  0
VERTEX
  8
FOREGROUND
  6
CONTINUOUS
 10
0.000000
 20
-8.187960
  0
VERTEX
  8
FOREGROUND
  6
CONTINUOUS
 10
0.000000
 20
2.812040
  0
SEQEND
  8
0
  0
POLYLINE
  8
FOREGROUND
  6
CONTINUOUS
 66
     1
 40
0.000000
 41
0.000000
  0
VERTEX
  8
FOREGROUND
  6
CONTINUOUS
 10
0.000000
 20
2.812040
  0
VERTEX
  8
FOREGROUND
  6
CONTINUOUS
 10
8.499920
 20
2.812040
  0
VERTEX
  8
FOREGROUND
  6
CONTINUOUS
 10
8.499920
 20
-8.187960
  0
VERTEX
  8
FOREGROUND
  6
CONTINUOUS
 10
0.000000
 20
-8.187960
  0
VERTEX
  8
FOREGROUND
  6
CONTINUOUS
 10
0.000000
 20
2.812040
  0
SEQEND
  8
0
  0
POLYLINE
  8
0
  6
CONTINUOUS
 66
     1
 40
0.014080
 41
0.014080
  0
VERTEX
  8
0
  6
CONTINUOUS
 10
6.459200
 20
1.870440
  0
VERTEX
  8
0
  6
CONTINUOUS
 10
6.424000
 20
1.871760
  0
VERTEX
  8
0
  6
CONTINUOUS
 10
6.388800
 20
1.877040
  0
VERTEX
  8
0
  6
CONTINUOUS
 10
6.355360
 20
1.886280
  0
VERTEX
  8
0
  6
CONTINUOUS
 10
6.325000
 20
1.901680
  0
VERTEX
  8
0
  6
CONTINUOUS
 10
6.311360
 20
1.911360
  0
VERTEX
  8
0
  6
CONTINUOUS
 10
6.293320
 20
1.929840
  0
VERTEX
  8
0
  6
CONTINUOUS
 10
6.278800
 20
1.952720
  0
VERTEX
  8
0
  6
CONTINUOUS
 10
6.268240
 20
1.980440
  0
VERTEX
  8
0
  6
CONTINUOUS
 10
6.262520
 20
2.013880
  0
VERTEX
  8
0
  6
CONTINUOUS
 10
6.261200
 20
2.038960
  0
VERTEX
  8
0
  6
CONTINUOUS
 10
6.123480
 20
2.038960
  0
VERTEX
  8
0
  6
CONTINUOUS
 10
6.101920
 20
2.085160
  0
VERTEX
  8
0
  6
CONTINUOUS
 10
6.075520
 20
2.124760
  0
VERTEX
  8
0
  6
CONTINUOUS
 10
6.045600
 20
2.158200
  0
VERTEX
  8
0
  6
CONTINUOUS
 10
6.012600
 20
2.185920
  0
VERTEX
  8
0
  6
CONTINUOUS
 10
5.976520
 20
2.207920
  0
VERTEX
  8
0
  6
CONTINUOUS
 10
5.939120
 20
2.224200
  0
VERTEX
  8
0
  6
CONTINUOUS
 10
5.900400
 20
2.235200
  0
VERTEX
  8
0
  6
CONTINUOUS
 10
5.881040
 20
2.239160
  0
VERTEX
  8
0
  6
CONTINUOUS
 10
5.841880
 20
2.242680
  0
VERTEX
  8
0
  6
CONTINUOUS
 10
5.803160
 20
2.241360
  0
VERTEX
  8
0
  6
CONTINUOUS
 10
5.765760
 20
2.236080
  0
VERTEX
  8
0
  6
CONTINUOUS
 10
5.730560
 20
2.225960
  0
VERTEX
  8
0
  6
CONTINUOUS
 10
5.697560
 20
2.211880
  0
VERTEX
  8
0
  6
CONTINUOUS
 10
5.668080
 20
2.193840
  0
VERTEX
  8
0
  6
CONTINUOUS
 10
5.642560
 20
2.172280
  0
VERTEX
  8
0
  6
CONTINUOUS
 10
5.621440
 20
2.146760
  0
VERTEX
  8
0
  6
CONTINUOUS
 10
5.594160
 20
2.103640
  0
VERTEX
  8
0
  6
CONTINUOUS
 10
5.583600
 20
2.093520
  0
VERTEX
  8
0
  6
CONTINUOUS
 10
5.562920
 20
2.083400
  0
VERTEX
  8
0
  6
CONTINUOUS
 10
5.532120
 20
2.078560
  0
VERTEX
  8
0
  6
CONTINUOUS
 10
5.486800
 20
2.078120
  0
VERTEX
  8
0
  6
CONTINUOUS
 10
5.463040
 20
2.078560
  0
VERTEX
  8
0
  6
CONTINUOUS
 10
5.463040
 20
1.341120
  0
VERTEX
  8
0
  6
CONTINUOUS
 10
7.098520
 20
1.341120
  0
VERTEX
  8
0
  6
CONTINUOUS
 10
7.098520
 20
1.532960
  0
VERTEX
  8
0
  6
CONTINUOUS
 10
7.068600
 20
1.533400
  0
VERTEX
  8
0
  6
CONTINUOUS
 10
7.029880
 20
1.538240
  0
VERTEX
  8
0
  6
CONTINUOUS
 10
6.996440
 20
1.547040
  0
VERTEX
  8
0
  6
CONTINUOUS
 10
6.967400
 20
1.559360
  0
VERTEX
  8
0
  6
CONTINUOUS
 10
6.941440
 20
1.574320
  0
VERTEX
  8
0
  6
CONTINUOUS
 10
6.908000
 20
1.601160
  0
VERTEX
  8
0
  6
CONTINUOUS
 10
6.827920
 20
1.680800
  0
VERTEX
  8
0
  6
CONTINUOUS
 10
6.794040
 20
1.707640
  0
VERTEX
  8
0
  6
CONTINUOUS
 10
6.768520
 20
1.723040
  0
VERTEX
  8
0
  6
CONTINUOUS
 10
6.739040
 20
1.735800
  0
VERTEX
  8
0
  6
CONTINUOUS
 10
6.705160
 20
1.745480
  0
VERTEX
  8
0
  6
CONTINUOUS
 10
6.666000
 20
1.750760
  0
VERTEX
  8
0
  6
CONTINUOUS
 10
6.636080
 20
1.751640
  0
VERTEX
  8
0
  6
CONTINUOUS
 10
6.633880
 20
1.870440
  0
VERTEX
  8
0
  6
CONTINUOUS
 10
6.429720
 20
1.870440
  0
VERTEX
  8
0
  6
CONTINUOUS
 10
6.459200
 20
1.870440
  0
SEQEND
  8
0
  0
SOLID
  8
0
 62
    15
 10
3.003440
 20
1.749880
 11
3.648040
 21
2.116840
 12
3.020160
 22
1.754720
 13
3.664760
 23
2.121680
  0
POLYLINE
  8
0
  6
CONTINUOUS
 66
     1
 40
0.000000
 41
0.000000
  0
VERTEX
  8
0
  6
CONTINUOUS
 10
3.003440
 20
1.749880
  0
VERTEX
  8
0
  6
CONTINUOUS
 10
3.648040
 20
2.116840
  0
VERTEX
  8
0
  6
CONTINUOUS
 10
3.664760
 20
2.121680
  0
VERTEX
  8
0
  6
CONTINUOUS
 10
3.020160
 20
1.754720
  0
VERTEX
  8
0
  6
CONTINUOUS
 10
3.003440
 20
1.749880
  0
SEQEND
  8
0
  0
SOLID
  8
0
 62
    15
 10
4.083640
 20
1.539120
 11
4.727800
 21
1.905640
 12
4.085840
 22
1.420320
 13
4.730000
 23
1.786840
  0
POLYLINE
  8
0
  6
CONTINUOUS
 66
     1
 40
0.000000
 41
0.000000
  0
VERTEX
  8
0
  6
CONTINUOUS
 10
4.083640
 20
1.539120
  0
VERTEX
  8
0
  6
CONTINUOUS
 10
4.727800
 20
1.905640
  0
VERTEX
  8
0
  6
CONTINUOUS
 10
4.730000
 20
1.786840
  0
VERTEX
  8
0
  6
CONTINUOUS
 10
4.085840
 20
1.420320
  0
VERTEX
  8
0
  6
CONTINUOUS
 10
4.083640
 20
1.539120
  0
SEQEND
  8
0
  0
SOLID
  8
0
 62
    15
 10
4.085840
 20
1.420320
 11
4.730000
 21
1.786840
 12
4.093760
 22
1.420320
 13
4.738360
 23
1.786840
  0
POLYLINE
  8
0
  6
CONTINUOUS
 66
     1
 40
0.000000
 41
0.000000
  0
VERTEX
  8
0
  6
CONTINUOUS
 10
4.085840
 20
1.420320
  0
VERTEX
  8
0
  6
CONTINUOUS
 10
4.730000
 20
1.786840
  0
VERTEX
  8
0
  6
CONTINUOUS
 10
4.738360
 20
1.786840
  0
VERTEX
  8
0
  6
CONTINUOUS
 10
4.093760
 20
1.420320
  0
VERTEX
  8
0
  6
CONTINUOUS
 10
4.085840
 20
1.420320
  0
SEQEND
  8
0
  0
SOLID
  8
0
 62
    15
 10
4.093760
 20
1.420320
 11
4.738360
 21
1.786840
 12
4.136000
 22
1.417240
 13
4.780160
 23
1.783760
  0
POLYLINE
  8
0
  6
CONTINUOUS
 66
     1
 40
0.000000
 41
0.000000
  0
VERTEX
  8
0
  6
CONTINUOUS
 10
4.093760
 20
1.420320
  0
VERTEX
  8
0
  6
CONTINUOUS
 10
4.738360
 20
1.786840
  0
VERTEX
  8
0
  6
CONTINUOUS
 10
4.780160
 20
1.783760
  0
VERTEX
  8
0
  6
CONTINUOUS
 10
4.136000
 20
1.417240
  0
VERTEX
  8
0
  6
CONTINUOUS
 10
4.093760
 20
1.420320
  0
SEQEND
  8
0
  0
SOLID
  8
0
 62
    15
 10
4.136000
 20
1.417240
 11
4.780160
 21
1.783760
 12
4.172080
 22
1.409760
 13
4.816680
 23
1.776280
  0
POLYLINE
  8
0
  6
CONTINUOUS
 66
     1
 40
0.000000
 41
0.000000
  0
VERTEX
  8
0
  6
CONTINUOUS
 10
4.136000
 20
1.417240
  0
VERTEX
  8
0
  6
CONTINUOUS
 10
4.780160
 20
1.783760
  0
VERTEX
  8
0
  6
CONTINUOUS
 10
4.816680
 20
1.776280
  0
VERTEX
  8
0
  6
CONTINUOUS
 10
4.172080
 20
1.409760
  0
VERTEX
  8
0
  6
CONTINUOUS
 10
4.136000
 20
1.417240
  0
SEQEND
  8
0
  0
SOLID
  8
0
 62
    15
 10
4.172080
 20
1.409760
 11
4.816680
 21
1.776280
 12
4.203760
 22
1.398320
 13
4.847920
 23
1.765280
  0
POLYLINE
  8
0
  6
CONTINUOUS
 66
     1
 40
0.000000
 41
0.000000
  0
VERTEX
  8
0
  6
CONTINUOUS
 10
4.172080
 20
1.409760
  0
VERTEX
  8
0
  6
CONTINUOUS
 10
4.816680
 20
1.776280
  0
VERTEX
  8
0
  6
CONTINUOUS
 10
4.847920
 20
1.765280
  0
VERTEX
  8
0
  6
CONTINUOUS
 10
4.203760
 20
1.398320
  0
VERTEX
  8
0
  6
CONTINUOUS
 10
4.172080
 20
1.409760
  0
SEQEND
  8
0
  0
SOLID
  8
0
 62
    15
 10
4.203760
 20
1.398320
 11
4.847920
 21
1.765280
 12
4.231480
 22
1.384240
 13
4.875640
 23
1.751200
  0
POLYLINE
  8
0
  6
CONTINUOUS
 66
     1
 40
0.000000
 41
0.000000
  0
VERTEX
  8
0
  6
CONTINUOUS
 10
4.203760
 20
1.398320
  0
VERTEX
  8
0
  6
CONTINUOUS
 10
4.847920
 20
1.765280
  0
VERTEX
  8
0
  6
CONTINUOUS
 10
4.875640
 20
1.751200
  0
VERTEX
  8
0
  6
CONTINUOUS
 10
4.231480
 20
1.384240
  0
VERTEX
  8
0
  6
CONTINUOUS
 10
4.203760
 20
1.398320
  0
SEQEND
  8
0
  0
SOLID
  8
0
 62
    15
 10
4.231480
 20
1.384240
 11
4.875640
 21
1.751200
 12
4.277680
 22
1.349040
 13
4.922280
 23
1.716000
  0
POLYLINE
  8
0
  6
CONTINUOUS
 66
     1
 40
0.000000
 41
0.000000
  0
VERTEX
  8
0
  6
CONTINUOUS
 10
4.231480
 20
1.384240
  0
VERTEX
  8
0
  6
CONTINUOUS
 10
4.875640
 20
1.751200
  0
VERTEX
  8
0
  6
CONTINUOUS
 10
4.922280
 20
1.716000
  0
VERTEX
  8
0
  6
CONTINUOUS
 10
4.277680
 20
1.349040
  0
VERTEX
  8
0
  6
CONTINUOUS
 10
4.231480
 20
1.384240
  0
SEQEND
  8
0
  0
SOLID
  8
0
 62
    15
 10
4.277680
 20
1.349040
 11
4.922280
 21
1.716000
 12
4.297920
 22
1.329680
 13
4.942520
 23
1.696200
  0
POLYLINE
  8
0
  6
CONTINUOUS
 66
     1
 40
0.000000
 41
0.000000
  0
VERTEX
  8
0
  6
CONTINUOUS
 10
4.277680
 20
1.349040
  0
VERTEX
  8
0
  6
CONTINUOUS
 10
4.922280
 20
1.716000
  0
VERTEX
  8
0
  6
CONTINUOUS
 10
4.942520
 20
1.696200
  0
VERTEX
  8
0
  6
CONTINUOUS
 10
4.297920
 20
1.329680
  0
VERTEX
  8
0
  6
CONTINUOUS
 10
4.277680
 20
1.349040
  0
SEQEND
  8
0
  0
SOLID
  8
0
 62
    15
 10
4.297920
 20
1.329680
 11
4.942520
 21
1.696200
 12
4.317720
 22
1.309440
 13
4.961880
 23
1.675960
  0
POLYLINE
  8
0
  6
CONTINUOUS
 66
     1
 40
0.000000
 41
0.000000
  0
VERTEX
  8
0
  6
CONTINUOUS
 10
4.297920
 20
1.329680
  0
VERTEX
  8
0
  6
CONTINUOUS
 10
4.942520
 20
1.696200
  0
VERTEX
  8
0
  6
CONTINUOUS
 10
4.961880
 20
1.675960
  0
VERTEX
  8
0
  6
CONTINUOUS
 10
4.317720
 20
1.309440
  0
VERTEX
  8
0
  6
CONTINUOUS
 10
4.297920
 20
1.329680
  0
SEQEND
  8
0
  0
SOLID
  8
0
 62
    15
 10
4.317720
 20
1.309440
 11
4.961880
 21
1.675960
 12
4.357760
 22
1.269400
 13
5.001920
 23
1.636360
  0
POLYLINE
  8
0
  6
CONTINUOUS
 66
     1
 40
0.000000
 41
0.000000
  0
VERTEX
  8
0
  6
CONTINUOUS
 10
4.317720
 20
1.309440
  0
VERTEX
  8
0
  6
CONTINUOUS
 10
4.961880
 20
1.675960
  0
VERTEX
  8
0
  6
CONTINUOUS
 10
5.001920
 20
1.636360
  0
VERTEX
  8
0
  6
CONTINUOUS
 10
4.357760
 20
1.269400
  0
VERTEX
  8
0
  6
CONTINUOUS
 10
4.317720
 20
1.309440
  0
SEQEND
  8
0
  0
SOLID
  8
0
 62
    15
 10
4.357760
 20
1.269400
 11
5.001920
 21
1.636360
 12
4.403520
 22
1.235080
 13
5.048120
 23
1.601600
  0
POLYLINE
  8
0
  6
CONTINUOUS
 66
     1
 40
0.000000
 41
0.000000
  0
VERTEX
  8
0
  6
CONTINUOUS
 10
4.357760
 20
1.269400
  0
VERTEX
  8
0
  6
CONTINUOUS
 10
5.001920
 20
1.636360
  0
VERTEX
  8
0
  6
CONTINUOUS
 10
5.048120
 20
1.601600
  0
VERTEX
  8
0
  6
CONTINUOUS
 10
4.403520
 20
1.235080
  0
VERTEX
  8
0
  6
CONTINUOUS
 10
4.357760
 20
1.269400
  0
SEQEND
  8
0
  0
SOLID
  8
0
 62
    15
 10
4.403520
 20
1.235080
 11
5.048120
 21
1.601600
 12
4.431240
 22
1.221440
 13
5.075400
 23
1.587960
  0
POLYLINE
  8
0
  6
CONTINUOUS
 66
     1
 40
0.000000
 41
0.000000
  0
VERTEX
  8
0
  6
CONTINUOUS
 10
4.403520
 20
1.235080
  0
VERTEX
  8
0
  6
CONTINUOUS
 10
5.048120
 20
1.601600
  0
VERTEX
  8
0
  6
CONTINUOUS
 10
5.075400
 20
1.587960
  0
VERTEX
  8
0
  6
CONTINUOUS
 10
4.431240
 20
1.221440
  0
VERTEX
  8
0
  6
CONTINUOUS
 10
4.403520
 20
1.235080
  0
SEQEND
  8
0
  0
SOLID
  8
0
 62
    15
 10
4.431240
 20
1.221440
 11
5.075400
 21
1.587960
 12
4.462480
 22
1.210880
 13
5.106640
 23
1.577400
  0
POLYLINE
  8
0
  6
CONTINUOUS
 66
     1
 40
0.000000
 41
0.000000
  0
VERTEX
  8
0
  6
CONTINUOUS
 10
4.431240
 20
1.221440
  0
VERTEX
  8
0
  6
CONTINUOUS
 10
5.075400
 20
1.587960
  0
VERTEX
  8
0
  6
CONTINUOUS
 10
5.106640
 20
1.577400
  0
VERTEX
  8
0
  6
CONTINUOUS
 10
4.462480
 20
1.210880
  0
VERTEX
  8
0
  6
CONTINUOUS
 10
4.431240
 20
1.221440
  0
SEQEND
  8
0
  0
SOLID
  8
0
 62
    15
 10
4.462480
 20
1.210880
 11
5.106640
 21
1.577400
 12
4.498120
 22
1.203840
 13
5.142720
 23
1.570800
  0
POLYLINE
  8
0
  6
CONTINUOUS
 66
     1
 40
0.000000
 41
0.000000
  0
VERTEX
  8
0
  6
CONTINUOUS
 10
4.462480
 20
1.210880
  0
VERTEX
  8
0
  6
CONTINUOUS
 10
5.106640
 20
1.577400
  0
VERTEX
  8
0
  6
CONTINUOUS
 10
5.142720
 20
1.570800
  0
VERTEX
  8
0
  6
CONTINUOUS
 10
4.498120
 20
1.203840
  0
VERTEX
  8
0
  6
CONTINUOUS
 10
4.462480
 20
1.210880
  0
SEQEND
  8
0
  0
SOLID
  8
0
 62
    15
 10
4.498120
 20
1.203840
 11
5.142720
 21
1.570800
 12
4.539920
 22
1.201640
 13
5.184080
 23
1.568160
  0
POLYLINE
  8
0
  6
CONTINUOUS
 66
     1
 40
0.000000
 41
0.000000
  0
VERTEX
  8
0
  6
CONTINUOUS
 10
4.498120
 20
1.203840
  0
VERTEX
  8
0
  6
CONTINUOUS
 10
5.142720
 20
1.570800
  0
VERTEX
  8
0
  6
CONTINUOUS
 10
5.184080
 20
1.568160
  0
VERTEX
  8
0
  6
CONTINUOUS
 10
4.539920
 20
1.201640
  0
VERTEX
  8
0
  6
CONTINUOUS
 10
4.498120
 20
1.203840
  0
SEQEND
  8
0
  0
SOLID
  8
0
 62
    15
 10
4.539920
 20
1.201640
 11
5.184080
 21
1.568160
 12
4.548280
 22
1.201640
 13
5.192440
 23
1.568160
  0
POLYLINE
  8
0
  6
CONTINUOUS
 66
     1
 40
0.000000
 41
0.000000
  0
VERTEX
  8
0
  6
CONTINUOUS
 10
4.539920
 20
1.201640
  0
VERTEX
  8
0
  6
CONTINUOUS
 10
5.184080
 20
1.568160
  0
VERTEX
  8
0
  6
CONTINUOUS
 10
5.192440
 20
1.568160
  0
VERTEX
  8
0
  6
CONTINUOUS
 10
4.548280
 20
1.201640
  0
VERTEX
  8
0
  6
CONTINUOUS
 10
4.539920
 20
1.201640
  0
SEQEND
  8
0
  0
SOLID
  8
0
 62
    15
 10
4.548280
 20
1.201640
 11
5.192440
 21
1.568160
 12
4.548280
 22
1.009800
 13
5.192440
 23
1.376320
  0
POLYLINE
  8
0
  6
CONTINUOUS
 66
     1
 40
0.000000
 41
0.000000
  0
VERTEX
  8
0
  6
CONTINUOUS
 10
4.548280
 20
1.201640
  0
VERTEX
  8
0
  6
CONTINUOUS
 10
5.192440
 20
1.568160
  0
VERTEX
  8
0
  6
CONTINUOUS
 10
5.192440
 20
1.376320
  0
VERTEX
  8
0
  6
CONTINUOUS
 10
4.548280
 20
1.009800
  0
VERTEX
  8
0
  6
CONTINUOUS
 10
4.548280
 20
1.201640
  0
SEQEND
  8
0
  0
SOLID
  8
0
 62
    15
 10
2.912800
 20
1.747240
 11
3.556960
 21
2.114200
 12
2.916760
 22
1.747240
 13
3.561360
 23
2.114200
  0
POLYLINE
  8
0
  6
CONTINUOUS
 66
     1
 40
0.000000
 41
0.000000
  0
VERTEX
  8
0
  6
CONTINUOUS
 10
2.912800
 20
1.747240
  0
VERTEX
  8
0
  6
CONTINUOUS
 10
3.556960
 20
2.114200
  0
VERTEX
  8
0
  6
CONTINUOUS
 10
3.561360
 20
2.114200
  0
VERTEX
  8
0
  6
CONTINUOUS
 10
2.916760
 20
1.747240
  0
VERTEX
  8
0
  6
CONTINUOUS
 10
2.912800
 20
1.747240
  0
SEQEND
  8
0
  0
SOLID
  8
0
 62
    15
 10
2.916760
 20
1.747240
 11
3.561360
 21
2.114200
 12
2.953280
 22
1.746360
 13
3.597440
 23
2.113320
  0
POLYLINE
  8
0
  6
CONTINUOUS
 66
     1
 40
0.000000
 41
0.000000
  0
VERTEX
  8
0
  6
CONTINUOUS
 10
2.916760
 20
1.747240
  0
VERTEX
  8
0
  6
CONTINUOUS
 10
3.561360
 20
2.114200
  0
VERTEX
  8
0
  6
CONTINUOUS
 10
3.597440
 20
2.113320
  0
VERTEX
  8
0
  6
CONTINUOUS
 10
2.953280
 20
1.746360
  0
VERTEX
  8
0
  6
CONTINUOUS
 10
2.916760
 20
1.747240
  0
SEQEND
  8
0
  0
SOLID
  8
0
 62
    15
 10
2.953280
 20
1.746360
 11
3.597440
 21
2.113320
 12
2.981440
 22
1.747240
 13
3.626040
 23
2.114200
  0
POLYLINE
  8
0
  6
CONTINUOUS
 66
     1
 40
0.000000
 41
0.000000
  0
VERTEX
  8
0
  6
CONTINUOUS
 10
2.953280
 20
1.746360
  0
VERTEX
  8
0
  6
CONTINUOUS
 10
3.597440
 20
2.113320
  0
VERTEX
  8
0
  6
CONTINUOUS
 10
3.626040
 20
2.114200
  0
VERTEX
  8
0
  6
CONTINUOUS
 10
2.981440
 20
1.747240
  0
VERTEX
  8
0
  6
CONTINUOUS
 10
2.953280
 20
1.746360
  0
SEQEND
  8
0
  0
SOLID
  8
0
 62
    15
 10
2.981440
 20
1.747240
 11
3.626040
 21
2.114200
 12
3.003440
 22
1.749880
 13
3.648040
 23
2.116840
  0
POLYLINE
  8
0
  6
CONTINUOUS
 66
     1
 40
0.000000
 41
0.000000
  0
VERTEX
  8
0
  6
CONTINUOUS
 10
2.981440
 20
1.747240
  0
VERTEX
  8
0
  6
CONTINUOUS
 10
3.626040
 20
2.114200
  0
VERTEX
  8
0
  6
CONTINUOUS
 10
3.648040
 20
2.116840
  0
VERTEX
  8
0
  6
CONTINUOUS
 10
3.003440
 20
1.749880
  0
VERTEX
  8
0
  6
CONTINUOUS
 10
2.981440
 20
1.747240
  0
SEQEND
  8
0
  0
SOLID
  8
0
 62
    15
 10
3.879480
 20
1.539120
 11
4.523640
 21
1.905640
 12
4.083640
 22
1.539120
 13
4.727800
 23
1.905640
  0
POLYLINE
  8
0
  6
CONTINUOUS
 66
     1
 40
0.000000
 41
0.000000
  0
VERTEX
  8
0
  6
CONTINUOUS
 10
3.879480
 20
1.539120
  0
VERTEX
  8
0
  6
CONTINUOUS
 10
4.523640
 20
1.905640
  0
VERTEX
  8
0
  6
CONTINUOUS
 10
4.727800
 20
1.905640
  0
VERTEX
  8
0
  6
CONTINUOUS
 10
4.083640
 20
1.539120
  0
VERTEX
  8
0
  6
CONTINUOUS
 10
3.879480
 20
1.539120
  0
SEQEND
  8
0
  0
SOLID
  8
0
 62
    15
 10
3.131920
 20
1.871760
 11
3.776520
 21
2.238720
 12
3.163160
 22
1.888040
 13
3.807760
 23
2.254560
  0
POLYLINE
  8
0
  6
CONTINUOUS
 66
     1
 40
0.000000
 41
0.000000
  0
VERTEX
  8
0
  6
CONTINUOUS
 10
3.131920
 20
1.871760
  0
VERTEX
  8
0
  6
CONTINUOUS
 10
3.776520
 20
2.238720
  0
VERTEX
  8
0
  6
CONTINUOUS
 10
3.807760
 20
2.254560
  0
VERTEX
  8
0
  6
CONTINUOUS
 10
3.163160
 20
1.888040
  0
VERTEX
  8
0
  6
CONTINUOUS
 10
3.131920
 20
1.871760
  0
SEQEND
  8
0
  0
SOLID
  8
0
 62
    15
 10
3.163160
 20
1.888040
 11
3.807760
 21
2.254560
 12
3.197480
 22
1.899920
 13
3.842080
 23
2.266880
  0
POLYLINE
  8
0
  6
CONTINUOUS
 66
     1
 40
0.000000
 41
0.000000
  0
VERTEX
  8
0
  6
CONTINUOUS
 10
3.163160
 20
1.888040
  0
VERTEX
  8
0
  6
CONTINUOUS
 10
3.807760
 20
2.254560
  0
VERTEX
  8
0
  6
CONTINUOUS
 10
3.842080
 20
2.266880
  0
VERTEX
  8
0
  6
CONTINUOUS
 10
3.197480
 20
1.899920
  0
VERTEX
  8
0
  6
CONTINUOUS
 10
3.163160
 20
1.888040
  0
SEQEND
  8
0
  0
SOLID
  8
0
 62
    15
 10
3.197480
 20
1.899920
 11
3.842080
 21
2.266880
 12
3.234000
 22
1.907840
 13
3.878160
 23
2.274360
  0
POLYLINE
  8
0
  6
CONTINUOUS
 66
     1
 40
0.000000
 41
0.000000
  0
VERTEX
  8
0
  6
CONTINUOUS
 10
3.197480
 20
1.899920
  0
VERTEX
  8
0
  6
CONTINUOUS
 10
3.842080
 20
2.266880
  0
VERTEX
  8
0
  6
CONTINUOUS
 10
3.878160
 20
2.274360
  0
VERTEX
  8
0
  6
CONTINUOUS
 10
3.234000
 20
1.907840
  0
VERTEX
  8
0
  6
CONTINUOUS
 10
3.197480
 20
1.899920
  0
SEQEND
  8
0
  0
SOLID
  8
0
 62
    15
 10
3.234000
 20
1.907840
 11
3.878160
 21
2.274360
 12
3.271840
 22
1.911360
 13
3.916440
 23
2.277880
  0
POLYLINE
  8
0
  6
CONTINUOUS
 66
     1
 40
0.000000
 41
0.000000
  0
VERTEX
  8
0
  6
CONTINUOUS
 10
3.234000
 20
1.907840
  0
VERTEX
  8
0
  6
CONTINUOUS
 10
3.878160
 20
2.274360
  0
VERTEX
  8
0
  6
CONTINUOUS
 10
3.916440
 20
2.277880
  0
VERTEX
  8
0
  6
CONTINUOUS
 10
3.271840
 20
1.911360
  0
VERTEX
  8
0
  6
CONTINUOUS
 10
3.234000
 20
1.907840
  0
SEQEND
  8
0
  0
SOLID
  8
0
 62
    15
 10
3.271840
 20
1.911360
 11
3.916440
 21
2.277880
 12
3.311000
 22
1.910040
 13
3.955160
 23
2.276560
  0
POLYLINE
  8
0
  6
CONTINUOUS
 66
     1
 40
0.000000
 41
0.000000
  0
VERTEX
  8
0
  6
CONTINUOUS
 10
3.271840
 20
1.911360
  0
VERTEX
  8
0
  6
CONTINUOUS
 10
3.916440
 20
2.277880
  0
VERTEX
  8
0
  6
CONTINUOUS
 10
3.955160
 20
2.276560
  0
VERTEX
  8
0
  6
CONTINUOUS
 10
3.311000
 20
1.910040
  0
VERTEX
  8
0
  6
CONTINUOUS
 10
3.271840
 20
1.911360
  0
SEQEND
  8
0
  0
SOLID
  8
0
 62
    15
 10
3.311000
 20
1.910040
 11
3.955160
 21
2.276560
 12
3.350160
 22
1.903880
 13
3.994320
 23
2.270840
  0
POLYLINE
  8
0
  6
CONTINUOUS
 66
     1
 40
0.000000
 41
0.000000
  0
VERTEX
  8
0
  6
CONTINUOUS
 10
3.311000
 20
1.910040
  0
VERTEX
  8
0
  6
CONTINUOUS
 10
3.955160
 20
2.276560
  0
VERTEX
  8
0
  6
CONTINUOUS
 10
3.994320
 20
2.270840
  0
VERTEX
  8
0
  6
CONTINUOUS
 10
3.350160
 20
1.903880
  0
VERTEX
  8
0
  6
CONTINUOUS
 10
3.311000
 20
1.910040
  0
SEQEND
  8
0
  0
SOLID
  8
0
 62
    15
 10
3.350160
 20
1.903880
 11
3.994320
 21
2.270840
 12
3.388880
 22
1.892880
 13
4.033040
 23
2.259400
  0
POLYLINE
  8
0
  6
CONTINUOUS
 66
     1
 40
0.000000
 41
0.000000
  0
VERTEX
  8
0
  6
CONTINUOUS
 10
3.350160
 20
1.903880
  0
VERTEX
  8
0
  6
CONTINUOUS
 10
3.994320
 20
2.270840
  0
VERTEX
  8
0
  6
CONTINUOUS
 10
4.033040
 20
2.259400
  0
VERTEX
  8
0
  6
CONTINUOUS
 10
3.388880
 20
1.892880
  0
VERTEX
  8
0
  6
CONTINUOUS
 10
3.350160
 20
1.903880
  0
SEQEND
  8
0
  0
SOLID
  8
0
 62
    15
 10
3.388880
 20
1.892880
 11
4.033040
 21
2.259400
 12
3.426280
 22
1.876600
 13
4.070880
 23
2.243120
  0
POLYLINE
  8
0
  6
CONTINUOUS
 66
     1
 40
0.000000
 41
0.000000
  0
VERTEX
  8
0
  6
CONTINUOUS
 10
3.388880
 20
1.892880
  0
VERTEX
  8
0
  6
CONTINUOUS
 10
4.033040
 20
2.259400
  0
VERTEX
  8
0
  6
CONTINUOUS
 10
4.070880
 20
2.243120
  0
VERTEX
  8
0
  6
CONTINUOUS
 10
3.426280
 20
1.876600
  0
VERTEX
  8
0
  6
CONTINUOUS
 10
3.388880
 20
1.892880
  0
SEQEND
  8
0
  0
SOLID
  8
0
 62
    15
 10
3.426280
 20
1.876600
 11
4.070880
 21
2.243120
 12
3.461920
 22
1.854600
 13
4.106520
 23
2.221120
  0
POLYLINE
  8
0
  6
CONTINUOUS
 66
     1
 40
0.000000
 41
0.000000
  0
VERTEX
  8
0
  6
CONTINUOUS
 10
3.426280
 20
1.876600
  0
VERTEX
  8
0
  6
CONTINUOUS
 10
4.070880
 20
2.243120
  0
VERTEX
  8
0
  6
CONTINUOUS
 10
4.106520
 20
2.221120
  0
VERTEX
  8
0
  6
CONTINUOUS
 10
3.461920
 20
1.854600
  0
VERTEX
  8
0
  6
CONTINUOUS
 10
3.426280
 20
1.876600
  0
SEQEND
  8
0
  0
SOLID
  8
0
 62
    15
 10
3.461920
 20
1.854600
 11
4.106520
 21
2.221120
 12
3.495360
 22
1.826880
 13
4.139520
 23
2.193400
  0
POLYLINE
  8
0
  6
CONTINUOUS
 66
     1
 40
0.000000
 41
0.000000
  0
VERTEX
  8
0
  6
CONTINUOUS
 10
3.461920
 20
1.854600
  0
VERTEX
  8
0
  6
CONTINUOUS
 10
4.106520
 20
2.221120
  0
VERTEX
  8
0
  6
CONTINUOUS
 10
4.139520
 20
2.193400
  0
VERTEX
  8
0
  6
CONTINUOUS
 10
3.495360
 20
1.826880
  0
VERTEX
  8
0
  6
CONTINUOUS
 10
3.461920
 20
1.854600
  0
SEQEND
  8
0
  0
SOLID
  8
0
 62
    15
 10
3.495360
 20
1.826880
 11
4.139520
 21
2.193400
 12
3.525280
 22
1.793440
 13
4.169880
 23
2.159960
  0
POLYLINE
  8
0
  6
CONTINUOUS
 66
     1
 40
0.000000
 41
0.000000
  0
VERTEX
  8
0
  6
CONTINUOUS
 10
3.495360
 20
1.826880
  0
VERTEX
  8
0
  6
CONTINUOUS
 10
4.139520
 20
2.193400
  0
VERTEX
  8
0
  6
CONTINUOUS
 10
4.169880
 20
2.159960
  0
VERTEX
  8
0
  6
CONTINUOUS
 10
3.525280
 20
1.793440
  0
VERTEX
  8
0
  6
CONTINUOUS
 10
3.495360
 20
1.826880
  0
SEQEND
  8
0
  0
SOLID
  8
0
 62
    15
 10
3.525280
 20
1.793440
 11
4.169880
 21
2.159960
 12
3.551680
 22
1.753840
 13
4.195840
 23
2.120360
  0
POLYLINE
  8
0
  6
CONTINUOUS
 66
     1
 40
0.000000
 41
0.000000
  0
VERTEX
  8
0
  6
CONTINUOUS
 10
3.525280
 20
1.793440
  0
VERTEX
  8
0
  6
CONTINUOUS
 10
4.169880
 20
2.159960
  0
VERTEX
  8
0
  6
CONTINUOUS
 10
4.195840
 20
2.120360
  0
VERTEX
  8
0
  6
CONTINUOUS
 10
3.551680
 20
1.753840
  0
VERTEX
  8
0
  6
CONTINUOUS
 10
3.525280
 20
1.793440
  0
SEQEND
  8
0
  0
SOLID
  8
0
 62
    15
 10
3.551680
 20
1.753840
 11
4.195840
 21
2.120360
 12
3.573240
 22
1.707640
 13
4.217400
 23
2.074600
  0
POLYLINE
  8
0
  6
CONTINUOUS
 66
     1
 40
0.000000
 41
0.000000
  0
VERTEX
  8
0
  6
CONTINUOUS
 10
3.551680
 20
1.753840
  0
VERTEX
  8
0
  6
CONTINUOUS
 10
4.195840
 20
2.120360
  0
VERTEX
  8
0
  6
CONTINUOUS
 10
4.217400
 20
2.074600
  0
VERTEX
  8
0
  6
CONTINUOUS
 10
3.573240
 20
1.707640
  0
VERTEX
  8
0
  6
CONTINUOUS
 10
3.551680
 20
1.753840
  0
SEQEND
  8
0
  0
SOLID
  8
0
 62
    15
 10
3.573240
 20
1.707640
 11
4.217400
 21
2.074600
 12
3.710520
 22
1.707640
 13
4.355120
 23
2.074600
  0
POLYLINE
  8
0
  6
CONTINUOUS
 66
     1
 40
0.000000
 41
0.000000
  0
VERTEX
  8
0
  6
CONTINUOUS
 10
3.573240
 20
1.707640
  0
VERTEX
  8
0
  6
CONTINUOUS
 10
4.217400
 20
2.074600
  0
VERTEX
  8
0
  6
CONTINUOUS
 10
4.355120
 20
2.074600
  0
VERTEX
  8
0
  6
CONTINUOUS
 10
3.710520
 20
1.707640
  0
VERTEX
  8
0
  6
CONTINUOUS
 10
3.573240
 20
1.707640
  0
SEQEND
  8
0
  0
SOLID
  8
0
 62
    15
 10
3.710520
 20
1.707640
 11
4.355120
 21
2.074600
 12
3.715360
 22
1.659680
 13
4.359520
 23
2.026640
  0
POLYLINE
  8
0
  6
CONTINUOUS
 66
     1
 40
0.000000
 41
0.000000
  0
VERTEX
  8
0
  6
CONTINUOUS
 10
3.710520
 20
1.707640
  0
VERTEX
  8
0
  6
CONTINUOUS
 10
4.355120
 20
2.074600
  0
VERTEX
  8
0
  6
CONTINUOUS
 10
4.359520
 20
2.026640
  0
VERTEX
  8
0
  6
CONTINUOUS
 10
3.715360
 20
1.659680
  0
VERTEX
  8
0
  6
CONTINUOUS
 10
3.710520
 20
1.707640
  0
SEQEND
  8
0
  0
SOLID
  8
0
 62
    15
 10
3.715360
 20
1.659680
 11
4.359520
 21
2.026640
 12
3.728560
 22
1.621400
 13
4.372720
 23
1.988360
  0
POLYLINE
  8
0
  6
CONTINUOUS
 66
     1
 40
0.000000
 41
0.000000
  0
VERTEX
  8
0
  6
CONTINUOUS
 10
3.715360
 20
1.659680
  0
VERTEX
  8
0
  6
CONTINUOUS
 10
4.359520
 20
2.026640
  0
VERTEX
  8
0
  6
CONTINUOUS
 10
4.372720
 20
1.988360
  0
VERTEX
  8
0
  6
CONTINUOUS
 10
3.728560
 20
1.621400
  0
VERTEX
  8
0
  6
CONTINUOUS
 10
3.715360
 20
1.659680
  0
SEQEND
  8
0
  0
SOLID
  8
0
 62
    15
 10
3.728560
 20
1.621400
 11
4.372720
 21
1.988360
 12
3.748800
 22
1.591920
 13
4.392960
 23
1.958880
  0
POLYLINE
  8
0
  6
CONTINUOUS
 66
     1
 40
0.000000
 41
0.000000
  0
VERTEX
  8
0
  6
CONTINUOUS
 10
3.728560
 20
1.621400
  0
VERTEX
  8
0
  6
CONTINUOUS
 10
4.372720
 20
1.988360
  0
VERTEX
  8
0
  6
CONTINUOUS
 10
4.392960
 20
1.958880
  0
VERTEX
  8
0
  6
CONTINUOUS
 10
3.748800
 20
1.591920
  0
VERTEX
  8
0
  6
CONTINUOUS
 10
3.728560
 20
1.621400
  0
SEQEND
  8
0
  0
SOLID
  8
0
 62
    15
 10
3.748800
 20
1.591920
 11
4.392960
 21
1.958880
 12
3.774320
 22
1.570360
 13
4.418920
 23
1.936880
  0
POLYLINE
  8
0
  6
CONTINUOUS
 66
     1
 40
0.000000
 41
0.000000
  0
VERTEX
  8
0
  6
CONTINUOUS
 10
3.748800
 20
1.591920
  0
VERTEX
  8
0
  6
CONTINUOUS
 10
4.392960
 20
1.958880
  0
VERTEX
  8
0
  6
CONTINUOUS
 10
4.418920
 20
1.936880
  0
VERTEX
  8
0
  6
CONTINUOUS
 10
3.774320
 20
1.570360
  0
VERTEX
  8
0
  6
CONTINUOUS
 10
3.748800
 20
1.591920
  0
SEQEND
  8
0
  0
SOLID
  8
0
 62
    15
 10
3.774320
 20
1.570360
 11
4.418920
 21
1.936880
 12
3.804680
 22
1.554960
 13
4.449280
 23
1.921920
  0
POLYLINE
  8
0
  6
CONTINUOUS
 66
     1
 40
0.000000
 41
0.000000
  0
VERTEX
  8
0
  6
CONTINUOUS
 10
3.774320
 20
1.570360
  0
VERTEX
  8
0
  6
CONTINUOUS
 10
4.418920
 20
1.936880
  0
VERTEX
  8
0
  6
CONTINUOUS
 10
4.449280
 20
1.921920
  0
VERTEX
  8
0
  6
CONTINUOUS
 10
3.804680
 20
1.554960
  0
VERTEX
  8
0
  6
CONTINUOUS
 10
3.774320
 20
1.570360
  0
SEQEND
  8
0
  0
SOLID
  8
0
 62
    15
 10
3.804680
 20
1.554960
 11
4.449280
 21
1.921920
 12
3.838120
 22
1.545280
 13
4.482280
 23
1.912240
  0
POLYLINE
  8
0
  6
CONTINUOUS
 66
     1
 40
0.000000
 41
0.000000
  0
VERTEX
  8
0
  6
CONTINUOUS
 10
3.804680
 20
1.554960
  0
VERTEX
  8
0
  6
CONTINUOUS
 10
4.449280
 20
1.921920
  0
VERTEX
  8
0
  6
CONTINUOUS
 10
4.482280
 20
1.912240
  0
VERTEX
  8
0
  6
CONTINUOUS
 10
3.838120
 20
1.545280
  0
VERTEX
  8
0
  6
CONTINUOUS
 10
3.804680
 20
1.554960
  0
SEQEND
  8
0
  0
SOLID
  8
0
 62
    15
 10
3.838120
 20
1.545280
 11
4.482280
 21
1.912240
 12
3.908520
 22
1.539120
 13
4.553120
 23
1.905640
  0
POLYLINE
  8
0
  6
CONTINUOUS
 66
     1
 40
0.000000
 41
0.000000
  0
VERTEX
  8
0
  6
CONTINUOUS
 10
3.838120
 20
1.545280
  0
VERTEX
  8
0
  6
CONTINUOUS
 10
4.482280
 20
1.912240
  0
VERTEX
  8
0
  6
CONTINUOUS
 10
4.553120
 20
1.905640
  0
VERTEX
  8
0
  6
CONTINUOUS
 10
3.908520
 20
1.539120
  0
VERTEX
  8
0
  6
CONTINUOUS
 10
3.838120
 20
1.545280
  0
SEQEND
  8
0
  0
POLYLINE
  8
0
  6
CONTINUOUS
 66
     1
 40
0.000000
 41
0.000000
  0
VERTEX
  8
0
  6
CONTINUOUS
 10
3.879480
 20
1.539120
  0
VERTEX
  8
0
  6
CONTINUOUS
 10
4.083640
 20
1.539120
  0
VERTEX
  8
0
  6
CONTINUOUS
 10
4.085840
 20
1.420320
  0
VERTEX
  8
0
  6
CONTINUOUS
 10
4.136000
 20
1.417240
  0
VERTEX
  8
0
  6
CONTINUOUS
 10
4.172080
 20
1.409760
  0
VERTEX
  8
0
  6
CONTINUOUS
 10
4.203760
 20
1.398320
  0
VERTEX
  8
0
  6
CONTINUOUS
 10
4.231480
 20
1.384240
  0
VERTEX
  8
0
  6
CONTINUOUS
 10
4.277680
 20
1.349040
  0
VERTEX
  8
0
  6
CONTINUOUS
 10
4.357760
 20
1.269400
  0
VERTEX
  8
0
  6
CONTINUOUS
 10
4.403520
 20
1.235080
  0
VERTEX
  8
0
  6
CONTINUOUS
 10
4.431240
 20
1.221440
  0
VERTEX
  8
0
  6
CONTINUOUS
 10
4.462480
 20
1.210880
  0
VERTEX
  8
0
  6
CONTINUOUS
 10
4.498120
 20
1.203840
  0
VERTEX
  8
0
  6
CONTINUOUS
 10
4.548280
 20
1.201640
  0
VERTEX
  8
0
  6
CONTINUOUS
 10
4.548280
 20
1.009800
  0
VERTEX
  8
0
  6
CONTINUOUS
 10
2.912800
 20
1.009800
  0
VERTEX
  8
0
  6
CONTINUOUS
 10
2.912800
 20
1.747240
  0
VERTEX
  8
0
  6
CONTINUOUS
 10
2.953280
 20
1.746360
  0
VERTEX
  8
0
  6
CONTINUOUS
 10
2.981440
 20
1.747240
  0
VERTEX
  8
0
  6
CONTINUOUS
 10
3.003440
 20
1.749880
  0
VERTEX
  8
0
  6
CONTINUOUS
 10
3.020160
 20
1.754720
  0
VERTEX
  8
0
  6
CONTINUOUS
 10
3.043920
 20
1.772320
  0
VERTEX
  8
0
  6
CONTINUOUS
 10
3.081320
 20
1.828200
  0
VERTEX
  8
0
  6
CONTINUOUS
 10
3.104640
 20
1.851960
  0
VERTEX
  8
0
  6
CONTINUOUS
 10
3.131920
 20
1.871760
  0
VERTEX
  8
0
  6
CONTINUOUS
 10
3.163160
 20
1.888040
  0
VERTEX
  8
0
  6
CONTINUOUS
 10
3.197480
 20
1.899920
  0
VERTEX
  8
0
  6
CONTINUOUS
 10
3.234000
 20
1.907840
  0
VERTEX
  8
0
  6
CONTINUOUS
 10
3.271840
 20
1.911360
  0
VERTEX
  8
0
  6
CONTINUOUS
 10
3.311000
 20
1.910040
  0
VERTEX
  8
0
  6
CONTINUOUS
 10
3.350160
 20
1.903880
  0
VERTEX
  8
0
  6
CONTINUOUS
 10
3.388880
 20
1.892880
  0
VERTEX
  8
0
  6
CONTINUOUS
 10
3.426280
 20
1.876600
  0
VERTEX
  8
0
  6
CONTINUOUS
 10
3.461920
 20
1.854600
  0
VERTEX
  8
0
  6
CONTINUOUS
 10
3.495360
 20
1.826880
  0
VERTEX
  8
0
  6
CONTINUOUS
 10
3.525280
 20
1.793440
  0
VERTEX
  8
0
  6
CONTINUOUS
 10
3.551680
 20
1.753840
  0
VERTEX
  8
0
  6
CONTINUOUS
 10
3.573240
 20
1.707640
  0
VERTEX
  8
0
  6
CONTINUOUS
 10
3.710520
 20
1.707640
  0
VERTEX
  8
0
  6
CONTINUOUS
 10
3.715360
 20
1.659680
  0
VERTEX
  8
0
  6
CONTINUOUS
 10
3.728560
 20
1.621400
  0
VERTEX
  8
0
  6
CONTINUOUS
 10
3.748800
 20
1.591920
  0
VERTEX
  8
0
  6
CONTINUOUS
 10
3.774320
 20
1.570360
  0
VERTEX
  8
0
  6
CONTINUOUS
 10
3.804680
 20
1.554960
  0
VERTEX
  8
0
  6
CONTINUOUS
 10
3.838120
 20
1.545280
  0
VERTEX
  8
0
  6
CONTINUOUS
 10
3.908520
 20
1.539120
  0
VERTEX
  8
0
  6
CONTINUOUS
 10
3.879480
 20
1.539120
  0
SEQEND
  8
0
  0
TEXT
  8
0
 10
3.758040
 20
0.768240
 40
0.138203
  1
BA  568
 41
1.000000
  7
SN0
 71
     0
 72
     5
 11
4.348505
 21
0.768240
  0
TEXT
  8
0
 10
3.509880
 20
0.576400
 40
0.138203
  1
15/16" x 1-5/8"
 41
1.000000
  7
SN0
 71
     0
 72
     5
 11
4.594984
 21
0.576400
  0
ENDSEC
  0
EOF
