  0
SECTION
  2
HEADER
  9
$ACADVER
  1
AC1006
  9
$EXTMIN
 10
2.597320
 20
0.740520
  9
$EXTMAX
 10
6.962560
 20
3.960440
  9
$LTSCALE
 40
0.044000
  9
$PDMODE
 70
    35
  9
$PDSIZE
 40
0.035200
  0
ENDSEC
  0
SECTION
  2
TABLES
  0
TABLE
  2
LTYPE
 70
     9
  0
LTYPE
  2
CONTINUOUS
 70
    64
  3
Solid line
 72
    65
 73
     0
 40
0.000000
  0
LTYPE
  2
DASHED
 70
    64
  3
__ __ __ __ __ __ __ __ __ __ __ __ __ __ __
 72
    65
 73
     2
 40
0.000330
 49
0.000220
 49
-0.000110
  0
LTYPE
  2
HIDDEN
 70
    64
  3
 _ _ _ _ _ _ _ _ _ _ _ _ _ _ _ _ _ _ _ _ _ _
 72
    65
 73
     2
 40
0.000165
 49
0.000110
 49
-0.000055
  0
LTYPE
  2
CENTER
 70
    64
  3
____ _ ____ _ ____ _ ____ _ ____ _ ____ _ ____
 72
    65
 73
     4
 40
0.000880
 49
0.000550
 49
-0.000110
 49
0.000110
 49
-0.000110
  0
LTYPE
  2
PHANTOM
 70
    64
  3
_____ _ _ _____ _ _ _____ _ _ _____ _ _ ____
 72
    65
 73
     6
 40
0.001100
 49
0.000550
 49
-0.000110
 49
0.000110
 49
-0.000110
 49
0.000110
 49
-0.000110
  0
LTYPE
  2
DOT
 70
    64
  3
...............................................
 72
    65
 73
     2
 40
0.000110
 49
0.000000
 49
-0.000110
  0
LTYPE
  2
DASHDOT
 70
    64
  3
__ . __ . __ . __ . __ . __ . __ . __ . __ . __
 72
    65
 73
     4
 40
0.000440
 49
0.000220
 49
-0.000110
 49
0.000000
 49
-0.000110
  0
LTYPE
  2
BORDER
 70
    64
  3
__ __ . __ __ . __ __ . __ __ . __ __ . __ __
 72
    65
 73
     6
 40
0.000770
 49
0.000220
 49
-0.000110
 49
0.000220
 49
-0.000110
 49
0.000000
 49
-0.000110
  0
LTYPE
  2
DIVIDE
 70
    64
  3
__ . . __ . . __ . . __ . . __ . . __ . . __
 72
    65
 73
     6
 40
0.000550
 49
0.000220
 49
-0.000110
 49
0.000000
 49
-0.000110
 49
0.000000
 49
-0.000110
  0
LTYPE
  2
DOTDOT
 70
    64
  3
 . .  . .  . .  . .  . .  . . 
 72
    65
 73
     5
 40
0.000242
 49
-0.000110
 49
0.000000
 49
-0.000110
 49
0.000000
 49
-0.000110
  0
ENDTAB
  0
TABLE
  2
STYLE
 70
     2
  0
STYLE
 70
     0
  2
SN0
 40
0.000000
 41
0.000440
 50
0.000000
 71
     0
 42
0.000000
  3
ROMAND
  0
STYLE
 70
    68
  2
SV0
 40
0.000000
 41
0.000440
 50
0.000000
 71
     0
 42
0.000000
  3
ROMAND
  0
ENDTAB
  0
TABLE
  2
LAYER
 70
     3
  0
LAYER
  2
FOREGROUND
 70
    64
 62
     7
  6
CONTINUOUS
  0
LAYER
  2
BACKGROUND
 70
    65
 62
    -7
  6
CONTINUOUS
  0
LAYER
  2
0
 70
    64
 62
     7
  6
CONTINUOUS
  0
ENDTAB
  0
ENDSEC
  0
SECTION
  2
ENTITIES
  0
POLYLINE
  8
FOREGROUND
  6
CONTINUOUS
 66
     1
 40
0.000000
 41
0.000000
  0
VERTEX
  8
FOREGROUND
  6
CONTINUOUS
 10
0.000000
 20
4.700960
  0
VERTEX
  8
FOREGROUND
  6
CONTINUOUS
 10
8.499920
 20
4.700960
  0
VERTEX
  8
FOREGROUND
  6
CONTINUOUS
 10
8.499920
 20
-6.299040
  0
VERTEX
  8
FOREGROUND
  6
CONTINUOUS
 10
0.000000
 20
-6.299040
  0
VERTEX
  8
FOREGROUND
  6
CONTINUOUS
 10
0.000000
 20
4.700960
  0
SEQEND
  8
0
  0
POLYLINE
  8
FOREGROUND
  6
CONTINUOUS
 66
     1
 40
0.000000
 41
0.000000
  0
VERTEX
  8
FOREGROUND
  6
CONTINUOUS
 10
0.000000
 20
4.700960
  0
VERTEX
  8
FOREGROUND
  6
CONTINUOUS
 10
8.499920
 20
4.700960
  0
VERTEX
  8
FOREGROUND
  6
CONTINUOUS
 10
8.499920
 20
-6.299040
  0
VERTEX
  8
FOREGROUND
  6
CONTINUOUS
 10
0.000000
 20
-6.299040
  0
VERTEX
  8
FOREGROUND
  6
CONTINUOUS
 10
0.000000
 20
4.700960
  0
SEQEND
  8
0
  0
POLYLINE
  8
0
  6
CONTINUOUS
 66
     1
 40
0.014080
 41
0.014080
  0
VERTEX
  8
0
  6
CONTINUOUS
 10
6.102800
 20
3.684120
  0
VERTEX
  8
0
  6
CONTINUOUS
 10
6.134040
 20
3.680600
  0
VERTEX
  8
0
  6
CONTINUOUS
 10
6.160440
 20
3.671360
  0
VERTEX
  8
0
  6
CONTINUOUS
 10
6.183320
 20
3.657720
  0
VERTEX
  8
0
  6
CONTINUOUS
 10
6.193000
 20
3.649800
  0
VERTEX
  8
0
  6
CONTINUOUS
 10
6.208840
 20
3.630440
  0
VERTEX
  8
0
  6
CONTINUOUS
 10
6.221160
 20
3.608880
  0
VERTEX
  8
0
  6
CONTINUOUS
 10
6.229080
 20
3.585560
  0
VERTEX
  8
0
  6
CONTINUOUS
 10
6.232600
 20
3.560480
  0
VERTEX
  8
0
  6
CONTINUOUS
 10
6.232600
 20
3.535840
  0
VERTEX
  8
0
  6
CONTINUOUS
 10
6.228200
 20
3.511200
  0
VERTEX
  8
0
  6
CONTINUOUS
 10
6.219840
 20
3.487440
  0
VERTEX
  8
0
  6
CONTINUOUS
 10
6.207520
 20
3.465880
  0
VERTEX
  8
0
  6
CONTINUOUS
 10
6.190800
 20
3.446960
  0
VERTEX
  8
0
  6
CONTINUOUS
 10
6.170560
 20
3.431560
  0
VERTEX
  8
0
  6
CONTINUOUS
 10
6.159120
 20
3.425400
  0
VERTEX
  8
0
  6
CONTINUOUS
 10
6.132720
 20
3.417040
  0
VERTEX
  8
0
  6
CONTINUOUS
 10
6.118200
 20
3.414400
  0
VERTEX
  8
0
  6
CONTINUOUS
 10
6.102800
 20
3.413520
  0
VERTEX
  8
0
  6
CONTINUOUS
 10
5.894240
 20
3.413520
  0
VERTEX
  8
0
  6
CONTINUOUS
 10
5.894240
 20
3.140280
  0
VERTEX
  8
0
  6
CONTINUOUS
 10
2.607000
 20
3.140720
  0
VERTEX
  8
0
  6
CONTINUOUS
 10
2.607000
 20
3.407360
  0
VERTEX
  8
0
  6
CONTINUOUS
 10
2.988040
 20
3.407360
  0
VERTEX
  8
0
  6
CONTINUOUS
 10
2.988040
 20
3.688520
  0
VERTEX
  8
0
  6
CONTINUOUS
 10
2.607000
 20
3.688520
  0
VERTEX
  8
0
  6
CONTINUOUS
 10
2.604800
 20
3.942400
  0
VERTEX
  8
0
  6
CONTINUOUS
 10
2.607000
 20
3.952960
  0
VERTEX
  8
0
  6
CONTINUOUS
 10
5.617040
 20
3.952960
  0
VERTEX
  8
0
  6
CONTINUOUS
 10
5.617480
 20
3.853080
  0
VERTEX
  8
0
  6
CONTINUOUS
 10
5.619240
 20
3.853080
  0
VERTEX
  8
0
  6
CONTINUOUS
 10
5.623200
 20
3.864960
  0
VERTEX
  8
0
  6
CONTINUOUS
 10
5.634640
 20
3.885640
  0
VERTEX
  8
0
  6
CONTINUOUS
 10
5.649600
 20
3.903240
  0
VERTEX
  8
0
  6
CONTINUOUS
 10
5.667640
 20
3.917760
  0
VERTEX
  8
0
  6
CONTINUOUS
 10
5.688320
 20
3.929200
  0
VERTEX
  8
0
  6
CONTINUOUS
 10
5.710320
 20
3.937120
  0
VERTEX
  8
0
  6
CONTINUOUS
 10
5.733640
 20
3.941960
  0
VERTEX
  8
0
  6
CONTINUOUS
 10
5.757840
 20
3.943720
  0
VERTEX
  8
0
  6
CONTINUOUS
 10
5.781600
 20
3.941960
  0
VERTEX
  8
0
  6
CONTINUOUS
 10
5.815480
 20
3.933600
  0
VERTEX
  8
0
  6
CONTINUOUS
 10
5.845840
 20
3.917320
  0
VERTEX
  8
0
  6
CONTINUOUS
 10
5.863000
 20
3.902800
  0
VERTEX
  8
0
  6
CONTINUOUS
 10
5.876640
 20
3.884760
  0
VERTEX
  8
0
  6
CONTINUOUS
 10
5.886320
 20
3.863640
  0
VERTEX
  8
0
  6
CONTINUOUS
 10
5.891160
 20
3.839440
  0
VERTEX
  8
0
  6
CONTINUOUS
 10
5.892480
 20
3.824040
  0
VERTEX
  8
0
  6
CONTINUOUS
 10
5.892480
 20
3.684120
  0
VERTEX
  8
0
  6
CONTINUOUS
 10
6.121280
 20
3.682360
  0
VERTEX
  8
0
  6
CONTINUOUS
 10
6.102800
 20
3.684120
  0
SEQEND
  8
0
  0
SOLID
  8
0
 62
    15
 10
6.348320
 20
1.950960
 11
6.346120
 21
2.698960
 12
6.357560
 22
1.973400
 13
6.355360
 23
2.721840
  0
POLYLINE
  8
0
  6
CONTINUOUS
 66
     1
 40
0.000000
 41
0.000000
  0
VERTEX
  8
0
  6
CONTINUOUS
 10
6.348320
 20
1.950960
  0
VERTEX
  8
0
  6
CONTINUOUS
 10
6.346120
 20
2.698960
  0
VERTEX
  8
0
  6
CONTINUOUS
 10
6.355360
 20
2.721840
  0
VERTEX
  8
0
  6
CONTINUOUS
 10
6.357560
 20
1.973400
  0
VERTEX
  8
0
  6
CONTINUOUS
 10
6.348320
 20
1.950960
  0
SEQEND
  8
0
  0
SOLID
  8
0
 62
    15
 10
6.862680
 20
1.778480
 11
6.860480
 21
2.526480
 12
6.889520
 22
1.769680
 13
6.887320
 23
2.517680
  0
POLYLINE
  8
0
  6
CONTINUOUS
 66
     1
 40
0.000000
 41
0.000000
  0
VERTEX
  8
0
  6
CONTINUOUS
 10
6.862680
 20
1.778480
  0
VERTEX
  8
0
  6
CONTINUOUS
 10
6.860480
 20
2.526480
  0
VERTEX
  8
0
  6
CONTINUOUS
 10
6.887320
 20
2.517680
  0
VERTEX
  8
0
  6
CONTINUOUS
 10
6.889520
 20
1.769680
  0
VERTEX
  8
0
  6
CONTINUOUS
 10
6.862680
 20
1.778480
  0
SEQEND
  8
0
  0
SOLID
  8
0
 62
    15
 10
6.889520
 20
1.769680
 11
6.887320
 21
2.517680
 12
6.911960
 22
1.756040
 13
6.909760
 23
2.504040
  0
POLYLINE
  8
0
  6
CONTINUOUS
 66
     1
 40
0.000000
 41
0.000000
  0
VERTEX
  8
0
  6
CONTINUOUS
 10
6.889520
 20
1.769680
  0
VERTEX
  8
0
  6
CONTINUOUS
 10
6.887320
 20
2.517680
  0
VERTEX
  8
0
  6
CONTINUOUS
 10
6.909760
 20
2.504040
  0
VERTEX
  8
0
  6
CONTINUOUS
 10
6.911960
 20
1.756040
  0
VERTEX
  8
0
  6
CONTINUOUS
 10
6.889520
 20
1.769680
  0
SEQEND
  8
0
  0
SOLID
  8
0
 62
    15
 10
6.911960
 20
1.756040
 11
6.909760
 21
2.504040
 12
6.930440
 22
1.738440
 13
6.928240
 23
2.486440
  0
POLYLINE
  8
0
  6
CONTINUOUS
 66
     1
 40
0.000000
 41
0.000000
  0
VERTEX
  8
0
  6
CONTINUOUS
 10
6.911960
 20
1.756040
  0
VERTEX
  8
0
  6
CONTINUOUS
 10
6.909760
 20
2.504040
  0
VERTEX
  8
0
  6
CONTINUOUS
 10
6.928240
 20
2.486440
  0
VERTEX
  8
0
  6
CONTINUOUS
 10
6.930440
 20
1.738440
  0
VERTEX
  8
0
  6
CONTINUOUS
 10
6.911960
 20
1.756040
  0
SEQEND
  8
0
  0
SOLID
  8
0
 62
    15
 10
6.930440
 20
1.738440
 11
6.928240
 21
2.486440
 12
6.944520
 22
1.718200
 13
6.942320
 23
2.466200
  0
POLYLINE
  8
0
  6
CONTINUOUS
 66
     1
 40
0.000000
 41
0.000000
  0
VERTEX
  8
0
  6
CONTINUOUS
 10
6.930440
 20
1.738440
  0
VERTEX
  8
0
  6
CONTINUOUS
 10
6.928240
 20
2.486440
  0
VERTEX
  8
0
  6
CONTINUOUS
 10
6.942320
 20
2.466200
  0
VERTEX
  8
0
  6
CONTINUOUS
 10
6.944520
 20
1.718200
  0
VERTEX
  8
0
  6
CONTINUOUS
 10
6.930440
 20
1.738440
  0
SEQEND
  8
0
  0
SOLID
  8
0
 62
    15
 10
6.954640
 20
1.695320
 11
6.952000
 21
2.443320
 12
6.960360
 22
1.671120
 13
6.958160
 23
2.419120
  0
POLYLINE
  8
0
  6
CONTINUOUS
 66
     1
 40
0.000000
 41
0.000000
  0
VERTEX
  8
0
  6
CONTINUOUS
 10
6.954640
 20
1.695320
  0
VERTEX
  8
0
  6
CONTINUOUS
 10
6.952000
 20
2.443320
  0
VERTEX
  8
0
  6
CONTINUOUS
 10
6.958160
 20
2.419120
  0
VERTEX
  8
0
  6
CONTINUOUS
 10
6.960360
 20
1.671120
  0
VERTEX
  8
0
  6
CONTINUOUS
 10
6.954640
 20
1.695320
  0
SEQEND
  8
0
  0
SOLID
  8
0
 62
    15
 10
6.944520
 20
1.718200
 11
6.942320
 21
2.466200
 12
6.954640
 22
1.695320
 13
6.952000
 23
2.443320
  0
POLYLINE
  8
0
  6
CONTINUOUS
 66
     1
 40
0.000000
 41
0.000000
  0
VERTEX
  8
0
  6
CONTINUOUS
 10
6.944520
 20
1.718200
  0
VERTEX
  8
0
  6
CONTINUOUS
 10
6.942320
 20
2.466200
  0
VERTEX
  8
0
  6
CONTINUOUS
 10
6.952000
 20
2.443320
  0
VERTEX
  8
0
  6
CONTINUOUS
 10
6.954640
 20
1.695320
  0
VERTEX
  8
0
  6
CONTINUOUS
 10
6.944520
 20
1.718200
  0
SEQEND
  8
0
  0
SOLID
  8
0
 62
    15
 10
6.960360
 20
1.671120
 11
6.958160
 21
2.419120
 12
6.962120
 22
1.646040
 13
6.959920
 23
2.394040
  0
POLYLINE
  8
0
  6
CONTINUOUS
 66
     1
 40
0.000000
 41
0.000000
  0
VERTEX
  8
0
  6
CONTINUOUS
 10
6.960360
 20
1.671120
  0
VERTEX
  8
0
  6
CONTINUOUS
 10
6.958160
 20
2.419120
  0
VERTEX
  8
0
  6
CONTINUOUS
 10
6.959920
 20
2.394040
  0
VERTEX
  8
0
  6
CONTINUOUS
 10
6.962120
 20
1.646040
  0
VERTEX
  8
0
  6
CONTINUOUS
 10
6.960360
 20
1.671120
  0
SEQEND
  8
0
  0
SOLID
  8
0
 62
    15
 10
3.333880
 20
2.040280
 11
3.331240
 21
2.788720
 12
3.336080
 22
2.050840
 13
3.333440
 23
2.799280
  0
POLYLINE
  8
0
  6
CONTINUOUS
 66
     1
 40
0.000000
 41
0.000000
  0
VERTEX
  8
0
  6
CONTINUOUS
 10
3.333880
 20
2.040280
  0
VERTEX
  8
0
  6
CONTINUOUS
 10
3.331240
 20
2.788720
  0
VERTEX
  8
0
  6
CONTINUOUS
 10
3.333440
 20
2.799280
  0
VERTEX
  8
0
  6
CONTINUOUS
 10
3.336080
 20
2.050840
  0
VERTEX
  8
0
  6
CONTINUOUS
 10
3.333880
 20
2.040280
  0
SEQEND
  8
0
  0
SOLID
  8
0
 62
    15
 10
3.336080
 20
1.238600
 11
3.333440
 21
1.986600
 12
3.336080
 22
1.505240
 13
3.333440
 23
2.253240
  0
POLYLINE
  8
0
  6
CONTINUOUS
 66
     1
 40
0.000000
 41
0.000000
  0
VERTEX
  8
0
  6
CONTINUOUS
 10
3.336080
 20
1.238600
  0
VERTEX
  8
0
  6
CONTINUOUS
 10
3.333440
 20
1.986600
  0
VERTEX
  8
0
  6
CONTINUOUS
 10
3.333440
 20
2.253240
  0
VERTEX
  8
0
  6
CONTINUOUS
 10
3.336080
 20
1.505240
  0
VERTEX
  8
0
  6
CONTINUOUS
 10
3.336080
 20
1.238600
  0
SEQEND
  8
0
  0
SOLID
  8
0
 62
    15
 10
3.336080
 20
1.505240
 11
3.333440
 21
2.253240
 12
3.717120
 22
1.505240
 13
3.714920
 23
2.253240
  0
POLYLINE
  8
0
  6
CONTINUOUS
 66
     1
 40
0.000000
 41
0.000000
  0
VERTEX
  8
0
  6
CONTINUOUS
 10
3.336080
 20
1.505240
  0
VERTEX
  8
0
  6
CONTINUOUS
 10
3.333440
 20
2.253240
  0
VERTEX
  8
0
  6
CONTINUOUS
 10
3.714920
 20
2.253240
  0
VERTEX
  8
0
  6
CONTINUOUS
 10
3.717120
 20
1.505240
  0
VERTEX
  8
0
  6
CONTINUOUS
 10
3.336080
 20
1.505240
  0
SEQEND
  8
0
  0
SOLID
  8
0
 62
    15
 10
3.717120
 20
1.505240
 11
3.714920
 21
2.253240
 12
3.717120
 22
1.786400
 13
3.714920
 23
2.534400
  0
POLYLINE
  8
0
  6
CONTINUOUS
 66
     1
 40
0.000000
 41
0.000000
  0
VERTEX
  8
0
  6
CONTINUOUS
 10
3.717120
 20
1.505240
  0
VERTEX
  8
0
  6
CONTINUOUS
 10
3.714920
 20
2.253240
  0
VERTEX
  8
0
  6
CONTINUOUS
 10
3.714920
 20
2.534400
  0
VERTEX
  8
0
  6
CONTINUOUS
 10
3.717120
 20
1.786400
  0
VERTEX
  8
0
  6
CONTINUOUS
 10
3.717120
 20
1.505240
  0
SEQEND
  8
0
  0
SOLID
  8
0
 62
    15
 10
6.346560
 20
1.950960
 11
6.343920
 21
2.698960
 12
6.348320
 22
1.950960
 13
6.346120
 23
2.698960
  0
POLYLINE
  8
0
  6
CONTINUOUS
 66
     1
 40
0.000000
 41
0.000000
  0
VERTEX
  8
0
  6
CONTINUOUS
 10
6.346560
 20
1.950960
  0
VERTEX
  8
0
  6
CONTINUOUS
 10
6.343920
 20
2.698960
  0
VERTEX
  8
0
  6
CONTINUOUS
 10
6.346120
 20
2.698960
  0
VERTEX
  8
0
  6
CONTINUOUS
 10
6.348320
 20
1.950960
  0
VERTEX
  8
0
  6
CONTINUOUS
 10
6.346560
 20
1.950960
  0
SEQEND
  8
0
  0
SOLID
  8
0
 62
    15
 10
3.336080
 20
2.050840
 11
3.333440
 21
2.799280
 12
6.346120
 22
2.050840
 13
6.343920
 23
2.799280
  0
POLYLINE
  8
0
  6
CONTINUOUS
 66
     1
 40
0.000000
 41
0.000000
  0
VERTEX
  8
0
  6
CONTINUOUS
 10
3.336080
 20
2.050840
  0
VERTEX
  8
0
  6
CONTINUOUS
 10
3.333440
 20
2.799280
  0
VERTEX
  8
0
  6
CONTINUOUS
 10
6.343920
 20
2.799280
  0
VERTEX
  8
0
  6
CONTINUOUS
 10
6.346120
 20
2.050840
  0
VERTEX
  8
0
  6
CONTINUOUS
 10
3.336080
 20
2.050840
  0
SEQEND
  8
0
  0
SOLID
  8
0
 62
    15
 10
6.846400
 20
2.528240
 11
6.860480
 21
2.526480
 12
6.849040
 22
1.780240
 13
6.862680
 23
1.778480
  0
POLYLINE
  8
0
  6
CONTINUOUS
 66
     1
 40
0.000000
 41
0.000000
  0
VERTEX
  8
0
  6
CONTINUOUS
 10
6.846400
 20
2.528240
  0
VERTEX
  8
0
  6
CONTINUOUS
 10
6.860480
 20
2.526480
  0
VERTEX
  8
0
  6
CONTINUOUS
 10
6.862680
 20
1.778480
  0
VERTEX
  8
0
  6
CONTINUOUS
 10
6.849040
 20
1.780240
  0
VERTEX
  8
0
  6
CONTINUOUS
 10
6.846400
 20
2.528240
  0
SEQEND
  8
0
  0
SOLID
  8
0
 62
    15
 10
6.621560
 20
1.782000
 11
6.618920
 21
2.530440
 12
6.850360
 22
1.780240
 13
6.848160
 23
2.528240
  0
POLYLINE
  8
0
  6
CONTINUOUS
 66
     1
 40
0.000000
 41
0.000000
  0
VERTEX
  8
0
  6
CONTINUOUS
 10
6.621560
 20
1.782000
  0
VERTEX
  8
0
  6
CONTINUOUS
 10
6.618920
 20
2.530440
  0
VERTEX
  8
0
  6
CONTINUOUS
 10
6.848160
 20
2.528240
  0
VERTEX
  8
0
  6
CONTINUOUS
 10
6.850360
 20
1.780240
  0
VERTEX
  8
0
  6
CONTINUOUS
 10
6.621560
 20
1.782000
  0
SEQEND
  8
0
  0
SOLID
  8
0
 62
    15
 10
6.357560
 20
1.973400
 11
6.355360
 21
2.721840
 12
6.370760
 22
1.992760
 13
6.368560
 23
2.741200
  0
POLYLINE
  8
0
  6
CONTINUOUS
 66
     1
 40
0.000000
 41
0.000000
  0
VERTEX
  8
0
  6
CONTINUOUS
 10
6.357560
 20
1.973400
  0
VERTEX
  8
0
  6
CONTINUOUS
 10
6.355360
 20
2.721840
  0
VERTEX
  8
0
  6
CONTINUOUS
 10
6.368560
 20
2.741200
  0
VERTEX
  8
0
  6
CONTINUOUS
 10
6.370760
 20
1.992760
  0
VERTEX
  8
0
  6
CONTINUOUS
 10
6.357560
 20
1.973400
  0
SEQEND
  8
0
  0
SOLID
  8
0
 62
    15
 10
6.370760
 20
1.992760
 11
6.368560
 21
2.741200
 12
6.387480
 22
2.009040
 13
6.385280
 23
2.757040
  0
POLYLINE
  8
0
  6
CONTINUOUS
 66
     1
 40
0.000000
 41
0.000000
  0
VERTEX
  8
0
  6
CONTINUOUS
 10
6.370760
 20
1.992760
  0
VERTEX
  8
0
  6
CONTINUOUS
 10
6.368560
 20
2.741200
  0
VERTEX
  8
0
  6
CONTINUOUS
 10
6.385280
 20
2.757040
  0
VERTEX
  8
0
  6
CONTINUOUS
 10
6.387480
 20
2.009040
  0
VERTEX
  8
0
  6
CONTINUOUS
 10
6.370760
 20
1.992760
  0
SEQEND
  8
0
  0
SOLID
  8
0
 62
    15
 10
6.387480
 20
2.009040
 11
6.385280
 21
2.757040
 12
6.406840
 22
2.021800
 13
6.404640
 23
2.770240
  0
POLYLINE
  8
0
  6
CONTINUOUS
 66
     1
 40
0.000000
 41
0.000000
  0
VERTEX
  8
0
  6
CONTINUOUS
 10
6.387480
 20
2.009040
  0
VERTEX
  8
0
  6
CONTINUOUS
 10
6.385280
 20
2.757040
  0
VERTEX
  8
0
  6
CONTINUOUS
 10
6.404640
 20
2.770240
  0
VERTEX
  8
0
  6
CONTINUOUS
 10
6.406840
 20
2.021800
  0
VERTEX
  8
0
  6
CONTINUOUS
 10
6.387480
 20
2.009040
  0
SEQEND
  8
0
  0
SOLID
  8
0
 62
    15
 10
6.406840
 20
2.021800
 11
6.404640
 21
2.770240
 12
6.451280
 22
2.038080
 13
6.448640
 23
2.786520
  0
POLYLINE
  8
0
  6
CONTINUOUS
 66
     1
 40
0.000000
 41
0.000000
  0
VERTEX
  8
0
  6
CONTINUOUS
 10
6.406840
 20
2.021800
  0
VERTEX
  8
0
  6
CONTINUOUS
 10
6.404640
 20
2.770240
  0
VERTEX
  8
0
  6
CONTINUOUS
 10
6.448640
 20
2.786520
  0
VERTEX
  8
0
  6
CONTINUOUS
 10
6.451280
 20
2.038080
  0
VERTEX
  8
0
  6
CONTINUOUS
 10
6.406840
 20
2.021800
  0
SEQEND
  8
0
  0
SOLID
  8
0
 62
    15
 10
6.451280
 20
2.038080
 11
6.448640
 21
2.786520
 12
6.498800
 22
2.041160
 13
6.496600
 23
2.789600
  0
POLYLINE
  8
0
  6
CONTINUOUS
 66
     1
 40
0.000000
 41
0.000000
  0
VERTEX
  8
0
  6
CONTINUOUS
 10
6.451280
 20
2.038080
  0
VERTEX
  8
0
  6
CONTINUOUS
 10
6.448640
 20
2.786520
  0
VERTEX
  8
0
  6
CONTINUOUS
 10
6.496600
 20
2.789600
  0
VERTEX
  8
0
  6
CONTINUOUS
 10
6.498800
 20
2.041160
  0
VERTEX
  8
0
  6
CONTINUOUS
 10
6.451280
 20
2.038080
  0
SEQEND
  8
0
  0
SOLID
  8
0
 62
    15
 10
6.498800
 20
2.041160
 11
6.496600
 21
2.789600
 12
6.545000
 22
2.031480
 13
6.542360
 23
2.779480
  0
POLYLINE
  8
0
  6
CONTINUOUS
 66
     1
 40
0.000000
 41
0.000000
  0
VERTEX
  8
0
  6
CONTINUOUS
 10
6.498800
 20
2.041160
  0
VERTEX
  8
0
  6
CONTINUOUS
 10
6.496600
 20
2.789600
  0
VERTEX
  8
0
  6
CONTINUOUS
 10
6.542360
 20
2.779480
  0
VERTEX
  8
0
  6
CONTINUOUS
 10
6.545000
 20
2.031480
  0
VERTEX
  8
0
  6
CONTINUOUS
 10
6.498800
 20
2.041160
  0
SEQEND
  8
0
  0
SOLID
  8
0
 62
    15
 10
6.545000
 20
2.031480
 11
6.542360
 21
2.779480
 12
6.565680
 22
2.021800
 13
6.563040
 23
2.769800
  0
POLYLINE
  8
0
  6
CONTINUOUS
 66
     1
 40
0.000000
 41
0.000000
  0
VERTEX
  8
0
  6
CONTINUOUS
 10
6.545000
 20
2.031480
  0
VERTEX
  8
0
  6
CONTINUOUS
 10
6.542360
 20
2.779480
  0
VERTEX
  8
0
  6
CONTINUOUS
 10
6.563040
 20
2.769800
  0
VERTEX
  8
0
  6
CONTINUOUS
 10
6.565680
 20
2.021800
  0
VERTEX
  8
0
  6
CONTINUOUS
 10
6.545000
 20
2.031480
  0
SEQEND
  8
0
  0
SOLID
  8
0
 62
    15
 10
6.565680
 20
2.021800
 11
6.563040
 21
2.769800
 12
6.583720
 22
2.008600
 13
6.581520
 23
2.756600
  0
POLYLINE
  8
0
  6
CONTINUOUS
 66
     1
 40
0.000000
 41
0.000000
  0
VERTEX
  8
0
  6
CONTINUOUS
 10
6.565680
 20
2.021800
  0
VERTEX
  8
0
  6
CONTINUOUS
 10
6.563040
 20
2.769800
  0
VERTEX
  8
0
  6
CONTINUOUS
 10
6.581520
 20
2.756600
  0
VERTEX
  8
0
  6
CONTINUOUS
 10
6.583720
 20
2.008600
  0
VERTEX
  8
0
  6
CONTINUOUS
 10
6.565680
 20
2.021800
  0
SEQEND
  8
0
  0
SOLID
  8
0
 62
    15
 10
6.583720
 20
2.008600
 11
6.581520
 21
2.756600
 12
6.599120
 22
1.992320
 13
6.596920
 23
2.740320
  0
POLYLINE
  8
0
  6
CONTINUOUS
 66
     1
 40
0.000000
 41
0.000000
  0
VERTEX
  8
0
  6
CONTINUOUS
 10
6.583720
 20
2.008600
  0
VERTEX
  8
0
  6
CONTINUOUS
 10
6.581520
 20
2.756600
  0
VERTEX
  8
0
  6
CONTINUOUS
 10
6.596920
 20
2.740320
  0
VERTEX
  8
0
  6
CONTINUOUS
 10
6.599120
 20
1.992320
  0
VERTEX
  8
0
  6
CONTINUOUS
 10
6.583720
 20
2.008600
  0
SEQEND
  8
0
  0
SOLID
  8
0
 62
    15
 10
6.599120
 20
1.992320
 11
6.596920
 21
2.740320
 12
6.611000
 22
1.972960
 13
6.608800
 23
2.720960
  0
POLYLINE
  8
0
  6
CONTINUOUS
 66
     1
 40
0.000000
 41
0.000000
  0
VERTEX
  8
0
  6
CONTINUOUS
 10
6.599120
 20
1.992320
  0
VERTEX
  8
0
  6
CONTINUOUS
 10
6.596920
 20
2.740320
  0
VERTEX
  8
0
  6
CONTINUOUS
 10
6.608800
 20
2.720960
  0
VERTEX
  8
0
  6
CONTINUOUS
 10
6.611000
 20
1.972960
  0
VERTEX
  8
0
  6
CONTINUOUS
 10
6.599120
 20
1.992320
  0
SEQEND
  8
0
  0
SOLID
  8
0
 62
    15
 10
6.618480
 20
1.950080
 11
6.616280
 21
2.698080
 12
6.621120
 22
1.923680
 13
6.618920
 23
2.672120
  0
POLYLINE
  8
0
  6
CONTINUOUS
 66
     1
 40
0.000000
 41
0.000000
  0
VERTEX
  8
0
  6
CONTINUOUS
 10
6.618480
 20
1.950080
  0
VERTEX
  8
0
  6
CONTINUOUS
 10
6.616280
 20
2.698080
  0
VERTEX
  8
0
  6
CONTINUOUS
 10
6.618920
 20
2.672120
  0
VERTEX
  8
0
  6
CONTINUOUS
 10
6.621120
 20
1.923680
  0
VERTEX
  8
0
  6
CONTINUOUS
 10
6.618480
 20
1.950080
  0
SEQEND
  8
0
  0
SOLID
  8
0
 62
    15
 10
6.611000
 20
1.972960
 11
6.608800
 21
2.720960
 12
6.618480
 22
1.950080
 13
6.616280
 23
2.698080
  0
POLYLINE
  8
0
  6
CONTINUOUS
 66
     1
 40
0.000000
 41
0.000000
  0
VERTEX
  8
0
  6
CONTINUOUS
 10
6.611000
 20
1.972960
  0
VERTEX
  8
0
  6
CONTINUOUS
 10
6.608800
 20
2.720960
  0
VERTEX
  8
0
  6
CONTINUOUS
 10
6.616280
 20
2.698080
  0
VERTEX
  8
0
  6
CONTINUOUS
 10
6.618480
 20
1.950080
  0
VERTEX
  8
0
  6
CONTINUOUS
 10
6.611000
 20
1.972960
  0
SEQEND
  8
0
  0
SOLID
  8
0
 62
    15
 10
6.831880
 20
1.782000
 11
6.829240
 21
2.530440
 12
6.849040
 22
1.780240
 13
6.846400
 23
2.528240
  0
POLYLINE
  8
0
  6
CONTINUOUS
 66
     1
 40
0.000000
 41
0.000000
  0
VERTEX
  8
0
  6
CONTINUOUS
 10
6.831880
 20
1.782000
  0
VERTEX
  8
0
  6
CONTINUOUS
 10
6.829240
 20
2.530440
  0
VERTEX
  8
0
  6
CONTINUOUS
 10
6.846400
 20
2.528240
  0
VERTEX
  8
0
  6
CONTINUOUS
 10
6.849040
 20
1.780240
  0
VERTEX
  8
0
  6
CONTINUOUS
 10
6.831880
 20
1.782000
  0
SEQEND
  8
0
  0
POLYLINE
  8
0
  6
CONTINUOUS
 66
     1
 40
0.000000
 41
0.000000
  0
VERTEX
  8
0
  6
CONTINUOUS
 10
6.831880
 20
1.782000
  0
VERTEX
  8
0
  6
CONTINUOUS
 10
6.862680
 20
1.778480
  0
VERTEX
  8
0
  6
CONTINUOUS
 10
6.889520
 20
1.769680
  0
VERTEX
  8
0
  6
CONTINUOUS
 10
6.911960
 20
1.756040
  0
VERTEX
  8
0
  6
CONTINUOUS
 10
6.930440
 20
1.738440
  0
VERTEX
  8
0
  6
CONTINUOUS
 10
6.944520
 20
1.718200
  0
VERTEX
  8
0
  6
CONTINUOUS
 10
6.954640
 20
1.695320
  0
VERTEX
  8
0
  6
CONTINUOUS
 10
6.960360
 20
1.671120
  0
VERTEX
  8
0
  6
CONTINUOUS
 10
6.962120
 20
1.646040
  0
VERTEX
  8
0
  6
CONTINUOUS
 10
6.959920
 20
1.620960
  0
VERTEX
  8
0
  6
CONTINUOUS
 10
6.953320
 20
1.596760
  0
VERTEX
  8
0
  6
CONTINUOUS
 10
6.943200
 20
1.574320
  0
VERTEX
  8
0
  6
CONTINUOUS
 10
6.928680
 20
1.554080
  0
VERTEX
  8
0
  6
CONTINUOUS
 10
6.910200
 20
1.536920
  0
VERTEX
  8
0
  6
CONTINUOUS
 10
6.888200
 20
1.523280
  0
VERTEX
  8
0
  6
CONTINUOUS
 10
6.861800
 20
1.514920
  0
VERTEX
  8
0
  6
CONTINUOUS
 10
6.831880
 20
1.511400
  0
VERTEX
  8
0
  6
CONTINUOUS
 10
6.623320
 20
1.511400
  0
VERTEX
  8
0
  6
CONTINUOUS
 10
6.623320
 20
1.238600
  0
VERTEX
  8
0
  6
CONTINUOUS
 10
3.336080
 20
1.238600
  0
VERTEX
  8
0
  6
CONTINUOUS
 10
3.336080
 20
1.505240
  0
VERTEX
  8
0
  6
CONTINUOUS
 10
3.717120
 20
1.505240
  0
VERTEX
  8
0
  6
CONTINUOUS
 10
3.717120
 20
1.786400
  0
VERTEX
  8
0
  6
CONTINUOUS
 10
3.336080
 20
1.786400
  0
VERTEX
  8
0
  6
CONTINUOUS
 10
3.333880
 20
2.040280
  0
VERTEX
  8
0
  6
CONTINUOUS
 10
3.336080
 20
2.050840
  0
VERTEX
  8
0
  6
CONTINUOUS
 10
6.346120
 20
2.050840
  0
VERTEX
  8
0
  6
CONTINUOUS
 10
6.346560
 20
1.950960
  0
VERTEX
  8
0
  6
CONTINUOUS
 10
6.348320
 20
1.950960
  0
VERTEX
  8
0
  6
CONTINUOUS
 10
6.357560
 20
1.973400
  0
VERTEX
  8
0
  6
CONTINUOUS
 10
6.370760
 20
1.992760
  0
VERTEX
  8
0
  6
CONTINUOUS
 10
6.387480
 20
2.009040
  0
VERTEX
  8
0
  6
CONTINUOUS
 10
6.406840
 20
2.021800
  0
VERTEX
  8
0
  6
CONTINUOUS
 10
6.451280
 20
2.038080
  0
VERTEX
  8
0
  6
CONTINUOUS
 10
6.498800
 20
2.041160
  0
VERTEX
  8
0
  6
CONTINUOUS
 10
6.545000
 20
2.031480
  0
VERTEX
  8
0
  6
CONTINUOUS
 10
6.565680
 20
2.021800
  0
VERTEX
  8
0
  6
CONTINUOUS
 10
6.583720
 20
2.008600
  0
VERTEX
  8
0
  6
CONTINUOUS
 10
6.599120
 20
1.992320
  0
VERTEX
  8
0
  6
CONTINUOUS
 10
6.611000
 20
1.972960
  0
VERTEX
  8
0
  6
CONTINUOUS
 10
6.618480
 20
1.950080
  0
VERTEX
  8
0
  6
CONTINUOUS
 10
6.621120
 20
1.923680
  0
VERTEX
  8
0
  6
CONTINUOUS
 10
6.621560
 20
1.782000
  0
VERTEX
  8
0
  6
CONTINUOUS
 10
6.850360
 20
1.780240
  0
VERTEX
  8
0
  6
CONTINUOUS
 10
6.831880
 20
1.782000
  0
SEQEND
  8
0
  0
TEXT
  8
0
 10
4.852760
 20
0.975920
 40
0.138256
  1
BA  566
 41
1.000000
  7
SN0
 71
     0
 72
     5
 11
5.442504
 21
0.975920
  0
TEXT
  8
0
 10
4.604600
 20
0.784520
 40
0.138256
  1
13/16" x 3-5/8"
 41
1.000000
  7
SN0
 71
     0
 72
     5
 11
5.688489
 21
0.784520
  0
ENDSEC
  0
EOF
