  0
SECTION
  2
HEADER
  9
$ACADVER
  1
AC1006
  9
$EXTMIN
 10
3.835480
 20
0.652520
  9
$EXTMAX
 10
7.077840
 20
4.314200
  9
$LTSCALE
 40
0.044000
  9
$PDMODE
 70
    35
  9
$PDSIZE
 40
0.035200
  0
ENDSEC
  0
SECTION
  2
TABLES
  0
TABLE
  2
LTYPE
 70
     9
  0
LTYPE
  2
CONTINUOUS
 70
    64
  3
Solid line
 72
    65
 73
     0
 40
0.000000
  0
LTYPE
  2
DASHED
 70
    64
  3
__ __ __ __ __ __ __ __ __ __ __ __ __ __ __
 72
    65
 73
     2
 40
0.000330
 49
0.000220
 49
-0.000110
  0
LTYPE
  2
HIDDEN
 70
    64
  3
 _ _ _ _ _ _ _ _ _ _ _ _ _ _ _ _ _ _ _ _ _ _
 72
    65
 73
     2
 40
0.000165
 49
0.000110
 49
-0.000055
  0
LTYPE
  2
CENTER
 70
    64
  3
____ _ ____ _ ____ _ ____ _ ____ _ ____ _ ____
 72
    65
 73
     4
 40
0.000880
 49
0.000550
 49
-0.000110
 49
0.000110
 49
-0.000110
  0
LTYPE
  2
PHANTOM
 70
    64
  3
_____ _ _ _____ _ _ _____ _ _ _____ _ _ ____
 72
    65
 73
     6
 40
0.001100
 49
0.000550
 49
-0.000110
 49
0.000110
 49
-0.000110
 49
0.000110
 49
-0.000110
  0
LTYPE
  2
DOT
 70
    64
  3
...............................................
 72
    65
 73
     2
 40
0.000110
 49
0.000000
 49
-0.000110
  0
LTYPE
  2
DASHDOT
 70
    64
  3
__ . __ . __ . __ . __ . __ . __ . __ . __ . __
 72
    65
 73
     4
 40
0.000440
 49
0.000220
 49
-0.000110
 49
0.000000
 49
-0.000110
  0
LTYPE
  2
BORDER
 70
    64
  3
__ __ . __ __ . __ __ . __ __ . __ __ . __ __
 72
    65
 73
     6
 40
0.000770
 49
0.000220
 49
-0.000110
 49
0.000220
 49
-0.000110
 49
0.000000
 49
-0.000110
  0
LTYPE
  2
DIVIDE
 70
    64
  3
__ . . __ . . __ . . __ . . __ . . __ . . __
 72
    65
 73
     6
 40
0.000550
 49
0.000220
 49
-0.000110
 49
0.000000
 49
-0.000110
 49
0.000000
 49
-0.000110
  0
LTYPE
  2
DOTDOT
 70
    64
  3
 . .  . .  . .  . .  . .  . . 
 72
    65
 73
     5
 40
0.000242
 49
-0.000110
 49
0.000000
 49
-0.000110
 49
0.000000
 49
-0.000110
  0
ENDTAB
  0
TABLE
  2
STYLE
 70
     2
  0
STYLE
 70
     0
  2
SN0
 40
0.000000
 41
0.000440
 50
0.000000
 71
     0
 42
0.000000
  3
ROMAND
  0
STYLE
 70
    68
  2
SV0
 40
0.000000
 41
0.000440
 50
0.000000
 71
     0
 42
0.000000
  3
ROMAND
  0
ENDTAB
  0
TABLE
  2
LAYER
 70
     3
  0
LAYER
  2
FOREGROUND
 70
    64
 62
     7
  6
CONTINUOUS
  0
LAYER
  2
BACKGROUND
 70
    65
 62
    -7
  6
CONTINUOUS
  0
LAYER
  2
0
 70
    64
 62
     7
  6
CONTINUOUS
  0
ENDTAB
  0
ENDSEC
  0
SECTION
  2
ENTITIES
  0
POLYLINE
  8
FOREGROUND
  6
CONTINUOUS
 66
     1
 40
0.000000
 41
0.000000
  0
VERTEX
  8
FOREGROUND
  6
CONTINUOUS
 10
0.000000
 20
4.966720
  0
VERTEX
  8
FOREGROUND
  6
CONTINUOUS
 10
8.499920
 20
4.966720
  0
VERTEX
  8
FOREGROUND
  6
CONTINUOUS
 10
8.499920
 20
-6.033280
  0
VERTEX
  8
FOREGROUND
  6
CONTINUOUS
 10
0.000000
 20
-6.033280
  0
VERTEX
  8
FOREGROUND
  6
CONTINUOUS
 10
0.000000
 20
4.966720
  0
SEQEND
  8
0
  0
POLYLINE
  8
FOREGROUND
  6
CONTINUOUS
 66
     1
 40
0.000000
 41
0.000000
  0
VERTEX
  8
FOREGROUND
  6
CONTINUOUS
 10
0.000000
 20
4.966720
  0
VERTEX
  8
FOREGROUND
  6
CONTINUOUS
 10
8.499920
 20
4.966720
  0
VERTEX
  8
FOREGROUND
  6
CONTINUOUS
 10
8.499920
 20
-6.033280
  0
VERTEX
  8
FOREGROUND
  6
CONTINUOUS
 10
0.000000
 20
-6.033280
  0
VERTEX
  8
FOREGROUND
  6
CONTINUOUS
 10
0.000000
 20
4.966720
  0
SEQEND
  8
0
  0
POLYLINE
  8
0
  6
CONTINUOUS
 66
     1
 40
0.014080
 41
0.014080
  0
VERTEX
  8
0
  6
CONTINUOUS
 10
4.780600
 20
4.139960
  0
VERTEX
  8
0
  6
CONTINUOUS
 10
4.770040
 20
4.139960
  0
VERTEX
  8
0
  6
CONTINUOUS
 10
4.763880
 20
4.146120
  0
VERTEX
  8
0
  6
CONTINUOUS
 10
4.763880
 20
4.306280
  0
VERTEX
  8
0
  6
CONTINUOUS
 10
4.761680
 20
4.304520
  0
VERTEX
  8
0
  6
CONTINUOUS
 10
3.979800
 20
4.305840
  0
VERTEX
  8
0
  6
CONTINUOUS
 10
3.956040
 20
4.303640
  0
VERTEX
  8
0
  6
CONTINUOUS
 10
3.925680
 20
4.295720
  0
VERTEX
  8
0
  6
CONTINUOUS
 10
3.901480
 20
4.283840
  0
VERTEX
  8
0
  6
CONTINUOUS
 10
3.882120
 20
4.268880
  0
VERTEX
  8
0
  6
CONTINUOUS
 10
3.864080
 20
4.245120
  0
VERTEX
  8
0
  6
CONTINUOUS
 10
3.857480
 20
4.232800
  0
VERTEX
  8
0
  6
CONTINUOUS
 10
3.848680
 20
4.207280
  0
VERTEX
  8
0
  6
CONTINUOUS
 10
3.844280
 20
4.183080
  0
VERTEX
  8
0
  6
CONTINUOUS
 10
3.842960
 20
4.154480
  0
VERTEX
  8
0
  6
CONTINUOUS
 10
3.842960
 20
3.450040
  0
VERTEX
  8
0
  6
CONTINUOUS
 10
6.980600
 20
3.450040
  0
VERTEX
  8
0
  6
CONTINUOUS
 10
6.980600
 20
3.729440
  0
VERTEX
  8
0
  6
CONTINUOUS
 10
6.933520
 20
3.730760
  0
VERTEX
  8
0
  6
CONTINUOUS
 10
6.879400
 20
3.737800
  0
VERTEX
  8
0
  6
CONTINUOUS
 10
6.844200
 20
3.746600
  0
VERTEX
  8
0
  6
CONTINUOUS
 10
6.814280
 20
3.758920
  0
VERTEX
  8
0
  6
CONTINUOUS
 10
6.788760
 20
3.775200
  0
VERTEX
  8
0
  6
CONTINUOUS
 10
6.774240
 20
3.787520
  0
VERTEX
  8
0
  6
CONTINUOUS
 10
6.761480
 20
3.802040
  0
VERTEX
  8
0
  6
CONTINUOUS
 10
6.750480
 20
3.817880
  0
VERTEX
  8
0
  6
CONTINUOUS
 10
6.741240
 20
3.835920
  0
VERTEX
  8
0
  6
CONTINUOUS
 10
6.733760
 20
3.855280
  0
VERTEX
  8
0
  6
CONTINUOUS
 10
6.727600
 20
3.876840
  0
VERTEX
  8
0
  6
CONTINUOUS
 10
6.723200
 20
3.900160
  0
VERTEX
  8
0
  6
CONTINUOUS
 10
6.720120
 20
3.925240
  0
VERTEX
  8
0
  6
CONTINUOUS
 10
5.653560
 20
3.925240
  0
VERTEX
  8
0
  6
CONTINUOUS
 10
5.649160
 20
3.927440
  0
VERTEX
  8
0
  6
CONTINUOUS
 10
5.649160
 20
4.035680
  0
VERTEX
  8
0
  6
CONTINUOUS
 10
5.566000
 20
4.035680
  0
VERTEX
  8
0
  6
CONTINUOUS
 10
5.551920
 20
4.060760
  0
VERTEX
  8
0
  6
CONTINUOUS
 10
5.535640
 20
4.079240
  0
VERTEX
  8
0
  6
CONTINUOUS
 10
5.522880
 20
4.088920
  0
VERTEX
  8
0
  6
CONTINUOUS
 10
5.508800
 20
4.096400
  0
VERTEX
  8
0
  6
CONTINUOUS
 10
5.493840
 20
4.101680
  0
VERTEX
  8
0
  6
CONTINUOUS
 10
5.478000
 20
4.105200
  0
VERTEX
  8
0
  6
CONTINUOUS
 10
5.462160
 20
4.106080
  0
VERTEX
  8
0
  6
CONTINUOUS
 10
5.446320
 20
4.105200
  0
VERTEX
  8
0
  6
CONTINUOUS
 10
5.430920
 20
4.102120
  0
VERTEX
  8
0
  6
CONTINUOUS
 10
5.408920
 20
4.093320
  0
VERTEX
  8
0
  6
CONTINUOUS
 10
5.389120
 20
4.079240
  0
VERTEX
  8
0
  6
CONTINUOUS
 10
5.373280
 20
4.059880
  0
VERTEX
  8
0
  6
CONTINUOUS
 10
5.364920
 20
4.044480
  0
VERTEX
  8
0
  6
CONTINUOUS
 10
5.361840
 20
4.035680
  0
VERTEX
  8
0
  6
CONTINUOUS
 10
5.357880
 20
4.033480
  0
VERTEX
  8
0
  6
CONTINUOUS
 10
5.293640
 20
4.033480
  0
VERTEX
  8
0
  6
CONTINUOUS
 10
5.271200
 20
4.036560
  0
VERTEX
  8
0
  6
CONTINUOUS
 10
5.248320
 20
4.045360
  0
VERTEX
  8
0
  6
CONTINUOUS
 10
5.229840
 20
4.057680
  0
VERTEX
  8
0
  6
CONTINUOUS
 10
5.201680
 20
4.082760
  0
VERTEX
  8
0
  6
CONTINUOUS
 10
5.168240
 20
4.121480
  0
VERTEX
  8
0
  6
CONTINUOUS
 10
5.116320
 20
4.189240
  0
VERTEX
  8
0
  6
CONTINUOUS
 10
5.081560
 20
4.226640
  0
VERTEX
  8
0
  6
CONTINUOUS
 10
5.045480
 20
4.256560
  0
VERTEX
  8
0
  6
CONTINUOUS
 10
5.020840
 20
4.272400
  0
VERTEX
  8
0
  6
CONTINUOUS
 10
4.996640
 20
4.284280
  0
VERTEX
  8
0
  6
CONTINUOUS
 10
4.972000
 20
4.292200
  0
VERTEX
  8
0
  6
CONTINUOUS
 10
4.948240
 20
4.295720
  0
VERTEX
  8
0
  6
CONTINUOUS
 10
4.924920
 20
4.294840
  0
VERTEX
  8
0
  6
CONTINUOUS
 10
4.902480
 20
4.289560
  0
VERTEX
  8
0
  6
CONTINUOUS
 10
4.891480
 20
4.285160
  0
VERTEX
  8
0
  6
CONTINUOUS
 10
4.870800
 20
4.272400
  0
VERTEX
  8
0
  6
CONTINUOUS
 10
4.851000
 20
4.254360
  0
VERTEX
  8
0
  6
CONTINUOUS
 10
4.832960
 20
4.231040
  0
VERTEX
  8
0
  6
CONTINUOUS
 10
4.816240
 20
4.202000
  0
VERTEX
  8
0
  6
CONTINUOUS
 10
4.801720
 20
4.167240
  0
VERTEX
  8
0
  6
CONTINUOUS
 10
4.795120
 20
4.147880
  0
VERTEX
  8
0
  6
CONTINUOUS
 10
4.780600
 20
4.139960
  0
SEQEND
  8
0
  0
SOLID
  8
0
 62
    15
 10
5.615720
 20
1.755600
 11
5.620120
 21
2.490840
 12
5.640360
 22
1.734040
 13
5.644320
 23
2.469720
  0
POLYLINE
  8
0
  6
CONTINUOUS
 66
     1
 40
0.000000
 41
0.000000
  0
VERTEX
  8
0
  6
CONTINUOUS
 10
5.615720
 20
1.755600
  0
VERTEX
  8
0
  6
CONTINUOUS
 10
5.620120
 20
2.490840
  0
VERTEX
  8
0
  6
CONTINUOUS
 10
5.644320
 20
2.469720
  0
VERTEX
  8
0
  6
CONTINUOUS
 10
5.640360
 20
1.734040
  0
VERTEX
  8
0
  6
CONTINUOUS
 10
5.615720
 20
1.755600
  0
SEQEND
  8
0
  0
SOLID
  8
0
 62
    15
 10
4.902040
 20
1.852400
 11
4.906000
 21
2.588080
 12
4.917440
 22
1.884080
 13
4.921400
 23
2.619760
  0
POLYLINE
  8
0
  6
CONTINUOUS
 66
     1
 40
0.000000
 41
0.000000
  0
VERTEX
  8
0
  6
CONTINUOUS
 10
4.902040
 20
1.852400
  0
VERTEX
  8
0
  6
CONTINUOUS
 10
4.906000
 20
2.588080
  0
VERTEX
  8
0
  6
CONTINUOUS
 10
4.921400
 20
2.619760
  0
VERTEX
  8
0
  6
CONTINUOUS
 10
4.917440
 20
1.884080
  0
VERTEX
  8
0
  6
CONTINUOUS
 10
4.902040
 20
1.852400
  0
SEQEND
  8
0
  0
SOLID
  8
0
 62
    15
 10
4.917440
 20
1.884080
 11
4.921400
 21
2.619760
 12
4.935040
 22
1.910480
 13
4.939000
 23
2.645720
  0
POLYLINE
  8
0
  6
CONTINUOUS
 66
     1
 40
0.000000
 41
0.000000
  0
VERTEX
  8
0
  6
CONTINUOUS
 10
4.917440
 20
1.884080
  0
VERTEX
  8
0
  6
CONTINUOUS
 10
4.921400
 20
2.619760
  0
VERTEX
  8
0
  6
CONTINUOUS
 10
4.939000
 20
2.645720
  0
VERTEX
  8
0
  6
CONTINUOUS
 10
4.935040
 20
1.910480
  0
VERTEX
  8
0
  6
CONTINUOUS
 10
4.917440
 20
1.884080
  0
SEQEND
  8
0
  0
SOLID
  8
0
 62
    15
 10
4.935040
 20
1.910480
 11
4.939000
 21
2.645720
 12
4.953960
 22
1.930720
 13
4.957920
 23
2.666400
  0
POLYLINE
  8
0
  6
CONTINUOUS
 66
     1
 40
0.000000
 41
0.000000
  0
VERTEX
  8
0
  6
CONTINUOUS
 10
4.935040
 20
1.910480
  0
VERTEX
  8
0
  6
CONTINUOUS
 10
4.939000
 20
2.645720
  0
VERTEX
  8
0
  6
CONTINUOUS
 10
4.957920
 20
2.666400
  0
VERTEX
  8
0
  6
CONTINUOUS
 10
4.953960
 20
1.930720
  0
VERTEX
  8
0
  6
CONTINUOUS
 10
4.935040
 20
1.910480
  0
SEQEND
  8
0
  0
SOLID
  8
0
 62
    15
 10
4.953960
 20
1.930720
 11
4.957920
 21
2.666400
 12
4.974200
 22
1.946120
 13
4.978160
 23
2.681800
  0
POLYLINE
  8
0
  6
CONTINUOUS
 66
     1
 40
0.000000
 41
0.000000
  0
VERTEX
  8
0
  6
CONTINUOUS
 10
4.953960
 20
1.930720
  0
VERTEX
  8
0
  6
CONTINUOUS
 10
4.957920
 20
2.666400
  0
VERTEX
  8
0
  6
CONTINUOUS
 10
4.978160
 20
2.681800
  0
VERTEX
  8
0
  6
CONTINUOUS
 10
4.974200
 20
1.946120
  0
VERTEX
  8
0
  6
CONTINUOUS
 10
4.953960
 20
1.930720
  0
SEQEND
  8
0
  0
SOLID
  8
0
 62
    15
 10
4.974200
 20
1.946120
 11
4.978160
 21
2.681800
 12
4.995760
 22
1.956240
 13
4.999720
 23
2.691920
  0
POLYLINE
  8
0
  6
CONTINUOUS
 66
     1
 40
0.000000
 41
0.000000
  0
VERTEX
  8
0
  6
CONTINUOUS
 10
4.974200
 20
1.946120
  0
VERTEX
  8
0
  6
CONTINUOUS
 10
4.978160
 20
2.681800
  0
VERTEX
  8
0
  6
CONTINUOUS
 10
4.999720
 20
2.691920
  0
VERTEX
  8
0
  6
CONTINUOUS
 10
4.995760
 20
1.956240
  0
VERTEX
  8
0
  6
CONTINUOUS
 10
4.974200
 20
1.946120
  0
SEQEND
  8
0
  0
SOLID
  8
0
 62
    15
 10
4.995760
 20
1.956240
 11
4.999720
 21
2.691920
 12
5.018200
 22
1.961960
 13
5.022160
 23
2.697200
  0
POLYLINE
  8
0
  6
CONTINUOUS
 66
     1
 40
0.000000
 41
0.000000
  0
VERTEX
  8
0
  6
CONTINUOUS
 10
4.995760
 20
1.956240
  0
VERTEX
  8
0
  6
CONTINUOUS
 10
4.999720
 20
2.691920
  0
VERTEX
  8
0
  6
CONTINUOUS
 10
5.022160
 20
2.697200
  0
VERTEX
  8
0
  6
CONTINUOUS
 10
5.018200
 20
1.961960
  0
VERTEX
  8
0
  6
CONTINUOUS
 10
4.995760
 20
1.956240
  0
SEQEND
  8
0
  0
SOLID
  8
0
 62
    15
 10
5.018200
 20
1.961960
 11
5.022160
 21
2.697200
 12
5.041520
 22
1.962400
 13
5.045480
 23
2.698080
  0
POLYLINE
  8
0
  6
CONTINUOUS
 66
     1
 40
0.000000
 41
0.000000
  0
VERTEX
  8
0
  6
CONTINUOUS
 10
5.018200
 20
1.961960
  0
VERTEX
  8
0
  6
CONTINUOUS
 10
5.022160
 20
2.697200
  0
VERTEX
  8
0
  6
CONTINUOUS
 10
5.045480
 20
2.698080
  0
VERTEX
  8
0
  6
CONTINUOUS
 10
5.041520
 20
1.962400
  0
VERTEX
  8
0
  6
CONTINUOUS
 10
5.018200
 20
1.961960
  0
SEQEND
  8
0
  0
SOLID
  8
0
 62
    15
 10
5.041520
 20
1.962400
 11
5.045480
 21
2.698080
 12
5.065280
 22
1.958880
 13
5.069240
 23
2.694560
  0
POLYLINE
  8
0
  6
CONTINUOUS
 66
     1
 40
0.000000
 41
0.000000
  0
VERTEX
  8
0
  6
CONTINUOUS
 10
5.041520
 20
1.962400
  0
VERTEX
  8
0
  6
CONTINUOUS
 10
5.045480
 20
2.698080
  0
VERTEX
  8
0
  6
CONTINUOUS
 10
5.069240
 20
2.694560
  0
VERTEX
  8
0
  6
CONTINUOUS
 10
5.065280
 20
1.958880
  0
VERTEX
  8
0
  6
CONTINUOUS
 10
5.041520
 20
1.962400
  0
SEQEND
  8
0
  0
SOLID
  8
0
 62
    15
 10
5.065280
 20
1.958880
 11
5.069240
 21
2.694560
 12
5.089480
 22
1.950960
 13
5.093880
 23
2.686640
  0
POLYLINE
  8
0
  6
CONTINUOUS
 66
     1
 40
0.000000
 41
0.000000
  0
VERTEX
  8
0
  6
CONTINUOUS
 10
5.065280
 20
1.958880
  0
VERTEX
  8
0
  6
CONTINUOUS
 10
5.069240
 20
2.694560
  0
VERTEX
  8
0
  6
CONTINUOUS
 10
5.093880
 20
2.686640
  0
VERTEX
  8
0
  6
CONTINUOUS
 10
5.089480
 20
1.950960
  0
VERTEX
  8
0
  6
CONTINUOUS
 10
5.065280
 20
1.958880
  0
SEQEND
  8
0
  0
SOLID
  8
0
 62
    15
 10
5.089480
 20
1.950960
 11
5.093880
 21
2.686640
 12
5.138760
 22
1.923680
 13
5.142720
 23
2.658920
  0
POLYLINE
  8
0
  6
CONTINUOUS
 66
     1
 40
0.000000
 41
0.000000
  0
VERTEX
  8
0
  6
CONTINUOUS
 10
5.089480
 20
1.950960
  0
VERTEX
  8
0
  6
CONTINUOUS
 10
5.093880
 20
2.686640
  0
VERTEX
  8
0
  6
CONTINUOUS
 10
5.142720
 20
2.658920
  0
VERTEX
  8
0
  6
CONTINUOUS
 10
5.138760
 20
1.923680
  0
VERTEX
  8
0
  6
CONTINUOUS
 10
5.089480
 20
1.950960
  0
SEQEND
  8
0
  0
SOLID
  8
0
 62
    15
 10
5.138760
 20
1.923680
 11
5.142720
 21
2.658920
 12
5.186720
 22
1.881880
 13
5.190680
 23
2.617560
  0
POLYLINE
  8
0
  6
CONTINUOUS
 66
     1
 40
0.000000
 41
0.000000
  0
VERTEX
  8
0
  6
CONTINUOUS
 10
5.138760
 20
1.923680
  0
VERTEX
  8
0
  6
CONTINUOUS
 10
5.142720
 20
2.658920
  0
VERTEX
  8
0
  6
CONTINUOUS
 10
5.190680
 20
2.617560
  0
VERTEX
  8
0
  6
CONTINUOUS
 10
5.186720
 20
1.881880
  0
VERTEX
  8
0
  6
CONTINUOUS
 10
5.138760
 20
1.923680
  0
SEQEND
  8
0
  0
SOLID
  8
0
 62
    15
 10
5.186720
 20
1.881880
 11
5.190680
 21
2.617560
 12
5.232040
 22
1.827320
 13
5.236000
 23
2.563000
  0
POLYLINE
  8
0
  6
CONTINUOUS
 66
     1
 40
0.000000
 41
0.000000
  0
VERTEX
  8
0
  6
CONTINUOUS
 10
5.186720
 20
1.881880
  0
VERTEX
  8
0
  6
CONTINUOUS
 10
5.190680
 20
2.617560
  0
VERTEX
  8
0
  6
CONTINUOUS
 10
5.236000
 20
2.563000
  0
VERTEX
  8
0
  6
CONTINUOUS
 10
5.232040
 20
1.827320
  0
VERTEX
  8
0
  6
CONTINUOUS
 10
5.186720
 20
1.881880
  0
SEQEND
  8
0
  0
SOLID
  8
0
 62
    15
 10
5.232040
 20
1.827320
 11
5.236000
 21
2.563000
 12
5.252280
 22
1.800480
 13
5.256240
 23
2.535720
  0
POLYLINE
  8
0
  6
CONTINUOUS
 66
     1
 40
0.000000
 41
0.000000
  0
VERTEX
  8
0
  6
CONTINUOUS
 10
5.232040
 20
1.827320
  0
VERTEX
  8
0
  6
CONTINUOUS
 10
5.236000
 20
2.563000
  0
VERTEX
  8
0
  6
CONTINUOUS
 10
5.256240
 20
2.535720
  0
VERTEX
  8
0
  6
CONTINUOUS
 10
5.252280
 20
1.800480
  0
VERTEX
  8
0
  6
CONTINUOUS
 10
5.232040
 20
1.827320
  0
SEQEND
  8
0
  0
SOLID
  8
0
 62
    15
 10
5.252280
 20
1.800480
 11
5.256240
 21
2.535720
 12
5.270320
 22
1.777160
 13
5.274720
 23
2.512840
  0
POLYLINE
  8
0
  6
CONTINUOUS
 66
     1
 40
0.000000
 41
0.000000
  0
VERTEX
  8
0
  6
CONTINUOUS
 10
5.252280
 20
1.800480
  0
VERTEX
  8
0
  6
CONTINUOUS
 10
5.256240
 20
2.535720
  0
VERTEX
  8
0
  6
CONTINUOUS
 10
5.274720
 20
2.512840
  0
VERTEX
  8
0
  6
CONTINUOUS
 10
5.270320
 20
1.777160
  0
VERTEX
  8
0
  6
CONTINUOUS
 10
5.252280
 20
1.800480
  0
SEQEND
  8
0
  0
SOLID
  8
0
 62
    15
 10
5.270320
 20
1.777160
 11
5.274720
 21
2.512840
 12
5.302440
 22
1.742400
 13
5.306400
 23
2.477640
  0
POLYLINE
  8
0
  6
CONTINUOUS
 66
     1
 40
0.000000
 41
0.000000
  0
VERTEX
  8
0
  6
CONTINUOUS
 10
5.270320
 20
1.777160
  0
VERTEX
  8
0
  6
CONTINUOUS
 10
5.274720
 20
2.512840
  0
VERTEX
  8
0
  6
CONTINUOUS
 10
5.306400
 20
2.477640
  0
VERTEX
  8
0
  6
CONTINUOUS
 10
5.302440
 20
1.742400
  0
VERTEX
  8
0
  6
CONTINUOUS
 10
5.270320
 20
1.777160
  0
SEQEND
  8
0
  0
SOLID
  8
0
 62
    15
 10
5.302440
 20
1.742400
 11
5.306400
 21
2.477640
 12
5.329280
 22
1.719520
 13
5.333240
 23
2.455200
  0
POLYLINE
  8
0
  6
CONTINUOUS
 66
     1
 40
0.000000
 41
0.000000
  0
VERTEX
  8
0
  6
CONTINUOUS
 10
5.302440
 20
1.742400
  0
VERTEX
  8
0
  6
CONTINUOUS
 10
5.306400
 20
2.477640
  0
VERTEX
  8
0
  6
CONTINUOUS
 10
5.333240
 20
2.455200
  0
VERTEX
  8
0
  6
CONTINUOUS
 10
5.329280
 20
1.719520
  0
VERTEX
  8
0
  6
CONTINUOUS
 10
5.302440
 20
1.742400
  0
SEQEND
  8
0
  0
SOLID
  8
0
 62
    15
 10
5.329280
 20
1.719520
 11
5.333240
 21
2.455200
 12
5.353040
 22
1.706760
 13
5.357440
 23
2.442440
  0
POLYLINE
  8
0
  6
CONTINUOUS
 66
     1
 40
0.000000
 41
0.000000
  0
VERTEX
  8
0
  6
CONTINUOUS
 10
5.329280
 20
1.719520
  0
VERTEX
  8
0
  6
CONTINUOUS
 10
5.333240
 20
2.455200
  0
VERTEX
  8
0
  6
CONTINUOUS
 10
5.357440
 20
2.442440
  0
VERTEX
  8
0
  6
CONTINUOUS
 10
5.353040
 20
1.706760
  0
VERTEX
  8
0
  6
CONTINUOUS
 10
5.329280
 20
1.719520
  0
SEQEND
  8
0
  0
SOLID
  8
0
 62
    15
 10
5.353040
 20
1.706760
 11
5.357440
 21
2.442440
 12
5.375480
 22
1.701040
 13
5.379440
 23
2.436720
  0
POLYLINE
  8
0
  6
CONTINUOUS
 66
     1
 40
0.000000
 41
0.000000
  0
VERTEX
  8
0
  6
CONTINUOUS
 10
5.353040
 20
1.706760
  0
VERTEX
  8
0
  6
CONTINUOUS
 10
5.357440
 20
2.442440
  0
VERTEX
  8
0
  6
CONTINUOUS
 10
5.379440
 20
2.436720
  0
VERTEX
  8
0
  6
CONTINUOUS
 10
5.375480
 20
1.701040
  0
VERTEX
  8
0
  6
CONTINUOUS
 10
5.353040
 20
1.706760
  0
SEQEND
  8
0
  0
SOLID
  8
0
 62
    15
 10
5.375480
 20
1.701040
 11
5.379440
 21
2.436720
 12
5.398360
 22
1.700160
 13
5.402320
 23
2.435400
  0
POLYLINE
  8
0
  6
CONTINUOUS
 66
     1
 40
0.000000
 41
0.000000
  0
VERTEX
  8
0
  6
CONTINUOUS
 10
5.375480
 20
1.701040
  0
VERTEX
  8
0
  6
CONTINUOUS
 10
5.379440
 20
2.436720
  0
VERTEX
  8
0
  6
CONTINUOUS
 10
5.402320
 20
2.435400
  0
VERTEX
  8
0
  6
CONTINUOUS
 10
5.398360
 20
1.700160
  0
VERTEX
  8
0
  6
CONTINUOUS
 10
5.375480
 20
1.701040
  0
SEQEND
  8
0
  0
SOLID
  8
0
 62
    15
 10
5.398360
 20
1.700160
 11
5.402320
 21
2.435400
 12
5.404080
 22
1.700160
 13
5.408040
 23
2.435400
  0
POLYLINE
  8
0
  6
CONTINUOUS
 66
     1
 40
0.000000
 41
0.000000
  0
VERTEX
  8
0
  6
CONTINUOUS
 10
5.398360
 20
1.700160
  0
VERTEX
  8
0
  6
CONTINUOUS
 10
5.402320
 20
2.435400
  0
VERTEX
  8
0
  6
CONTINUOUS
 10
5.408040
 20
2.435400
  0
VERTEX
  8
0
  6
CONTINUOUS
 10
5.404080
 20
1.700160
  0
VERTEX
  8
0
  6
CONTINUOUS
 10
5.398360
 20
1.700160
  0
SEQEND
  8
0
  0
SOLID
  8
0
 62
    15
 10
5.404080
 20
1.700160
 11
5.408040
 21
2.435400
 12
5.422560
 22
1.700600
 13
5.426960
 23
2.436280
  0
POLYLINE
  8
0
  6
CONTINUOUS
 66
     1
 40
0.000000
 41
0.000000
  0
VERTEX
  8
0
  6
CONTINUOUS
 10
5.404080
 20
1.700160
  0
VERTEX
  8
0
  6
CONTINUOUS
 10
5.408040
 20
2.435400
  0
VERTEX
  8
0
  6
CONTINUOUS
 10
5.426960
 20
2.436280
  0
VERTEX
  8
0
  6
CONTINUOUS
 10
5.422560
 20
1.700600
  0
VERTEX
  8
0
  6
CONTINUOUS
 10
5.404080
 20
1.700160
  0
SEQEND
  8
0
  0
SOLID
  8
0
 62
    15
 10
5.422560
 20
1.700600
 11
5.426960
 21
2.436280
 12
5.450720
 22
1.700600
 13
5.454680
 23
2.435840
  0
POLYLINE
  8
0
  6
CONTINUOUS
 66
     1
 40
0.000000
 41
0.000000
  0
VERTEX
  8
0
  6
CONTINUOUS
 10
5.422560
 20
1.700600
  0
VERTEX
  8
0
  6
CONTINUOUS
 10
5.426960
 20
2.436280
  0
VERTEX
  8
0
  6
CONTINUOUS
 10
5.454680
 20
2.435840
  0
VERTEX
  8
0
  6
CONTINUOUS
 10
5.450720
 20
1.700600
  0
VERTEX
  8
0
  6
CONTINUOUS
 10
5.422560
 20
1.700600
  0
SEQEND
  8
0
  0
SOLID
  8
0
 62
    15
 10
5.450720
 20
1.700600
 11
5.454680
 21
2.435840
 12
5.455120
 22
1.702360
 13
5.459080
 23
2.438040
  0
POLYLINE
  8
0
  6
CONTINUOUS
 66
     1
 40
0.000000
 41
0.000000
  0
VERTEX
  8
0
  6
CONTINUOUS
 10
5.450720
 20
1.700600
  0
VERTEX
  8
0
  6
CONTINUOUS
 10
5.454680
 20
2.435840
  0
VERTEX
  8
0
  6
CONTINUOUS
 10
5.459080
 20
2.438040
  0
VERTEX
  8
0
  6
CONTINUOUS
 10
5.455120
 20
1.702360
  0
VERTEX
  8
0
  6
CONTINUOUS
 10
5.450720
 20
1.700600
  0
SEQEND
  8
0
  0
SOLID
  8
0
 62
    15
 10
5.455120
 20
1.702360
 11
5.459080
 21
2.438040
 12
5.471400
 22
1.733600
 13
5.475360
 23
2.469280
  0
POLYLINE
  8
0
  6
CONTINUOUS
 66
     1
 40
0.000000
 41
0.000000
  0
VERTEX
  8
0
  6
CONTINUOUS
 10
5.455120
 20
1.702360
  0
VERTEX
  8
0
  6
CONTINUOUS
 10
5.459080
 20
2.438040
  0
VERTEX
  8
0
  6
CONTINUOUS
 10
5.475360
 20
2.469280
  0
VERTEX
  8
0
  6
CONTINUOUS
 10
5.471400
 20
1.733600
  0
VERTEX
  8
0
  6
CONTINUOUS
 10
5.455120
 20
1.702360
  0
SEQEND
  8
0
  0
SOLID
  8
0
 62
    15
 10
5.471400
 20
1.733600
 11
5.475360
 21
2.469280
 12
5.495160
 22
1.755600
 13
5.499120
 23
2.491280
  0
POLYLINE
  8
0
  6
CONTINUOUS
 66
     1
 40
0.000000
 41
0.000000
  0
VERTEX
  8
0
  6
CONTINUOUS
 10
5.471400
 20
1.733600
  0
VERTEX
  8
0
  6
CONTINUOUS
 10
5.475360
 20
2.469280
  0
VERTEX
  8
0
  6
CONTINUOUS
 10
5.499120
 20
2.491280
  0
VERTEX
  8
0
  6
CONTINUOUS
 10
5.495160
 20
1.755600
  0
VERTEX
  8
0
  6
CONTINUOUS
 10
5.471400
 20
1.733600
  0
SEQEND
  8
0
  0
SOLID
  8
0
 62
    15
 10
5.495160
 20
1.755600
 11
5.499120
 21
2.491280
 12
5.523760
 22
1.768800
 13
5.528160
 23
2.504480
  0
POLYLINE
  8
0
  6
CONTINUOUS
 66
     1
 40
0.000000
 41
0.000000
  0
VERTEX
  8
0
  6
CONTINUOUS
 10
5.495160
 20
1.755600
  0
VERTEX
  8
0
  6
CONTINUOUS
 10
5.499120
 20
2.491280
  0
VERTEX
  8
0
  6
CONTINUOUS
 10
5.528160
 20
2.504480
  0
VERTEX
  8
0
  6
CONTINUOUS
 10
5.523760
 20
1.768800
  0
VERTEX
  8
0
  6
CONTINUOUS
 10
5.495160
 20
1.755600
  0
SEQEND
  8
0
  0
SOLID
  8
0
 62
    15
 10
5.523760
 20
1.768800
 11
5.528160
 21
2.504480
 12
5.555440
 22
1.773200
 13
5.559400
 23
2.508440
  0
POLYLINE
  8
0
  6
CONTINUOUS
 66
     1
 40
0.000000
 41
0.000000
  0
VERTEX
  8
0
  6
CONTINUOUS
 10
5.523760
 20
1.768800
  0
VERTEX
  8
0
  6
CONTINUOUS
 10
5.528160
 20
2.504480
  0
VERTEX
  8
0
  6
CONTINUOUS
 10
5.559400
 20
2.508440
  0
VERTEX
  8
0
  6
CONTINUOUS
 10
5.555440
 20
1.773200
  0
VERTEX
  8
0
  6
CONTINUOUS
 10
5.523760
 20
1.768800
  0
SEQEND
  8
0
  0
SOLID
  8
0
 62
    15
 10
5.555440
 20
1.773200
 11
5.559400
 21
2.508440
 12
5.586680
 22
1.768360
 13
5.590640
 23
2.504040
  0
POLYLINE
  8
0
  6
CONTINUOUS
 66
     1
 40
0.000000
 41
0.000000
  0
VERTEX
  8
0
  6
CONTINUOUS
 10
5.555440
 20
1.773200
  0
VERTEX
  8
0
  6
CONTINUOUS
 10
5.559400
 20
2.508440
  0
VERTEX
  8
0
  6
CONTINUOUS
 10
5.590640
 20
2.504040
  0
VERTEX
  8
0
  6
CONTINUOUS
 10
5.586680
 20
1.768360
  0
VERTEX
  8
0
  6
CONTINUOUS
 10
5.555440
 20
1.773200
  0
SEQEND
  8
0
  0
SOLID
  8
0
 62
    15
 10
5.586680
 20
1.768360
 11
5.590640
 21
2.504040
 12
5.615720
 22
1.755600
 13
5.620120
 23
2.490840
  0
POLYLINE
  8
0
  6
CONTINUOUS
 66
     1
 40
0.000000
 41
0.000000
  0
VERTEX
  8
0
  6
CONTINUOUS
 10
5.586680
 20
1.768360
  0
VERTEX
  8
0
  6
CONTINUOUS
 10
5.590640
 20
2.504040
  0
VERTEX
  8
0
  6
CONTINUOUS
 10
5.620120
 20
2.490840
  0
VERTEX
  8
0
  6
CONTINUOUS
 10
5.615720
 20
1.755600
  0
VERTEX
  8
0
  6
CONTINUOUS
 10
5.586680
 20
1.768360
  0
SEQEND
  8
0
  0
SOLID
  8
0
 62
    15
 10
4.888400
 20
1.815000
 11
4.892360
 21
2.550240
 12
4.902040
 22
1.852400
 13
4.906000
 23
2.588080
  0
POLYLINE
  8
0
  6
CONTINUOUS
 66
     1
 40
0.000000
 41
0.000000
  0
VERTEX
  8
0
  6
CONTINUOUS
 10
4.888400
 20
1.815000
  0
VERTEX
  8
0
  6
CONTINUOUS
 10
4.892360
 20
2.550240
  0
VERTEX
  8
0
  6
CONTINUOUS
 10
4.906000
 20
2.588080
  0
VERTEX
  8
0
  6
CONTINUOUS
 10
4.902040
 20
1.852400
  0
VERTEX
  8
0
  6
CONTINUOUS
 10
4.888400
 20
1.815000
  0
SEQEND
  8
0
  0
SOLID
  8
0
 62
    15
 10
5.640360
 20
1.734040
 11
5.644320
 21
2.469720
 12
5.657080
 22
1.704560
 13
5.661040
 23
2.440240
  0
POLYLINE
  8
0
  6
CONTINUOUS
 66
     1
 40
0.000000
 41
0.000000
  0
VERTEX
  8
0
  6
CONTINUOUS
 10
5.640360
 20
1.734040
  0
VERTEX
  8
0
  6
CONTINUOUS
 10
5.644320
 20
2.469720
  0
VERTEX
  8
0
  6
CONTINUOUS
 10
5.661040
 20
2.440240
  0
VERTEX
  8
0
  6
CONTINUOUS
 10
5.657080
 20
1.704560
  0
VERTEX
  8
0
  6
CONTINUOUS
 10
5.640360
 20
1.734040
  0
SEQEND
  8
0
  0
SOLID
  8
0
 62
    15
 10
5.657080
 20
1.704560
 11
5.661040
 21
2.440240
 12
5.659280
 22
1.702360
 13
5.663240
 23
2.438040
  0
POLYLINE
  8
0
  6
CONTINUOUS
 66
     1
 40
0.000000
 41
0.000000
  0
VERTEX
  8
0
  6
CONTINUOUS
 10
5.657080
 20
1.704560
  0
VERTEX
  8
0
  6
CONTINUOUS
 10
5.661040
 20
2.440240
  0
VERTEX
  8
0
  6
CONTINUOUS
 10
5.663240
 20
2.438040
  0
VERTEX
  8
0
  6
CONTINUOUS
 10
5.659280
 20
1.702360
  0
VERTEX
  8
0
  6
CONTINUOUS
 10
5.657080
 20
1.704560
  0
SEQEND
  8
0
  0
SOLID
  8
0
 62
    15
 10
5.742440
 20
1.594120
 11
5.746400
 21
2.329800
 12
5.746840
 22
1.591920
 13
5.750800
 23
2.327600
  0
POLYLINE
  8
0
  6
CONTINUOUS
 66
     1
 40
0.000000
 41
0.000000
  0
VERTEX
  8
0
  6
CONTINUOUS
 10
5.742440
 20
1.594120
  0
VERTEX
  8
0
  6
CONTINUOUS
 10
5.746400
 20
2.329800
  0
VERTEX
  8
0
  6
CONTINUOUS
 10
5.750800
 20
2.327600
  0
VERTEX
  8
0
  6
CONTINUOUS
 10
5.746840
 20
1.591920
  0
VERTEX
  8
0
  6
CONTINUOUS
 10
5.742440
 20
1.594120
  0
SEQEND
  8
0
  0
SOLID
  8
0
 62
    15
 10
5.742440
 20
1.702360
 11
5.746400
 21
2.438040
 12
5.742440
 22
1.594120
 13
5.746400
 23
2.329800
  0
POLYLINE
  8
0
  6
CONTINUOUS
 66
     1
 40
0.000000
 41
0.000000
  0
VERTEX
  8
0
  6
CONTINUOUS
 10
5.742440
 20
1.702360
  0
VERTEX
  8
0
  6
CONTINUOUS
 10
5.746400
 20
2.438040
  0
VERTEX
  8
0
  6
CONTINUOUS
 10
5.746400
 20
2.329800
  0
VERTEX
  8
0
  6
CONTINUOUS
 10
5.742440
 20
1.594120
  0
VERTEX
  8
0
  6
CONTINUOUS
 10
5.742440
 20
1.702360
  0
SEQEND
  8
0
  0
SOLID
  8
0
 62
    15
 10
5.659280
 20
1.702360
 11
5.663240
 21
2.438040
 12
5.742440
 22
1.702360
 13
5.746400
 23
2.438040
  0
POLYLINE
  8
0
  6
CONTINUOUS
 66
     1
 40
0.000000
 41
0.000000
  0
VERTEX
  8
0
  6
CONTINUOUS
 10
5.659280
 20
1.702360
  0
VERTEX
  8
0
  6
CONTINUOUS
 10
5.663240
 20
2.438040
  0
VERTEX
  8
0
  6
CONTINUOUS
 10
5.746400
 20
2.438040
  0
VERTEX
  8
0
  6
CONTINUOUS
 10
5.742440
 20
1.702360
  0
VERTEX
  8
0
  6
CONTINUOUS
 10
5.659280
 20
1.702360
  0
SEQEND
  8
0
  0
SOLID
  8
0
 62
    15
 10
6.820880
 20
1.543520
 11
6.824840
 21
2.279200
 12
6.834520
 22
1.502600
 13
6.838480
 23
2.238280
  0
POLYLINE
  8
0
  6
CONTINUOUS
 66
     1
 40
0.000000
 41
0.000000
  0
VERTEX
  8
0
  6
CONTINUOUS
 10
6.820880
 20
1.543520
  0
VERTEX
  8
0
  6
CONTINUOUS
 10
6.824840
 20
2.279200
  0
VERTEX
  8
0
  6
CONTINUOUS
 10
6.838480
 20
2.238280
  0
VERTEX
  8
0
  6
CONTINUOUS
 10
6.834520
 20
1.502600
  0
VERTEX
  8
0
  6
CONTINUOUS
 10
6.820880
 20
1.543520
  0
SEQEND
  8
0
  0
SOLID
  8
0
 62
    15
 10
6.813400
 20
1.591920
 11
6.817360
 21
2.327600
 12
6.820880
 22
1.543520
 13
6.824840
 23
2.279200
  0
POLYLINE
  8
0
  6
CONTINUOUS
 66
     1
 40
0.000000
 41
0.000000
  0
VERTEX
  8
0
  6
CONTINUOUS
 10
6.813400
 20
1.591920
  0
VERTEX
  8
0
  6
CONTINUOUS
 10
6.817360
 20
2.327600
  0
VERTEX
  8
0
  6
CONTINUOUS
 10
6.824840
 20
2.279200
  0
VERTEX
  8
0
  6
CONTINUOUS
 10
6.820880
 20
1.543520
  0
VERTEX
  8
0
  6
CONTINUOUS
 10
6.813400
 20
1.591920
  0
SEQEND
  8
0
  0
SOLID
  8
0
 62
    15
 10
5.746840
 20
1.591920
 11
5.750800
 21
2.327600
 12
6.813400
 22
1.591920
 13
6.817360
 23
2.327600
  0
POLYLINE
  8
0
  6
CONTINUOUS
 66
     1
 40
0.000000
 41
0.000000
  0
VERTEX
  8
0
  6
CONTINUOUS
 10
5.746840
 20
1.591920
  0
VERTEX
  8
0
  6
CONTINUOUS
 10
5.750800
 20
2.327600
  0
VERTEX
  8
0
  6
CONTINUOUS
 10
6.817360
 20
2.327600
  0
VERTEX
  8
0
  6
CONTINUOUS
 10
6.813400
 20
1.591920
  0
VERTEX
  8
0
  6
CONTINUOUS
 10
5.746840
 20
1.591920
  0
SEQEND
  8
0
  0
SOLID
  8
0
 62
    15
 10
6.834520
 20
1.502600
 11
6.838480
 21
2.238280
 12
6.854320
 22
1.468720
 13
6.858720
 23
2.204400
  0
POLYLINE
  8
0
  6
CONTINUOUS
 66
     1
 40
0.000000
 41
0.000000
  0
VERTEX
  8
0
  6
CONTINUOUS
 10
6.834520
 20
1.502600
  0
VERTEX
  8
0
  6
CONTINUOUS
 10
6.838480
 20
2.238280
  0
VERTEX
  8
0
  6
CONTINUOUS
 10
6.858720
 20
2.204400
  0
VERTEX
  8
0
  6
CONTINUOUS
 10
6.854320
 20
1.468720
  0
VERTEX
  8
0
  6
CONTINUOUS
 10
6.834520
 20
1.502600
  0
SEQEND
  8
0
  0
SOLID
  8
0
 62
    15
 10
6.854320
 20
1.468720
 11
6.858720
 21
2.204400
 12
6.882040
 22
1.441880
 13
6.886000
 23
2.177120
  0
POLYLINE
  8
0
  6
CONTINUOUS
 66
     1
 40
0.000000
 41
0.000000
  0
VERTEX
  8
0
  6
CONTINUOUS
 10
6.854320
 20
1.468720
  0
VERTEX
  8
0
  6
CONTINUOUS
 10
6.858720
 20
2.204400
  0
VERTEX
  8
0
  6
CONTINUOUS
 10
6.886000
 20
2.177120
  0
VERTEX
  8
0
  6
CONTINUOUS
 10
6.882040
 20
1.441880
  0
VERTEX
  8
0
  6
CONTINUOUS
 10
6.854320
 20
1.468720
  0
SEQEND
  8
0
  0
SOLID
  8
0
 62
    15
 10
6.882040
 20
1.441880
 11
6.886000
 21
2.177120
 12
6.916800
 22
1.421640
 13
6.920760
 23
2.156880
  0
POLYLINE
  8
0
  6
CONTINUOUS
 66
     1
 40
0.000000
 41
0.000000
  0
VERTEX
  8
0
  6
CONTINUOUS
 10
6.882040
 20
1.441880
  0
VERTEX
  8
0
  6
CONTINUOUS
 10
6.886000
 20
2.177120
  0
VERTEX
  8
0
  6
CONTINUOUS
 10
6.920760
 20
2.156880
  0
VERTEX
  8
0
  6
CONTINUOUS
 10
6.916800
 20
1.421640
  0
VERTEX
  8
0
  6
CONTINUOUS
 10
6.882040
 20
1.441880
  0
SEQEND
  8
0
  0
SOLID
  8
0
 62
    15
 10
6.916800
 20
1.421640
 11
6.920760
 21
2.156880
 12
6.959920
 22
1.407120
 13
6.964320
 23
2.142800
  0
POLYLINE
  8
0
  6
CONTINUOUS
 66
     1
 40
0.000000
 41
0.000000
  0
VERTEX
  8
0
  6
CONTINUOUS
 10
6.916800
 20
1.421640
  0
VERTEX
  8
0
  6
CONTINUOUS
 10
6.920760
 20
2.156880
  0
VERTEX
  8
0
  6
CONTINUOUS
 10
6.964320
 20
2.142800
  0
VERTEX
  8
0
  6
CONTINUOUS
 10
6.959920
 20
1.407120
  0
VERTEX
  8
0
  6
CONTINUOUS
 10
6.916800
 20
1.421640
  0
SEQEND
  8
0
  0
SOLID
  8
0
 62
    15
 10
6.959920
 20
1.407120
 11
6.964320
 21
2.142800
 12
7.012280
 22
1.398760
 13
7.016240
 23
2.134440
  0
POLYLINE
  8
0
  6
CONTINUOUS
 66
     1
 40
0.000000
 41
0.000000
  0
VERTEX
  8
0
  6
CONTINUOUS
 10
6.959920
 20
1.407120
  0
VERTEX
  8
0
  6
CONTINUOUS
 10
6.964320
 20
2.142800
  0
VERTEX
  8
0
  6
CONTINUOUS
 10
7.016240
 20
2.134440
  0
VERTEX
  8
0
  6
CONTINUOUS
 10
7.012280
 20
1.398760
  0
VERTEX
  8
0
  6
CONTINUOUS
 10
6.959920
 20
1.407120
  0
SEQEND
  8
0
  0
SOLID
  8
0
 62
    15
 10
7.073880
 20
1.396120
 11
7.077840
 21
2.131800
 12
7.073880
 22
1.117160
 13
7.077840
 23
1.852400
  0
POLYLINE
  8
0
  6
CONTINUOUS
 66
     1
 40
0.000000
 41
0.000000
  0
VERTEX
  8
0
  6
CONTINUOUS
 10
7.073880
 20
1.396120
  0
VERTEX
  8
0
  6
CONTINUOUS
 10
7.077840
 20
2.131800
  0
VERTEX
  8
0
  6
CONTINUOUS
 10
7.077840
 20
1.852400
  0
VERTEX
  8
0
  6
CONTINUOUS
 10
7.073880
 20
1.117160
  0
VERTEX
  8
0
  6
CONTINUOUS
 10
7.073880
 20
1.396120
  0
SEQEND
  8
0
  0
SOLID
  8
0
 62
    15
 10
7.012280
 20
1.398760
 11
7.016240
 21
2.134440
 12
7.073880
 22
1.396120
 13
7.077840
 23
2.131800
  0
POLYLINE
  8
0
  6
CONTINUOUS
 66
     1
 40
0.000000
 41
0.000000
  0
VERTEX
  8
0
  6
CONTINUOUS
 10
7.012280
 20
1.398760
  0
VERTEX
  8
0
  6
CONTINUOUS
 10
7.016240
 20
2.134440
  0
VERTEX
  8
0
  6
CONTINUOUS
 10
7.077840
 20
2.131800
  0
VERTEX
  8
0
  6
CONTINUOUS
 10
7.073880
 20
1.396120
  0
VERTEX
  8
0
  6
CONTINUOUS
 10
7.012280
 20
1.398760
  0
SEQEND
  8
0
  0
SOLID
  8
0
 62
    15
 10
3.936240
 20
1.821160
 11
3.940200
 21
2.556840
 12
3.936680
 22
1.839200
 13
3.940640
 23
2.574880
  0
POLYLINE
  8
0
  6
CONTINUOUS
 66
     1
 40
0.000000
 41
0.000000
  0
VERTEX
  8
0
  6
CONTINUOUS
 10
3.936240
 20
1.821160
  0
VERTEX
  8
0
  6
CONTINUOUS
 10
3.940200
 20
2.556840
  0
VERTEX
  8
0
  6
CONTINUOUS
 10
3.940640
 20
2.574880
  0
VERTEX
  8
0
  6
CONTINUOUS
 10
3.936680
 20
1.839200
  0
VERTEX
  8
0
  6
CONTINUOUS
 10
3.936240
 20
1.821160
  0
SEQEND
  8
0
  0
SOLID
  8
0
 62
    15
 10
3.936680
 20
1.839200
 11
3.940640
 21
2.574880
 12
3.939320
 22
1.861640
 13
3.943280
 23
2.597320
  0
POLYLINE
  8
0
  6
CONTINUOUS
 66
     1
 40
0.000000
 41
0.000000
  0
VERTEX
  8
0
  6
CONTINUOUS
 10
3.936680
 20
1.839200
  0
VERTEX
  8
0
  6
CONTINUOUS
 10
3.940640
 20
2.574880
  0
VERTEX
  8
0
  6
CONTINUOUS
 10
3.943280
 20
2.597320
  0
VERTEX
  8
0
  6
CONTINUOUS
 10
3.939320
 20
1.861640
  0
VERTEX
  8
0
  6
CONTINUOUS
 10
3.936680
 20
1.839200
  0
SEQEND
  8
0
  0
SOLID
  8
0
 62
    15
 10
3.939320
 20
1.861640
 11
3.943280
 21
2.597320
 12
3.945920
 22
1.886720
 13
3.949880
 23
2.622400
  0
POLYLINE
  8
0
  6
CONTINUOUS
 66
     1
 40
0.000000
 41
0.000000
  0
VERTEX
  8
0
  6
CONTINUOUS
 10
3.939320
 20
1.861640
  0
VERTEX
  8
0
  6
CONTINUOUS
 10
3.943280
 20
2.597320
  0
VERTEX
  8
0
  6
CONTINUOUS
 10
3.949880
 20
2.622400
  0
VERTEX
  8
0
  6
CONTINUOUS
 10
3.945920
 20
1.886720
  0
VERTEX
  8
0
  6
CONTINUOUS
 10
3.939320
 20
1.861640
  0
SEQEND
  8
0
  0
SOLID
  8
0
 62
    15
 10
3.945920
 20
1.886720
 11
3.949880
 21
2.622400
 12
3.957360
 22
1.912240
 13
3.961320
 23
2.647480
  0
POLYLINE
  8
0
  6
CONTINUOUS
 66
     1
 40
0.000000
 41
0.000000
  0
VERTEX
  8
0
  6
CONTINUOUS
 10
3.945920
 20
1.886720
  0
VERTEX
  8
0
  6
CONTINUOUS
 10
3.949880
 20
2.622400
  0
VERTEX
  8
0
  6
CONTINUOUS
 10
3.961320
 20
2.647480
  0
VERTEX
  8
0
  6
CONTINUOUS
 10
3.957360
 20
1.912240
  0
VERTEX
  8
0
  6
CONTINUOUS
 10
3.945920
 20
1.886720
  0
SEQEND
  8
0
  0
SOLID
  8
0
 62
    15
 10
3.957360
 20
1.912240
 11
3.961320
 21
2.647480
 12
3.975400
 22
1.935560
 13
3.979360
 23
2.671240
  0
POLYLINE
  8
0
  6
CONTINUOUS
 66
     1
 40
0.000000
 41
0.000000
  0
VERTEX
  8
0
  6
CONTINUOUS
 10
3.957360
 20
1.912240
  0
VERTEX
  8
0
  6
CONTINUOUS
 10
3.961320
 20
2.647480
  0
VERTEX
  8
0
  6
CONTINUOUS
 10
3.979360
 20
2.671240
  0
VERTEX
  8
0
  6
CONTINUOUS
 10
3.975400
 20
1.935560
  0
VERTEX
  8
0
  6
CONTINUOUS
 10
3.957360
 20
1.912240
  0
SEQEND
  8
0
  0
SOLID
  8
0
 62
    15
 10
3.975400
 20
1.935560
 11
3.979360
 21
2.671240
 12
4.002240
 22
1.955360
 13
4.006200
 23
2.690600
  0
POLYLINE
  8
0
  6
CONTINUOUS
 66
     1
 40
0.000000
 41
0.000000
  0
VERTEX
  8
0
  6
CONTINUOUS
 10
3.975400
 20
1.935560
  0
VERTEX
  8
0
  6
CONTINUOUS
 10
3.979360
 20
2.671240
  0
VERTEX
  8
0
  6
CONTINUOUS
 10
4.006200
 20
2.690600
  0
VERTEX
  8
0
  6
CONTINUOUS
 10
4.002240
 20
1.955360
  0
VERTEX
  8
0
  6
CONTINUOUS
 10
3.975400
 20
1.935560
  0
SEQEND
  8
0
  0
SOLID
  8
0
 62
    15
 10
4.002240
 20
1.955360
 11
4.006200
 21
2.690600
 12
4.038320
 22
1.968560
 13
4.042720
 23
2.703800
  0
POLYLINE
  8
0
  6
CONTINUOUS
 66
     1
 40
0.000000
 41
0.000000
  0
VERTEX
  8
0
  6
CONTINUOUS
 10
4.002240
 20
1.955360
  0
VERTEX
  8
0
  6
CONTINUOUS
 10
4.006200
 20
2.690600
  0
VERTEX
  8
0
  6
CONTINUOUS
 10
4.042720
 20
2.703800
  0
VERTEX
  8
0
  6
CONTINUOUS
 10
4.038320
 20
1.968560
  0
VERTEX
  8
0
  6
CONTINUOUS
 10
4.002240
 20
1.955360
  0
SEQEND
  8
0
  0
SOLID
  8
0
 62
    15
 10
4.038320
 20
1.968560
 11
4.042720
 21
2.703800
 12
4.085840
 22
1.973400
 13
4.089800
 23
2.708640
  0
POLYLINE
  8
0
  6
CONTINUOUS
 66
     1
 40
0.000000
 41
0.000000
  0
VERTEX
  8
0
  6
CONTINUOUS
 10
4.038320
 20
1.968560
  0
VERTEX
  8
0
  6
CONTINUOUS
 10
4.042720
 20
2.703800
  0
VERTEX
  8
0
  6
CONTINUOUS
 10
4.089800
 20
2.708640
  0
VERTEX
  8
0
  6
CONTINUOUS
 10
4.085840
 20
1.973400
  0
VERTEX
  8
0
  6
CONTINUOUS
 10
4.038320
 20
1.968560
  0
SEQEND
  8
0
  0
SOLID
  8
0
 62
    15
 10
4.080120
 20
1.973400
 11
4.084080
 21
2.708640
 12
4.854960
 22
1.971200
 13
4.858920
 23
2.706880
  0
POLYLINE
  8
0
  6
CONTINUOUS
 66
     1
 40
0.000000
 41
0.000000
  0
VERTEX
  8
0
  6
CONTINUOUS
 10
4.080120
 20
1.973400
  0
VERTEX
  8
0
  6
CONTINUOUS
 10
4.084080
 20
2.708640
  0
VERTEX
  8
0
  6
CONTINUOUS
 10
4.858920
 20
2.706880
  0
VERTEX
  8
0
  6
CONTINUOUS
 10
4.854960
 20
1.971200
  0
VERTEX
  8
0
  6
CONTINUOUS
 10
4.080120
 20
1.973400
  0
SEQEND
  8
0
  0
SOLID
  8
0
 62
    15
 10
4.089800
 20
2.708640
 11
4.090240
 21
2.708640
 12
4.085840
 22
1.973400
 13
4.086280
 23
1.973400
  0
POLYLINE
  8
0
  6
CONTINUOUS
 66
     1
 40
0.000000
 41
0.000000
  0
VERTEX
  8
0
  6
CONTINUOUS
 10
4.089800
 20
2.708640
  0
VERTEX
  8
0
  6
CONTINUOUS
 10
4.090240
 20
2.708640
  0
VERTEX
  8
0
  6
CONTINUOUS
 10
4.086280
 20
1.973400
  0
VERTEX
  8
0
  6
CONTINUOUS
 10
4.085840
 20
1.973400
  0
VERTEX
  8
0
  6
CONTINUOUS
 10
4.089800
 20
2.708640
  0
SEQEND
  8
0
  0
SOLID
  8
0
 62
    15
 10
4.854960
 20
1.971200
 11
4.858920
 21
2.706880
 12
4.857160
 22
1.973400
 13
4.861120
 23
2.708640
  0
POLYLINE
  8
0
  6
CONTINUOUS
 66
     1
 40
0.000000
 41
0.000000
  0
VERTEX
  8
0
  6
CONTINUOUS
 10
4.854960
 20
1.971200
  0
VERTEX
  8
0
  6
CONTINUOUS
 10
4.858920
 20
2.706880
  0
VERTEX
  8
0
  6
CONTINUOUS
 10
4.861120
 20
2.708640
  0
VERTEX
  8
0
  6
CONTINUOUS
 10
4.857160
 20
1.973400
  0
VERTEX
  8
0
  6
CONTINUOUS
 10
4.854960
 20
1.971200
  0
SEQEND
  8
0
  0
SOLID
  8
0
 62
    15
 10
4.857160
 20
1.973400
 11
4.861120
 21
2.708640
 12
4.857160
 22
1.812800
 13
4.861120
 23
2.548480
  0
POLYLINE
  8
0
  6
CONTINUOUS
 66
     1
 40
0.000000
 41
0.000000
  0
VERTEX
  8
0
  6
CONTINUOUS
 10
4.857160
 20
1.973400
  0
VERTEX
  8
0
  6
CONTINUOUS
 10
4.861120
 20
2.708640
  0
VERTEX
  8
0
  6
CONTINUOUS
 10
4.861120
 20
2.548480
  0
VERTEX
  8
0
  6
CONTINUOUS
 10
4.857160
 20
1.812800
  0
VERTEX
  8
0
  6
CONTINUOUS
 10
4.857160
 20
1.973400
  0
SEQEND
  8
0
  0
SOLID
  8
0
 62
    15
 10
4.857160
 20
1.812800
 11
4.861120
 21
2.548480
 12
4.863320
 22
1.806640
 13
4.867280
 23
2.542320
  0
POLYLINE
  8
0
  6
CONTINUOUS
 66
     1
 40
0.000000
 41
0.000000
  0
VERTEX
  8
0
  6
CONTINUOUS
 10
4.857160
 20
1.812800
  0
VERTEX
  8
0
  6
CONTINUOUS
 10
4.861120
 20
2.548480
  0
VERTEX
  8
0
  6
CONTINUOUS
 10
4.867280
 20
2.542320
  0
VERTEX
  8
0
  6
CONTINUOUS
 10
4.863320
 20
1.806640
  0
VERTEX
  8
0
  6
CONTINUOUS
 10
4.857160
 20
1.812800
  0
SEQEND
  8
0
  0
SOLID
  8
0
 62
    15
 10
4.863320
 20
1.806640
 11
4.867280
 21
2.542320
 12
4.873880
 22
1.806640
 13
4.877840
 23
2.542320
  0
POLYLINE
  8
0
  6
CONTINUOUS
 66
     1
 40
0.000000
 41
0.000000
  0
VERTEX
  8
0
  6
CONTINUOUS
 10
4.863320
 20
1.806640
  0
VERTEX
  8
0
  6
CONTINUOUS
 10
4.867280
 20
2.542320
  0
VERTEX
  8
0
  6
CONTINUOUS
 10
4.877840
 20
2.542320
  0
VERTEX
  8
0
  6
CONTINUOUS
 10
4.873880
 20
1.806640
  0
VERTEX
  8
0
  6
CONTINUOUS
 10
4.863320
 20
1.806640
  0
SEQEND
  8
0
  0
SOLID
  8
0
 62
    15
 10
4.873880
 20
1.806640
 11
4.877840
 21
2.542320
 12
4.888400
 22
1.815000
 13
4.892360
 23
2.550240
  0
POLYLINE
  8
0
  6
CONTINUOUS
 66
     1
 40
0.000000
 41
0.000000
  0
VERTEX
  8
0
  6
CONTINUOUS
 10
4.873880
 20
1.806640
  0
VERTEX
  8
0
  6
CONTINUOUS
 10
4.877840
 20
2.542320
  0
VERTEX
  8
0
  6
CONTINUOUS
 10
4.892360
 20
2.550240
  0
VERTEX
  8
0
  6
CONTINUOUS
 10
4.888400
 20
1.815000
  0
VERTEX
  8
0
  6
CONTINUOUS
 10
4.873880
 20
1.806640
  0
SEQEND
  8
0
  0
POLYLINE
  8
0
  6
CONTINUOUS
 66
     1
 40
0.000000
 41
0.000000
  0
VERTEX
  8
0
  6
CONTINUOUS
 10
4.888400
 20
1.815000
  0
VERTEX
  8
0
  6
CONTINUOUS
 10
4.902040
 20
1.852400
  0
VERTEX
  8
0
  6
CONTINUOUS
 10
4.917440
 20
1.884080
  0
VERTEX
  8
0
  6
CONTINUOUS
 10
4.935040
 20
1.910480
  0
VERTEX
  8
0
  6
CONTINUOUS
 10
4.953960
 20
1.930720
  0
VERTEX
  8
0
  6
CONTINUOUS
 10
4.974200
 20
1.946120
  0
VERTEX
  8
0
  6
CONTINUOUS
 10
4.995760
 20
1.956240
  0
VERTEX
  8
0
  6
CONTINUOUS
 10
5.018200
 20
1.961960
  0
VERTEX
  8
0
  6
CONTINUOUS
 10
5.041520
 20
1.962400
  0
VERTEX
  8
0
  6
CONTINUOUS
 10
5.065280
 20
1.958880
  0
VERTEX
  8
0
  6
CONTINUOUS
 10
5.089480
 20
1.950960
  0
VERTEX
  8
0
  6
CONTINUOUS
 10
5.138760
 20
1.923680
  0
VERTEX
  8
0
  6
CONTINUOUS
 10
5.186720
 20
1.881880
  0
VERTEX
  8
0
  6
CONTINUOUS
 10
5.232040
 20
1.827320
  0
VERTEX
  8
0
  6
CONTINUOUS
 10
5.270320
 20
1.777160
  0
VERTEX
  8
0
  6
CONTINUOUS
 10
5.302440
 20
1.742400
  0
VERTEX
  8
0
  6
CONTINUOUS
 10
5.329280
 20
1.719520
  0
VERTEX
  8
0
  6
CONTINUOUS
 10
5.353040
 20
1.706760
  0
VERTEX
  8
0
  6
CONTINUOUS
 10
5.375480
 20
1.701040
  0
VERTEX
  8
0
  6
CONTINUOUS
 10
5.422560
 20
1.700600
  0
VERTEX
  8
0
  6
CONTINUOUS
 10
5.450720
 20
1.700600
  0
VERTEX
  8
0
  6
CONTINUOUS
 10
5.455120
 20
1.702360
  0
VERTEX
  8
0
  6
CONTINUOUS
 10
5.471400
 20
1.733600
  0
VERTEX
  8
0
  6
CONTINUOUS
 10
5.495160
 20
1.755600
  0
VERTEX
  8
0
  6
CONTINUOUS
 10
5.523760
 20
1.768800
  0
VERTEX
  8
0
  6
CONTINUOUS
 10
5.555440
 20
1.773200
  0
VERTEX
  8
0
  6
CONTINUOUS
 10
5.586680
 20
1.768360
  0
VERTEX
  8
0
  6
CONTINUOUS
 10
5.615720
 20
1.755600
  0
VERTEX
  8
0
  6
CONTINUOUS
 10
5.640360
 20
1.734040
  0
VERTEX
  8
0
  6
CONTINUOUS
 10
5.659280
 20
1.702360
  0
VERTEX
  8
0
  6
CONTINUOUS
 10
5.742440
 20
1.702360
  0
VERTEX
  8
0
  6
CONTINUOUS
 10
5.742440
 20
1.594120
  0
VERTEX
  8
0
  6
CONTINUOUS
 10
5.746840
 20
1.591920
  0
VERTEX
  8
0
  6
CONTINUOUS
 10
6.813400
 20
1.591920
  0
VERTEX
  8
0
  6
CONTINUOUS
 10
6.820880
 20
1.543520
  0
VERTEX
  8
0
  6
CONTINUOUS
 10
6.834520
 20
1.502600
  0
VERTEX
  8
0
  6
CONTINUOUS
 10
6.854320
 20
1.468720
  0
VERTEX
  8
0
  6
CONTINUOUS
 10
6.882040
 20
1.441880
  0
VERTEX
  8
0
  6
CONTINUOUS
 10
6.916800
 20
1.421640
  0
VERTEX
  8
0
  6
CONTINUOUS
 10
6.959920
 20
1.407120
  0
VERTEX
  8
0
  6
CONTINUOUS
 10
7.012280
 20
1.398760
  0
VERTEX
  8
0
  6
CONTINUOUS
 10
7.073880
 20
1.396120
  0
VERTEX
  8
0
  6
CONTINUOUS
 10
7.073880
 20
1.117160
  0
VERTEX
  8
0
  6
CONTINUOUS
 10
3.936240
 20
1.117160
  0
VERTEX
  8
0
  6
CONTINUOUS
 10
3.936680
 20
1.839200
  0
VERTEX
  8
0
  6
CONTINUOUS
 10
3.939320
 20
1.861640
  0
VERTEX
  8
0
  6
CONTINUOUS
 10
3.945920
 20
1.886720
  0
VERTEX
  8
0
  6
CONTINUOUS
 10
3.957360
 20
1.912240
  0
VERTEX
  8
0
  6
CONTINUOUS
 10
3.975400
 20
1.935560
  0
VERTEX
  8
0
  6
CONTINUOUS
 10
4.002240
 20
1.955360
  0
VERTEX
  8
0
  6
CONTINUOUS
 10
4.038320
 20
1.968560
  0
VERTEX
  8
0
  6
CONTINUOUS
 10
4.086280
 20
1.973400
  0
VERTEX
  8
0
  6
CONTINUOUS
 10
4.080120
 20
1.973400
  0
VERTEX
  8
0
  6
CONTINUOUS
 10
4.854960
 20
1.971200
  0
VERTEX
  8
0
  6
CONTINUOUS
 10
4.857160
 20
1.973400
  0
VERTEX
  8
0
  6
CONTINUOUS
 10
4.857160
 20
1.812800
  0
VERTEX
  8
0
  6
CONTINUOUS
 10
4.863320
 20
1.806640
  0
VERTEX
  8
0
  6
CONTINUOUS
 10
4.873880
 20
1.806640
  0
VERTEX
  8
0
  6
CONTINUOUS
 10
4.888400
 20
1.815000
  0
SEQEND
  8
0
  0
TEXT
  8
0
 10
5.212240
 20
0.887920
 40
0.138127
  1
BA  564
 41
1.000000
  7
SN0
 71
     0
 72
     5
 11
5.802503
 21
0.887920
  0
TEXT
  8
0
 10
5.056040
 20
0.696080
 40
0.138127
  1
7/8" x 3-1/8"
 41
1.000000
  7
SN0
 71
     0
 72
     5
 11
5.957179
 21
0.696080
  0
ENDSEC
  0
EOF
