  0
SECTION
  2
HEADER
  9
$ACADVER
  1
AC1006
  9
$EXTMIN
 10
4.164160
 20
0.531960
  9
$EXTMAX
 10
6.727160
 20
2.335960
  9
$LTSCALE
 40
0.044000
  9
$PDMODE
 70
    35
  9
$PDSIZE
 40
0.035200
  0
ENDSEC
  0
SECTION
  2
TABLES
  0
TABLE
  2
LTYPE
 70
     9
  0
LTYPE
  2
CONTINUOUS
 70
    64
  3
Solid line
 72
    65
 73
     0
 40
0.000000
  0
LTYPE
  2
DASHED
 70
    64
  3
__ __ __ __ __ __ __ __ __ __ __ __ __ __ __
 72
    65
 73
     2
 40
0.000330
 49
0.000220
 49
-0.000110
  0
LTYPE
  2
HIDDEN
 70
    64
  3
 _ _ _ _ _ _ _ _ _ _ _ _ _ _ _ _ _ _ _ _ _ _
 72
    65
 73
     2
 40
0.000165
 49
0.000110
 49
-0.000055
  0
LTYPE
  2
CENTER
 70
    64
  3
____ _ ____ _ ____ _ ____ _ ____ _ ____ _ ____
 72
    65
 73
     4
 40
0.000880
 49
0.000550
 49
-0.000110
 49
0.000110
 49
-0.000110
  0
LTYPE
  2
PHANTOM
 70
    64
  3
_____ _ _ _____ _ _ _____ _ _ _____ _ _ ____
 72
    65
 73
     6
 40
0.001100
 49
0.000550
 49
-0.000110
 49
0.000110
 49
-0.000110
 49
0.000110
 49
-0.000110
  0
LTYPE
  2
DOT
 70
    64
  3
...............................................
 72
    65
 73
     2
 40
0.000110
 49
0.000000
 49
-0.000110
  0
LTYPE
  2
DASHDOT
 70
    64
  3
__ . __ . __ . __ . __ . __ . __ . __ . __ . __
 72
    65
 73
     4
 40
0.000440
 49
0.000220
 49
-0.000110
 49
0.000000
 49
-0.000110
  0
LTYPE
  2
BORDER
 70
    64
  3
__ __ . __ __ . __ __ . __ __ . __ __ . __ __
 72
    65
 73
     6
 40
0.000770
 49
0.000220
 49
-0.000110
 49
0.000220
 49
-0.000110
 49
0.000000
 49
-0.000110
  0
LTYPE
  2
DIVIDE
 70
    64
  3
__ . . __ . . __ . . __ . . __ . . __ . . __
 72
    65
 73
     6
 40
0.000550
 49
0.000220
 49
-0.000110
 49
0.000000
 49
-0.000110
 49
0.000000
 49
-0.000110
  0
LTYPE
  2
DOTDOT
 70
    64
  3
 . .  . .  . .  . .  . .  . . 
 72
    65
 73
     5
 40
0.000242
 49
-0.000110
 49
0.000000
 49
-0.000110
 49
0.000000
 49
-0.000110
  0
ENDTAB
  0
TABLE
  2
STYLE
 70
     2
  0
STYLE
 70
     0
  2
SN0
 40
0.000000
 41
0.000440
 50
0.000000
 71
     0
 42
0.000000
  3
ROMAND
  0
STYLE
 70
    68
  2
SV0
 40
0.000000
 41
0.000440
 50
0.000000
 71
     0
 42
0.000000
  3
ROMAND
  0
ENDTAB
  0
TABLE
  2
LAYER
 70
     3
  0
LAYER
  2
FOREGROUND
 70
    64
 62
     7
  6
CONTINUOUS
  0
LAYER
  2
BACKGROUND
 70
    65
 62
    -7
  6
CONTINUOUS
  0
LAYER
  2
0
 70
    64
 62
     7
  6
CONTINUOUS
  0
ENDTAB
  0
ENDSEC
  0
SECTION
  2
ENTITIES
  0
POLYLINE
  8
FOREGROUND
  6
CONTINUOUS
 66
     1
 40
0.000000
 41
0.000000
  0
VERTEX
  8
FOREGROUND
  6
CONTINUOUS
 10
0.000000
 20
2.867920
  0
VERTEX
  8
FOREGROUND
  6
CONTINUOUS
 10
8.499920
 20
2.867920
  0
VERTEX
  8
FOREGROUND
  6
CONTINUOUS
 10
8.499920
 20
-8.132080
  0
VERTEX
  8
FOREGROUND
  6
CONTINUOUS
 10
0.000000
 20
-8.132080
  0
VERTEX
  8
FOREGROUND
  6
CONTINUOUS
 10
0.000000
 20
2.867920
  0
SEQEND
  8
0
  0
POLYLINE
  8
FOREGROUND
  6
CONTINUOUS
 66
     1
 40
0.000000
 41
0.000000
  0
VERTEX
  8
FOREGROUND
  6
CONTINUOUS
 10
0.000000
 20
2.867920
  0
VERTEX
  8
FOREGROUND
  6
CONTINUOUS
 10
8.499920
 20
2.867920
  0
VERTEX
  8
FOREGROUND
  6
CONTINUOUS
 10
8.499920
 20
-8.132080
  0
VERTEX
  8
FOREGROUND
  6
CONTINUOUS
 10
0.000000
 20
-8.132080
  0
VERTEX
  8
FOREGROUND
  6
CONTINUOUS
 10
0.000000
 20
2.867920
  0
SEQEND
  8
0
  0
POLYLINE
  8
0
  6
CONTINUOUS
 66
     1
 40
0.014080
 41
0.014080
  0
VERTEX
  8
0
  6
CONTINUOUS
 10
6.221160
 20
1.307240
  0
VERTEX
  8
0
  6
CONTINUOUS
 10
5.969040
 20
1.307240
  0
VERTEX
  8
0
  6
CONTINUOUS
 10
5.969040
 20
2.307360
  0
VERTEX
  8
0
  6
CONTINUOUS
 10
6.471080
 20
2.307360
  0
VERTEX
  8
0
  6
CONTINUOUS
 10
6.498360
 20
2.304720
  0
VERTEX
  8
0
  6
CONTINUOUS
 10
6.524320
 20
2.299440
  0
VERTEX
  8
0
  6
CONTINUOUS
 10
6.560840
 20
2.286680
  0
VERTEX
  8
0
  6
CONTINUOUS
 10
6.593400
 20
2.269080
  0
VERTEX
  8
0
  6
CONTINUOUS
 10
6.613640
 20
2.255000
  0
VERTEX
  8
0
  6
CONTINUOUS
 10
6.632120
 20
2.238720
  0
VERTEX
  8
0
  6
CONTINUOUS
 10
6.648840
 20
2.221120
  0
VERTEX
  8
0
  6
CONTINUOUS
 10
6.663800
 20
2.202200
  0
VERTEX
  8
0
  6
CONTINUOUS
 10
6.677000
 20
2.181960
  0
VERTEX
  8
0
  6
CONTINUOUS
 10
6.698560
 20
2.137960
  0
VERTEX
  8
0
  6
CONTINUOUS
 10
6.706480
 20
2.114640
  0
VERTEX
  8
0
  6
CONTINUOUS
 10
6.712640
 20
2.090880
  0
VERTEX
  8
0
  6
CONTINUOUS
 10
6.717040
 20
2.066680
  0
VERTEX
  8
0
  6
CONTINUOUS
 10
6.719240
 20
2.042040
  0
VERTEX
  8
0
  6
CONTINUOUS
 10
6.719680
 20
2.017400
  0
VERTEX
  8
0
  6
CONTINUOUS
 10
6.718360
 20
1.992760
  0
VERTEX
  8
0
  6
CONTINUOUS
 10
6.714840
 20
1.968120
  0
VERTEX
  8
0
  6
CONTINUOUS
 10
6.709120
 20
1.943920
  0
VERTEX
  8
0
  6
CONTINUOUS
 10
6.701200
 20
1.920600
  0
VERTEX
  8
0
  6
CONTINUOUS
 10
6.691520
 20
1.897720
  0
VERTEX
  8
0
  6
CONTINUOUS
 10
6.673040
 20
1.865600
  0
VERTEX
  8
0
  6
CONTINUOUS
 10
6.649280
 20
1.835680
  0
VERTEX
  8
0
  6
CONTINUOUS
 10
6.620240
 20
1.808840
  0
VERTEX
  8
0
  6
CONTINUOUS
 10
6.586360
 20
1.785960
  0
VERTEX
  8
0
  6
CONTINUOUS
 10
6.547200
 20
1.767040
  0
VERTEX
  8
0
  6
CONTINUOUS
 10
6.502320
 20
1.752960
  0
VERTEX
  8
0
  6
CONTINUOUS
 10
6.469320
 20
1.746800
  0
VERTEX
  8
0
  6
CONTINUOUS
 10
6.469320
 20
1.619640
  0
VERTEX
  8
0
  6
CONTINUOUS
 10
6.431920
 20
1.617000
  0
VERTEX
  8
0
  6
CONTINUOUS
 10
6.398040
 20
1.610840
  0
VERTEX
  8
0
  6
CONTINUOUS
 10
6.368120
 20
1.601160
  0
VERTEX
  8
0
  6
CONTINUOUS
 10
6.329840
 20
1.581360
  0
VERTEX
  8
0
  6
CONTINUOUS
 10
6.298600
 20
1.555400
  0
VERTEX
  8
0
  6
CONTINUOUS
 10
6.281440
 20
1.535600
  0
VERTEX
  8
0
  6
CONTINUOUS
 10
6.260320
 20
1.502160
  0
VERTEX
  8
0
  6
CONTINUOUS
 10
6.245360
 20
1.465640
  0
VERTEX
  8
0
  6
CONTINUOUS
 10
6.237880
 20
1.440120
  0
VERTEX
  8
0
  6
CONTINUOUS
 10
6.232160
 20
1.413720
  0
VERTEX
  8
0
  6
CONTINUOUS
 10
6.228200
 20
1.386880
  0
VERTEX
  8
0
  6
CONTINUOUS
 10
6.225120
 20
1.333200
  0
VERTEX
  8
0
  6
CONTINUOUS
 10
6.225560
 20
1.307240
  0
VERTEX
  8
0
  6
CONTINUOUS
 10
6.221160
 20
1.307240
  0
SEQEND
  8
0
  0
SOLID
  8
0
 62
    15
 10
4.905120
 20
1.604680
 11
5.547520
 21
1.972080
 12
4.887520
 22
1.558480
 13
5.529920
 23
1.925880
  0
POLYLINE
  8
0
  6
CONTINUOUS
 66
     1
 40
0.000000
 41
0.000000
  0
VERTEX
  8
0
  6
CONTINUOUS
 10
4.905120
 20
1.604680
  0
VERTEX
  8
0
  6
CONTINUOUS
 10
5.547520
 20
1.972080
  0
VERTEX
  8
0
  6
CONTINUOUS
 10
5.529920
 20
1.925880
  0
VERTEX
  8
0
  6
CONTINUOUS
 10
4.887520
 20
1.558480
  0
VERTEX
  8
0
  6
CONTINUOUS
 10
4.905120
 20
1.604680
  0
SEQEND
  8
0
  0
SOLID
  8
0
 62
    15
 10
4.667080
 20
1.968120
 11
5.309480
 21
2.335080
 12
4.720320
 22
1.959760
 13
5.362720
 23
2.327160
  0
POLYLINE
  8
0
  6
CONTINUOUS
 66
     1
 40
0.000000
 41
0.000000
  0
VERTEX
  8
0
  6
CONTINUOUS
 10
4.667080
 20
1.968120
  0
VERTEX
  8
0
  6
CONTINUOUS
 10
5.309480
 20
2.335080
  0
VERTEX
  8
0
  6
CONTINUOUS
 10
5.362720
 20
2.327160
  0
VERTEX
  8
0
  6
CONTINUOUS
 10
4.720320
 20
1.959760
  0
VERTEX
  8
0
  6
CONTINUOUS
 10
4.667080
 20
1.968120
  0
SEQEND
  8
0
  0
SOLID
  8
0
 62
    15
 10
4.720320
 20
1.959760
 11
5.362720
 21
2.327160
 12
4.767840
 22
1.941720
 13
5.410240
 23
2.309120
  0
POLYLINE
  8
0
  6
CONTINUOUS
 66
     1
 40
0.000000
 41
0.000000
  0
VERTEX
  8
0
  6
CONTINUOUS
 10
4.720320
 20
1.959760
  0
VERTEX
  8
0
  6
CONTINUOUS
 10
5.362720
 20
2.327160
  0
VERTEX
  8
0
  6
CONTINUOUS
 10
5.410240
 20
2.309120
  0
VERTEX
  8
0
  6
CONTINUOUS
 10
4.767840
 20
1.941720
  0
VERTEX
  8
0
  6
CONTINUOUS
 10
4.720320
 20
1.959760
  0
SEQEND
  8
0
  0
SOLID
  8
0
 62
    15
 10
4.767840
 20
1.941720
 11
5.410240
 21
2.309120
 12
4.809640
 22
1.915320
 13
5.452040
 23
2.282720
  0
POLYLINE
  8
0
  6
CONTINUOUS
 66
     1
 40
0.000000
 41
0.000000
  0
VERTEX
  8
0
  6
CONTINUOUS
 10
4.767840
 20
1.941720
  0
VERTEX
  8
0
  6
CONTINUOUS
 10
5.410240
 20
2.309120
  0
VERTEX
  8
0
  6
CONTINUOUS
 10
5.452040
 20
2.282720
  0
VERTEX
  8
0
  6
CONTINUOUS
 10
4.809640
 20
1.915320
  0
VERTEX
  8
0
  6
CONTINUOUS
 10
4.767840
 20
1.941720
  0
SEQEND
  8
0
  0
SOLID
  8
0
 62
    15
 10
4.809640
 20
1.915320
 11
5.452040
 21
2.282720
 12
4.844400
 22
1.881880
 13
5.486800
 23
2.248840
  0
POLYLINE
  8
0
  6
CONTINUOUS
 66
     1
 40
0.000000
 41
0.000000
  0
VERTEX
  8
0
  6
CONTINUOUS
 10
4.809640
 20
1.915320
  0
VERTEX
  8
0
  6
CONTINUOUS
 10
5.452040
 20
2.282720
  0
VERTEX
  8
0
  6
CONTINUOUS
 10
5.486800
 20
2.248840
  0
VERTEX
  8
0
  6
CONTINUOUS
 10
4.844400
 20
1.881880
  0
VERTEX
  8
0
  6
CONTINUOUS
 10
4.809640
 20
1.915320
  0
SEQEND
  8
0
  0
SOLID
  8
0
 62
    15
 10
4.844400
 20
1.881880
 11
5.486800
 21
2.248840
 12
4.873000
 22
1.842280
 13
5.515400
 23
2.209680
  0
POLYLINE
  8
0
  6
CONTINUOUS
 66
     1
 40
0.000000
 41
0.000000
  0
VERTEX
  8
0
  6
CONTINUOUS
 10
4.844400
 20
1.881880
  0
VERTEX
  8
0
  6
CONTINUOUS
 10
5.486800
 20
2.248840
  0
VERTEX
  8
0
  6
CONTINUOUS
 10
5.515400
 20
2.209680
  0
VERTEX
  8
0
  6
CONTINUOUS
 10
4.873000
 20
1.842280
  0
VERTEX
  8
0
  6
CONTINUOUS
 10
4.844400
 20
1.881880
  0
SEQEND
  8
0
  0
SOLID
  8
0
 62
    15
 10
4.873000
 20
1.842280
 11
5.515400
 21
2.209680
 12
4.894560
 22
1.798720
 13
5.536520
 23
2.165680
  0
POLYLINE
  8
0
  6
CONTINUOUS
 66
     1
 40
0.000000
 41
0.000000
  0
VERTEX
  8
0
  6
CONTINUOUS
 10
4.873000
 20
1.842280
  0
VERTEX
  8
0
  6
CONTINUOUS
 10
5.515400
 20
2.209680
  0
VERTEX
  8
0
  6
CONTINUOUS
 10
5.536520
 20
2.165680
  0
VERTEX
  8
0
  6
CONTINUOUS
 10
4.894560
 20
1.798720
  0
VERTEX
  8
0
  6
CONTINUOUS
 10
4.873000
 20
1.842280
  0
SEQEND
  8
0
  0
SOLID
  8
0
 62
    15
 10
4.894560
 20
1.798720
 11
5.536520
 21
2.165680
 12
4.908640
 22
1.751640
 13
5.551040
 23
2.118600
  0
POLYLINE
  8
0
  6
CONTINUOUS
 66
     1
 40
0.000000
 41
0.000000
  0
VERTEX
  8
0
  6
CONTINUOUS
 10
4.894560
 20
1.798720
  0
VERTEX
  8
0
  6
CONTINUOUS
 10
5.536520
 20
2.165680
  0
VERTEX
  8
0
  6
CONTINUOUS
 10
5.551040
 20
2.118600
  0
VERTEX
  8
0
  6
CONTINUOUS
 10
4.908640
 20
1.751640
  0
VERTEX
  8
0
  6
CONTINUOUS
 10
4.894560
 20
1.798720
  0
SEQEND
  8
0
  0
SOLID
  8
0
 62
    15
 10
4.908640
 20
1.751640
 11
5.551040
 21
2.118600
 12
4.915240
 22
1.702800
 13
5.557640
 23
2.069760
  0
POLYLINE
  8
0
  6
CONTINUOUS
 66
     1
 40
0.000000
 41
0.000000
  0
VERTEX
  8
0
  6
CONTINUOUS
 10
4.908640
 20
1.751640
  0
VERTEX
  8
0
  6
CONTINUOUS
 10
5.551040
 20
2.118600
  0
VERTEX
  8
0
  6
CONTINUOUS
 10
5.557640
 20
2.069760
  0
VERTEX
  8
0
  6
CONTINUOUS
 10
4.915240
 20
1.702800
  0
VERTEX
  8
0
  6
CONTINUOUS
 10
4.908640
 20
1.751640
  0
SEQEND
  8
0
  0
SOLID
  8
0
 62
    15
 10
4.915240
 20
1.702800
 11
5.557640
 21
2.069760
 12
4.913920
 22
1.653080
 13
5.556320
 23
2.020480
  0
POLYLINE
  8
0
  6
CONTINUOUS
 66
     1
 40
0.000000
 41
0.000000
  0
VERTEX
  8
0
  6
CONTINUOUS
 10
4.915240
 20
1.702800
  0
VERTEX
  8
0
  6
CONTINUOUS
 10
5.557640
 20
2.069760
  0
VERTEX
  8
0
  6
CONTINUOUS
 10
5.556320
 20
2.020480
  0
VERTEX
  8
0
  6
CONTINUOUS
 10
4.913920
 20
1.653080
  0
VERTEX
  8
0
  6
CONTINUOUS
 10
4.915240
 20
1.702800
  0
SEQEND
  8
0
  0
SOLID
  8
0
 62
    15
 10
4.913920
 20
1.653080
 11
5.556320
 21
2.020480
 12
4.905120
 22
1.604680
 13
5.547520
 23
1.972080
  0
POLYLINE
  8
0
  6
CONTINUOUS
 66
     1
 40
0.000000
 41
0.000000
  0
VERTEX
  8
0
  6
CONTINUOUS
 10
4.913920
 20
1.653080
  0
VERTEX
  8
0
  6
CONTINUOUS
 10
5.556320
 20
2.020480
  0
VERTEX
  8
0
  6
CONTINUOUS
 10
5.547520
 20
1.972080
  0
VERTEX
  8
0
  6
CONTINUOUS
 10
4.905120
 20
1.604680
  0
VERTEX
  8
0
  6
CONTINUOUS
 10
4.913920
 20
1.653080
  0
SEQEND
  8
0
  0
SOLID
  8
0
 62
    15
 10
4.165040
 20
1.968120
 11
4.807440
 21
2.335080
 12
4.667080
 22
1.968120
 13
5.309480
 23
2.335080
  0
POLYLINE
  8
0
  6
CONTINUOUS
 66
     1
 40
0.000000
 41
0.000000
  0
VERTEX
  8
0
  6
CONTINUOUS
 10
4.165040
 20
1.968120
  0
VERTEX
  8
0
  6
CONTINUOUS
 10
4.807440
 20
2.335080
  0
VERTEX
  8
0
  6
CONTINUOUS
 10
5.309480
 20
2.335080
  0
VERTEX
  8
0
  6
CONTINUOUS
 10
4.667080
 20
1.968120
  0
VERTEX
  8
0
  6
CONTINUOUS
 10
4.165040
 20
1.968120
  0
SEQEND
  8
0
  0
SOLID
  8
0
 62
    15
 10
4.537720
 20
1.249160
 11
5.180120
 21
1.616560
 12
4.514400
 22
1.233760
 13
5.156800
 23
1.601160
  0
POLYLINE
  8
0
  6
CONTINUOUS
 66
     1
 40
0.000000
 41
0.000000
  0
VERTEX
  8
0
  6
CONTINUOUS
 10
4.537720
 20
1.249160
  0
VERTEX
  8
0
  6
CONTINUOUS
 10
5.180120
 20
1.616560
  0
VERTEX
  8
0
  6
CONTINUOUS
 10
5.156800
 20
1.601160
  0
VERTEX
  8
0
  6
CONTINUOUS
 10
4.514400
 20
1.233760
  0
VERTEX
  8
0
  6
CONTINUOUS
 10
4.537720
 20
1.249160
  0
SEQEND
  8
0
  0
SOLID
  8
0
 62
    15
 10
4.514400
 20
1.233760
 11
5.156800
 21
1.601160
 12
4.494160
 22
1.216160
 13
5.136560
 23
1.583120
  0
POLYLINE
  8
0
  6
CONTINUOUS
 66
     1
 40
0.000000
 41
0.000000
  0
VERTEX
  8
0
  6
CONTINUOUS
 10
4.514400
 20
1.233760
  0
VERTEX
  8
0
  6
CONTINUOUS
 10
5.156800
 20
1.601160
  0
VERTEX
  8
0
  6
CONTINUOUS
 10
5.136560
 20
1.583120
  0
VERTEX
  8
0
  6
CONTINUOUS
 10
4.494160
 20
1.216160
  0
VERTEX
  8
0
  6
CONTINUOUS
 10
4.514400
 20
1.233760
  0
SEQEND
  8
0
  0
SOLID
  8
0
 62
    15
 10
4.494160
 20
1.216160
 11
5.136560
 21
1.583120
 12
4.462480
 22
1.174360
 13
5.104880
 23
1.541320
  0
POLYLINE
  8
0
  6
CONTINUOUS
 66
     1
 40
0.000000
 41
0.000000
  0
VERTEX
  8
0
  6
CONTINUOUS
 10
4.494160
 20
1.216160
  0
VERTEX
  8
0
  6
CONTINUOUS
 10
5.136560
 20
1.583120
  0
VERTEX
  8
0
  6
CONTINUOUS
 10
5.104880
 20
1.541320
  0
VERTEX
  8
0
  6
CONTINUOUS
 10
4.462480
 20
1.174360
  0
VERTEX
  8
0
  6
CONTINUOUS
 10
4.494160
 20
1.216160
  0
SEQEND
  8
0
  0
SOLID
  8
0
 62
    15
 10
4.462480
 20
1.174360
 11
5.104880
 21
1.541320
 12
4.440920
 22
1.126400
 13
5.083320
 23
1.493360
  0
POLYLINE
  8
0
  6
CONTINUOUS
 66
     1
 40
0.000000
 41
0.000000
  0
VERTEX
  8
0
  6
CONTINUOUS
 10
4.462480
 20
1.174360
  0
VERTEX
  8
0
  6
CONTINUOUS
 10
5.104880
 20
1.541320
  0
VERTEX
  8
0
  6
CONTINUOUS
 10
5.083320
 20
1.493360
  0
VERTEX
  8
0
  6
CONTINUOUS
 10
4.440920
 20
1.126400
  0
VERTEX
  8
0
  6
CONTINUOUS
 10
4.462480
 20
1.174360
  0
SEQEND
  8
0
  0
SOLID
  8
0
 62
    15
 10
4.664880
 20
1.407560
 11
5.307280
 21
1.774520
 12
4.664880
 22
1.280400
 13
5.307280
 23
1.647800
  0
POLYLINE
  8
0
  6
CONTINUOUS
 66
     1
 40
0.000000
 41
0.000000
  0
VERTEX
  8
0
  6
CONTINUOUS
 10
4.664880
 20
1.407560
  0
VERTEX
  8
0
  6
CONTINUOUS
 10
5.307280
 20
1.774520
  0
VERTEX
  8
0
  6
CONTINUOUS
 10
5.307280
 20
1.647800
  0
VERTEX
  8
0
  6
CONTINUOUS
 10
4.664880
 20
1.280400
  0
VERTEX
  8
0
  6
CONTINUOUS
 10
4.664880
 20
1.407560
  0
SEQEND
  8
0
  0
SOLID
  8
0
 62
    15
 10
4.826360
 20
1.477960
 11
5.468760
 21
1.845360
 12
4.781920
 22
1.446720
 13
5.424320
 23
1.813680
  0
POLYLINE
  8
0
  6
CONTINUOUS
 66
     1
 40
0.000000
 41
0.000000
  0
VERTEX
  8
0
  6
CONTINUOUS
 10
4.826360
 20
1.477960
  0
VERTEX
  8
0
  6
CONTINUOUS
 10
5.468760
 20
1.845360
  0
VERTEX
  8
0
  6
CONTINUOUS
 10
5.424320
 20
1.813680
  0
VERTEX
  8
0
  6
CONTINUOUS
 10
4.781920
 20
1.446720
  0
VERTEX
  8
0
  6
CONTINUOUS
 10
4.826360
 20
1.477960
  0
SEQEND
  8
0
  0
SOLID
  8
0
 62
    15
 10
4.887520
 20
1.558480
 11
5.529920
 21
1.925880
 12
4.861120
 22
1.515800
 13
5.503520
 23
1.883200
  0
POLYLINE
  8
0
  6
CONTINUOUS
 66
     1
 40
0.000000
 41
0.000000
  0
VERTEX
  8
0
  6
CONTINUOUS
 10
4.887520
 20
1.558480
  0
VERTEX
  8
0
  6
CONTINUOUS
 10
5.529920
 20
1.925880
  0
VERTEX
  8
0
  6
CONTINUOUS
 10
5.503520
 20
1.883200
  0
VERTEX
  8
0
  6
CONTINUOUS
 10
4.861120
 20
1.515800
  0
VERTEX
  8
0
  6
CONTINUOUS
 10
4.887520
 20
1.558480
  0
SEQEND
  8
0
  0
SOLID
  8
0
 62
    15
 10
4.861120
 20
1.515800
 11
5.503520
 21
1.883200
 12
4.826360
 22
1.477960
 13
5.468760
 23
1.845360
  0
POLYLINE
  8
0
  6
CONTINUOUS
 66
     1
 40
0.000000
 41
0.000000
  0
VERTEX
  8
0
  6
CONTINUOUS
 10
4.861120
 20
1.515800
  0
VERTEX
  8
0
  6
CONTINUOUS
 10
5.503520
 20
1.883200
  0
VERTEX
  8
0
  6
CONTINUOUS
 10
5.468760
 20
1.845360
  0
VERTEX
  8
0
  6
CONTINUOUS
 10
4.826360
 20
1.477960
  0
VERTEX
  8
0
  6
CONTINUOUS
 10
4.861120
 20
1.515800
  0
SEQEND
  8
0
  0
SOLID
  8
0
 62
    15
 10
4.440920
 20
1.126400
 11
5.083320
 21
1.493360
 12
4.428160
 22
1.074040
 13
5.070560
 23
1.441440
  0
POLYLINE
  8
0
  6
CONTINUOUS
 66
     1
 40
0.000000
 41
0.000000
  0
VERTEX
  8
0
  6
CONTINUOUS
 10
4.440920
 20
1.126400
  0
VERTEX
  8
0
  6
CONTINUOUS
 10
5.083320
 20
1.493360
  0
VERTEX
  8
0
  6
CONTINUOUS
 10
5.070560
 20
1.441440
  0
VERTEX
  8
0
  6
CONTINUOUS
 10
4.428160
 20
1.074040
  0
VERTEX
  8
0
  6
CONTINUOUS
 10
4.440920
 20
1.126400
  0
SEQEND
  8
0
  0
SOLID
  8
0
 62
    15
 10
4.428160
 20
1.074040
 11
5.070560
 21
1.441440
 12
4.422000
 22
1.020800
 13
5.064400
 23
1.387760
  0
POLYLINE
  8
0
  6
CONTINUOUS
 66
     1
 40
0.000000
 41
0.000000
  0
VERTEX
  8
0
  6
CONTINUOUS
 10
4.428160
 20
1.074040
  0
VERTEX
  8
0
  6
CONTINUOUS
 10
5.070560
 20
1.441440
  0
VERTEX
  8
0
  6
CONTINUOUS
 10
5.064400
 20
1.387760
  0
VERTEX
  8
0
  6
CONTINUOUS
 10
4.422000
 20
1.020800
  0
VERTEX
  8
0
  6
CONTINUOUS
 10
4.428160
 20
1.074040
  0
SEQEND
  8
0
  0
SOLID
  8
0
 62
    15
 10
4.422000
 20
1.020800
 11
5.064400
 21
1.387760
 12
4.421120
 22
0.968000
 13
5.063520
 23
1.334960
  0
POLYLINE
  8
0
  6
CONTINUOUS
 66
     1
 40
0.000000
 41
0.000000
  0
VERTEX
  8
0
  6
CONTINUOUS
 10
4.422000
 20
1.020800
  0
VERTEX
  8
0
  6
CONTINUOUS
 10
5.064400
 20
1.387760
  0
VERTEX
  8
0
  6
CONTINUOUS
 10
5.063520
 20
1.334960
  0
VERTEX
  8
0
  6
CONTINUOUS
 10
4.421120
 20
0.968000
  0
VERTEX
  8
0
  6
CONTINUOUS
 10
4.422000
 20
1.020800
  0
SEQEND
  8
0
  0
POLYLINE
  8
0
  6
CONTINUOUS
 66
     1
 40
0.000000
 41
0.000000
  0
VERTEX
  8
0
  6
CONTINUOUS
 10
4.417160
 20
0.968000
  0
VERTEX
  8
0
  6
CONTINUOUS
 10
4.165040
 20
0.968000
  0
VERTEX
  8
0
  6
CONTINUOUS
 10
4.165040
 20
1.968120
  0
VERTEX
  8
0
  6
CONTINUOUS
 10
4.667080
 20
1.968120
  0
VERTEX
  8
0
  6
CONTINUOUS
 10
4.720320
 20
1.959760
  0
VERTEX
  8
0
  6
CONTINUOUS
 10
4.767840
 20
1.941720
  0
VERTEX
  8
0
  6
CONTINUOUS
 10
4.809640
 20
1.915320
  0
VERTEX
  8
0
  6
CONTINUOUS
 10
4.844400
 20
1.881880
  0
VERTEX
  8
0
  6
CONTINUOUS
 10
4.873000
 20
1.842280
  0
VERTEX
  8
0
  6
CONTINUOUS
 10
4.894560
 20
1.798720
  0
VERTEX
  8
0
  6
CONTINUOUS
 10
4.908640
 20
1.751640
  0
VERTEX
  8
0
  6
CONTINUOUS
 10
4.915240
 20
1.702800
  0
VERTEX
  8
0
  6
CONTINUOUS
 10
4.913920
 20
1.653080
  0
VERTEX
  8
0
  6
CONTINUOUS
 10
4.905120
 20
1.604680
  0
VERTEX
  8
0
  6
CONTINUOUS
 10
4.887520
 20
1.558480
  0
VERTEX
  8
0
  6
CONTINUOUS
 10
4.861120
 20
1.515800
  0
VERTEX
  8
0
  6
CONTINUOUS
 10
4.826360
 20
1.477960
  0
VERTEX
  8
0
  6
CONTINUOUS
 10
4.781920
 20
1.446720
  0
VERTEX
  8
0
  6
CONTINUOUS
 10
4.728240
 20
1.422520
  0
VERTEX
  8
0
  6
CONTINUOUS
 10
4.664880
 20
1.407560
  0
VERTEX
  8
0
  6
CONTINUOUS
 10
4.664880
 20
1.280400
  0
VERTEX
  8
0
  6
CONTINUOUS
 10
4.627480
 20
1.277760
  0
VERTEX
  8
0
  6
CONTINUOUS
 10
4.594040
 20
1.271600
  0
VERTEX
  8
0
  6
CONTINUOUS
 10
4.564120
 20
1.261920
  0
VERTEX
  8
0
  6
CONTINUOUS
 10
4.537720
 20
1.249160
  0
VERTEX
  8
0
  6
CONTINUOUS
 10
4.514400
 20
1.233760
  0
VERTEX
  8
0
  6
CONTINUOUS
 10
4.494160
 20
1.216160
  0
VERTEX
  8
0
  6
CONTINUOUS
 10
4.462480
 20
1.174360
  0
VERTEX
  8
0
  6
CONTINUOUS
 10
4.440920
 20
1.126400
  0
VERTEX
  8
0
  6
CONTINUOUS
 10
4.428160
 20
1.074040
  0
VERTEX
  8
0
  6
CONTINUOUS
 10
4.422000
 20
1.020800
  0
VERTEX
  8
0
  6
CONTINUOUS
 10
4.421120
 20
0.968000
  0
VERTEX
  8
0
  6
CONTINUOUS
 10
4.417160
 20
0.968000
  0
SEQEND
  8
0
  0
TEXT
  8
0
 10
4.565880
 20
0.767360
 40
0.138151
  1
BA  563
 41
1.000000
  7
SN0
 71
     0
 72
     5
 11
5.155626
 21
0.767360
  0
TEXT
  8
0
 10
4.553120
 20
0.575520
 40
0.138151
  1
3/4" x 1"
 41
1.000000
  7
SN0
 71
     0
 72
     5
 11
5.167856
 21
0.575520
  0
ENDSEC
  0
EOF
