  0
SECTION
  2
HEADER
  9
$ACADVER
  1
AC1006
  9
$EXTMIN
 10
1.362680
 20
0.616880
  9
$EXTMAX
 10
7.164080
 20
2.636480
  9
$LTSCALE
 40
0.044000
  9
$PDMODE
 70
    35
  9
$PDSIZE
 40
0.035200
  0
ENDSEC
  0
SECTION
  2
TABLES
  0
TABLE
  2
LTYPE
 70
     9
  0
LTYPE
  2
CONTINUOUS
 70
    64
  3
Solid line
 72
    65
 73
     0
 40
0.000000
  0
LTYPE
  2
DASHED
 70
    64
  3
__ __ __ __ __ __ __ __ __ __ __ __ __ __ __
 72
    65
 73
     2
 40
0.000330
 49
0.000220
 49
-0.000110
  0
LTYPE
  2
HIDDEN
 70
    64
  3
 _ _ _ _ _ _ _ _ _ _ _ _ _ _ _ _ _ _ _ _ _ _
 72
    65
 73
     2
 40
0.000165
 49
0.000110
 49
-0.000055
  0
LTYPE
  2
CENTER
 70
    64
  3
____ _ ____ _ ____ _ ____ _ ____ _ ____ _ ____
 72
    65
 73
     4
 40
0.000880
 49
0.000550
 49
-0.000110
 49
0.000110
 49
-0.000110
  0
LTYPE
  2
PHANTOM
 70
    64
  3
_____ _ _ _____ _ _ _____ _ _ _____ _ _ ____
 72
    65
 73
     6
 40
0.001100
 49
0.000550
 49
-0.000110
 49
0.000110
 49
-0.000110
 49
0.000110
 49
-0.000110
  0
LTYPE
  2
DOT
 70
    64
  3
...............................................
 72
    65
 73
     2
 40
0.000110
 49
0.000000
 49
-0.000110
  0
LTYPE
  2
DASHDOT
 70
    64
  3
__ . __ . __ . __ . __ . __ . __ . __ . __ . __
 72
    65
 73
     4
 40
0.000440
 49
0.000220
 49
-0.000110
 49
0.000000
 49
-0.000110
  0
LTYPE
  2
BORDER
 70
    64
  3
__ __ . __ __ . __ __ . __ __ . __ __ . __ __
 72
    65
 73
     6
 40
0.000770
 49
0.000220
 49
-0.000110
 49
0.000220
 49
-0.000110
 49
0.000000
 49
-0.000110
  0
LTYPE
  2
DIVIDE
 70
    64
  3
__ . . __ . . __ . . __ . . __ . . __ . . __
 72
    65
 73
     6
 40
0.000550
 49
0.000220
 49
-0.000110
 49
0.000000
 49
-0.000110
 49
0.000000
 49
-0.000110
  0
LTYPE
  2
DOTDOT
 70
    64
  3
 . .  . .  . .  . .  . .  . . 
 72
    65
 73
     5
 40
0.000242
 49
-0.000110
 49
0.000000
 49
-0.000110
 49
0.000000
 49
-0.000110
  0
ENDTAB
  0
TABLE
  2
STYLE
 70
     2
  0
STYLE
 70
     0
  2
SN0
 40
0.000000
 41
0.000440
 50
0.000000
 71
     0
 42
0.000000
  3
ROMAND
  0
STYLE
 70
    68
  2
SV0
 40
0.000000
 41
0.000440
 50
0.000000
 71
     0
 42
0.000000
  3
ROMAND
  0
ENDTAB
  0
TABLE
  2
LAYER
 70
     3
  0
LAYER
  2
FOREGROUND
 70
    64
 62
     7
  6
CONTINUOUS
  0
LAYER
  2
BACKGROUND
 70
    65
 62
    -7
  6
CONTINUOUS
  0
LAYER
  2
0
 70
    64
 62
     7
  6
CONTINUOUS
  0
ENDTAB
  0
ENDSEC
  0
SECTION
  2
ENTITIES
  0
POLYLINE
  8
FOREGROUND
  6
CONTINUOUS
 66
     1
 40
0.000000
 41
0.000000
  0
VERTEX
  8
FOREGROUND
  6
CONTINUOUS
 10
0.000000
 20
3.253360
  0
VERTEX
  8
FOREGROUND
  6
CONTINUOUS
 10
8.499920
 20
3.253360
  0
VERTEX
  8
FOREGROUND
  6
CONTINUOUS
 10
8.499920
 20
-7.746640
  0
VERTEX
  8
FOREGROUND
  6
CONTINUOUS
 10
0.000000
 20
-7.746640
  0
VERTEX
  8
FOREGROUND
  6
CONTINUOUS
 10
0.000000
 20
3.253360
  0
SEQEND
  8
0
  0
POLYLINE
  8
FOREGROUND
  6
CONTINUOUS
 66
     1
 40
0.000000
 41
0.000000
  0
VERTEX
  8
FOREGROUND
  6
CONTINUOUS
 10
0.000000
 20
3.253360
  0
VERTEX
  8
FOREGROUND
  6
CONTINUOUS
 10
8.499920
 20
3.253360
  0
VERTEX
  8
FOREGROUND
  6
CONTINUOUS
 10
8.499920
 20
-7.746640
  0
VERTEX
  8
FOREGROUND
  6
CONTINUOUS
 10
0.000000
 20
-7.746640
  0
VERTEX
  8
FOREGROUND
  6
CONTINUOUS
 10
0.000000
 20
3.253360
  0
SEQEND
  8
0
  0
POLYLINE
  8
0
  6
CONTINUOUS
 66
     1
 40
0.014080
 41
0.014080
  0
VERTEX
  8
0
  6
CONTINUOUS
 10
4.656080
 20
2.516360
  0
VERTEX
  8
0
  6
CONTINUOUS
 10
4.683360
 20
2.541000
  0
VERTEX
  8
0
  6
CONTINUOUS
 10
4.715480
 20
2.562120
  0
VERTEX
  8
0
  6
CONTINUOUS
 10
4.739240
 20
2.574000
  0
VERTEX
  8
0
  6
CONTINUOUS
 10
4.765200
 20
2.584560
  0
VERTEX
  8
0
  6
CONTINUOUS
 10
4.821080
 20
2.602160
  0
VERTEX
  8
0
  6
CONTINUOUS
 10
4.882240
 20
2.614480
  0
VERTEX
  8
0
  6
CONTINUOUS
 10
4.946480
 20
2.622840
  0
VERTEX
  8
0
  6
CONTINUOUS
 10
5.012920
 20
2.627240
  0
VERTEX
  8
0
  6
CONTINUOUS
 10
5.080240
 20
2.629000
  0
VERTEX
  8
0
  6
CONTINUOUS
 10
5.178800
 20
2.626800
  0
VERTEX
  8
0
  6
CONTINUOUS
 10
5.270760
 20
2.621080
  0
VERTEX
  8
0
  6
CONTINUOUS
 10
5.414640
 20
2.606120
  0
VERTEX
  8
0
  6
CONTINUOUS
 10
5.471400
 20
2.599960
  0
VERTEX
  8
0
  6
CONTINUOUS
 10
6.892600
 20
2.365000
  0
VERTEX
  8
0
  6
CONTINUOUS
 10
6.960360
 20
2.349160
  0
VERTEX
  8
0
  6
CONTINUOUS
 10
7.016680
 20
2.331560
  0
VERTEX
  8
0
  6
CONTINUOUS
 10
7.051880
 20
2.317040
  0
VERTEX
  8
0
  6
CONTINUOUS
 10
7.090160
 20
2.295920
  0
VERTEX
  8
0
  6
CONTINUOUS
 10
7.106000
 20
2.285360
  0
VERTEX
  8
0
  6
CONTINUOUS
 10
7.130200
 20
2.263360
  0
VERTEX
  8
0
  6
CONTINUOUS
 10
7.146480
 20
2.240480
  0
VERTEX
  8
0
  6
CONTINUOUS
 10
7.155280
 20
2.218040
  0
VERTEX
  8
0
  6
CONTINUOUS
 10
7.157040
 20
2.206600
  0
VERTEX
  8
0
  6
CONTINUOUS
 10
7.157040
 20
1.932920
  0
VERTEX
  8
0
  6
CONTINUOUS
 10
4.655200
 20
1.932920
  0
VERTEX
  8
0
  6
CONTINUOUS
 10
4.655200
 20
2.511960
  0
VERTEX
  8
0
  6
CONTINUOUS
 10
4.656080
 20
2.516360
  0
SEQEND
  8
0
  0
SOLID
  8
0
 62
    15
 10
2.140160
 20
1.759120
 11
2.140160
 21
2.521200
 12
2.166120
 22
1.756040
 13
2.165680
 23
2.518120
  0
POLYLINE
  8
0
  6
CONTINUOUS
 66
     1
 40
0.000000
 41
0.000000
  0
VERTEX
  8
0
  6
CONTINUOUS
 10
2.140160
 20
1.759120
  0
VERTEX
  8
0
  6
CONTINUOUS
 10
2.140160
 20
2.521200
  0
VERTEX
  8
0
  6
CONTINUOUS
 10
2.165680
 20
2.518120
  0
VERTEX
  8
0
  6
CONTINUOUS
 10
2.166120
 20
1.756040
  0
VERTEX
  8
0
  6
CONTINUOUS
 10
2.140160
 20
1.759120
  0
SEQEND
  8
0
  0
SOLID
  8
0
 62
    15
 10
1.401840
 20
1.703240
 11
1.401840
 21
2.465320
 12
1.448040
 22
1.729200
 13
1.447600
 23
2.490840
  0
POLYLINE
  8
0
  6
CONTINUOUS
 66
     1
 40
0.000000
 41
0.000000
  0
VERTEX
  8
0
  6
CONTINUOUS
 10
1.401840
 20
1.703240
  0
VERTEX
  8
0
  6
CONTINUOUS
 10
1.401840
 20
2.465320
  0
VERTEX
  8
0
  6
CONTINUOUS
 10
1.447600
 20
2.490840
  0
VERTEX
  8
0
  6
CONTINUOUS
 10
1.448040
 20
1.729200
  0
VERTEX
  8
0
  6
CONTINUOUS
 10
1.401840
 20
1.703240
  0
SEQEND
  8
0
  0
SOLID
  8
0
 62
    15
 10
1.448040
 20
1.729200
 11
1.447600
 21
2.490840
 12
1.500840
 22
1.749000
 13
1.500840
 23
2.511080
  0
POLYLINE
  8
0
  6
CONTINUOUS
 66
     1
 40
0.000000
 41
0.000000
  0
VERTEX
  8
0
  6
CONTINUOUS
 10
1.448040
 20
1.729200
  0
VERTEX
  8
0
  6
CONTINUOUS
 10
1.447600
 20
2.490840
  0
VERTEX
  8
0
  6
CONTINUOUS
 10
1.500840
 20
2.511080
  0
VERTEX
  8
0
  6
CONTINUOUS
 10
1.500840
 20
1.749000
  0
VERTEX
  8
0
  6
CONTINUOUS
 10
1.448040
 20
1.729200
  0
SEQEND
  8
0
  0
SOLID
  8
0
 62
    15
 10
1.500840
 20
1.749000
 11
1.500840
 21
2.511080
 12
1.559800
 22
1.763960
 13
1.559360
 23
2.525600
  0
POLYLINE
  8
0
  6
CONTINUOUS
 66
     1
 40
0.000000
 41
0.000000
  0
VERTEX
  8
0
  6
CONTINUOUS
 10
1.500840
 20
1.749000
  0
VERTEX
  8
0
  6
CONTINUOUS
 10
1.500840
 20
2.511080
  0
VERTEX
  8
0
  6
CONTINUOUS
 10
1.559360
 20
2.525600
  0
VERTEX
  8
0
  6
CONTINUOUS
 10
1.559800
 20
1.763960
  0
VERTEX
  8
0
  6
CONTINUOUS
 10
1.500840
 20
1.749000
  0
SEQEND
  8
0
  0
SOLID
  8
0
 62
    15
 10
1.559800
 20
1.763960
 11
1.559360
 21
2.525600
 12
1.622720
 22
1.774080
 13
1.622280
 23
2.536160
  0
POLYLINE
  8
0
  6
CONTINUOUS
 66
     1
 40
0.000000
 41
0.000000
  0
VERTEX
  8
0
  6
CONTINUOUS
 10
1.559800
 20
1.763960
  0
VERTEX
  8
0
  6
CONTINUOUS
 10
1.559360
 20
2.525600
  0
VERTEX
  8
0
  6
CONTINUOUS
 10
1.622280
 20
2.536160
  0
VERTEX
  8
0
  6
CONTINUOUS
 10
1.622720
 20
1.774080
  0
VERTEX
  8
0
  6
CONTINUOUS
 10
1.559800
 20
1.763960
  0
SEQEND
  8
0
  0
SOLID
  8
0
 62
    15
 10
1.622720
 20
1.774080
 11
1.622280
 21
2.536160
 12
1.688280
 22
1.780680
 13
1.687840
 23
2.542320
  0
POLYLINE
  8
0
  6
CONTINUOUS
 66
     1
 40
0.000000
 41
0.000000
  0
VERTEX
  8
0
  6
CONTINUOUS
 10
1.622720
 20
1.774080
  0
VERTEX
  8
0
  6
CONTINUOUS
 10
1.622280
 20
2.536160
  0
VERTEX
  8
0
  6
CONTINUOUS
 10
1.687840
 20
2.542320
  0
VERTEX
  8
0
  6
CONTINUOUS
 10
1.688280
 20
1.780680
  0
VERTEX
  8
0
  6
CONTINUOUS
 10
1.622720
 20
1.774080
  0
SEQEND
  8
0
  0
SOLID
  8
0
 62
    15
 10
1.688280
 20
1.780680
 11
1.687840
 21
2.542320
 12
1.822040
 22
1.783760
 13
1.822040
 23
2.545840
  0
POLYLINE
  8
0
  6
CONTINUOUS
 66
     1
 40
0.000000
 41
0.000000
  0
VERTEX
  8
0
  6
CONTINUOUS
 10
1.688280
 20
1.780680
  0
VERTEX
  8
0
  6
CONTINUOUS
 10
1.687840
 20
2.542320
  0
VERTEX
  8
0
  6
CONTINUOUS
 10
1.822040
 20
2.545840
  0
VERTEX
  8
0
  6
CONTINUOUS
 10
1.822040
 20
1.783760
  0
VERTEX
  8
0
  6
CONTINUOUS
 10
1.688280
 20
1.780680
  0
SEQEND
  8
0
  0
SOLID
  8
0
 62
    15
 10
1.822040
 20
1.783760
 11
1.822040
 21
2.545840
 12
1.887160
 22
1.782000
 13
1.887160
 23
2.543640
  0
POLYLINE
  8
0
  6
CONTINUOUS
 66
     1
 40
0.000000
 41
0.000000
  0
VERTEX
  8
0
  6
CONTINUOUS
 10
1.822040
 20
1.783760
  0
VERTEX
  8
0
  6
CONTINUOUS
 10
1.822040
 20
2.545840
  0
VERTEX
  8
0
  6
CONTINUOUS
 10
1.887160
 20
2.543640
  0
VERTEX
  8
0
  6
CONTINUOUS
 10
1.887160
 20
1.782000
  0
VERTEX
  8
0
  6
CONTINUOUS
 10
1.822040
 20
1.783760
  0
SEQEND
  8
0
  0
SOLID
  8
0
 62
    15
 10
1.887160
 20
1.782000
 11
1.887160
 21
2.543640
 12
1.949640
 22
1.778040
 13
1.949640
 23
2.540120
  0
POLYLINE
  8
0
  6
CONTINUOUS
 66
     1
 40
0.000000
 41
0.000000
  0
VERTEX
  8
0
  6
CONTINUOUS
 10
1.887160
 20
1.782000
  0
VERTEX
  8
0
  6
CONTINUOUS
 10
1.887160
 20
2.543640
  0
VERTEX
  8
0
  6
CONTINUOUS
 10
1.949640
 20
2.540120
  0
VERTEX
  8
0
  6
CONTINUOUS
 10
1.949640
 20
1.778040
  0
VERTEX
  8
0
  6
CONTINUOUS
 10
1.887160
 20
1.782000
  0
SEQEND
  8
0
  0
SOLID
  8
0
 62
    15
 10
1.949640
 20
1.778040
 11
1.949640
 21
2.540120
 12
2.007720
 22
1.773640
 13
2.007280
 23
2.535280
  0
POLYLINE
  8
0
  6
CONTINUOUS
 66
     1
 40
0.000000
 41
0.000000
  0
VERTEX
  8
0
  6
CONTINUOUS
 10
1.949640
 20
1.778040
  0
VERTEX
  8
0
  6
CONTINUOUS
 10
1.949640
 20
2.540120
  0
VERTEX
  8
0
  6
CONTINUOUS
 10
2.007280
 20
2.535280
  0
VERTEX
  8
0
  6
CONTINUOUS
 10
2.007720
 20
1.773640
  0
VERTEX
  8
0
  6
CONTINUOUS
 10
1.949640
 20
1.778040
  0
SEQEND
  8
0
  0
SOLID
  8
0
 62
    15
 10
2.007720
 20
1.773640
 11
2.007280
 21
2.535280
 12
2.059640
 22
1.768360
 13
2.059200
 23
2.530440
  0
POLYLINE
  8
0
  6
CONTINUOUS
 66
     1
 40
0.000000
 41
0.000000
  0
VERTEX
  8
0
  6
CONTINUOUS
 10
2.007720
 20
1.773640
  0
VERTEX
  8
0
  6
CONTINUOUS
 10
2.007280
 20
2.535280
  0
VERTEX
  8
0
  6
CONTINUOUS
 10
2.059200
 20
2.530440
  0
VERTEX
  8
0
  6
CONTINUOUS
 10
2.059640
 20
1.768360
  0
VERTEX
  8
0
  6
CONTINUOUS
 10
2.007720
 20
1.773640
  0
SEQEND
  8
0
  0
SOLID
  8
0
 62
    15
 10
2.059640
 20
1.768360
 11
2.059200
 21
2.530440
 12
2.104080
 22
1.763520
 13
2.104080
 23
2.525600
  0
POLYLINE
  8
0
  6
CONTINUOUS
 66
     1
 40
0.000000
 41
0.000000
  0
VERTEX
  8
0
  6
CONTINUOUS
 10
2.059640
 20
1.768360
  0
VERTEX
  8
0
  6
CONTINUOUS
 10
2.059200
 20
2.530440
  0
VERTEX
  8
0
  6
CONTINUOUS
 10
2.104080
 20
2.525600
  0
VERTEX
  8
0
  6
CONTINUOUS
 10
2.104080
 20
1.763520
  0
VERTEX
  8
0
  6
CONTINUOUS
 10
2.059640
 20
1.768360
  0
SEQEND
  8
0
  0
SOLID
  8
0
 62
    15
 10
2.104080
 20
1.763520
 11
2.104080
 21
2.525600
 12
2.140160
 22
1.759120
 13
2.140160
 23
2.521200
  0
POLYLINE
  8
0
  6
CONTINUOUS
 66
     1
 40
0.000000
 41
0.000000
  0
VERTEX
  8
0
  6
CONTINUOUS
 10
2.104080
 20
1.763520
  0
VERTEX
  8
0
  6
CONTINUOUS
 10
2.104080
 20
2.525600
  0
VERTEX
  8
0
  6
CONTINUOUS
 10
2.140160
 20
2.521200
  0
VERTEX
  8
0
  6
CONTINUOUS
 10
2.140160
 20
1.759120
  0
VERTEX
  8
0
  6
CONTINUOUS
 10
2.104080
 20
1.763520
  0
SEQEND
  8
0
  0
SOLID
  8
0
 62
    15
 10
1.364440
 20
1.671560
 11
1.364440
 21
2.433200
 12
1.401840
 22
1.703240
 13
1.401840
 23
2.465320
  0
POLYLINE
  8
0
  6
CONTINUOUS
 66
     1
 40
0.000000
 41
0.000000
  0
VERTEX
  8
0
  6
CONTINUOUS
 10
1.364440
 20
1.671560
  0
VERTEX
  8
0
  6
CONTINUOUS
 10
1.364440
 20
2.433200
  0
VERTEX
  8
0
  6
CONTINUOUS
 10
1.401840
 20
2.465320
  0
VERTEX
  8
0
  6
CONTINUOUS
 10
1.401840
 20
1.703240
  0
VERTEX
  8
0
  6
CONTINUOUS
 10
1.364440
 20
1.671560
  0
SEQEND
  8
0
  0
SOLID
  8
0
 62
    15
 10
2.166120
 20
1.756040
 11
2.165680
 21
2.518120
 12
2.180200
 22
1.755160
 13
2.179760
 23
2.516800
  0
POLYLINE
  8
0
  6
CONTINUOUS
 66
     1
 40
0.000000
 41
0.000000
  0
VERTEX
  8
0
  6
CONTINUOUS
 10
2.166120
 20
1.756040
  0
VERTEX
  8
0
  6
CONTINUOUS
 10
2.165680
 20
2.518120
  0
VERTEX
  8
0
  6
CONTINUOUS
 10
2.179760
 20
2.516800
  0
VERTEX
  8
0
  6
CONTINUOUS
 10
2.180200
 20
1.755160
  0
VERTEX
  8
0
  6
CONTINUOUS
 10
2.166120
 20
1.756040
  0
SEQEND
  8
0
  0
SOLID
  8
0
 62
    15
 10
2.180200
 20
1.755160
 11
2.179760
 21
2.516800
 12
3.582480
 22
1.523720
 13
3.582040
 23
2.285360
  0
POLYLINE
  8
0
  6
CONTINUOUS
 66
     1
 40
0.000000
 41
0.000000
  0
VERTEX
  8
0
  6
CONTINUOUS
 10
2.180200
 20
1.755160
  0
VERTEX
  8
0
  6
CONTINUOUS
 10
2.179760
 20
2.516800
  0
VERTEX
  8
0
  6
CONTINUOUS
 10
3.582040
 20
2.285360
  0
VERTEX
  8
0
  6
CONTINUOUS
 10
3.582480
 20
1.523720
  0
VERTEX
  8
0
  6
CONTINUOUS
 10
2.180200
 20
1.755160
  0
SEQEND
  8
0
  0
SOLID
  8
0
 62
    15
 10
3.582480
 20
1.523720
 11
3.582040
 21
2.285360
 12
3.652880
 22
1.508760
 13
3.652880
 23
2.270400
  0
POLYLINE
  8
0
  6
CONTINUOUS
 66
     1
 40
0.000000
 41
0.000000
  0
VERTEX
  8
0
  6
CONTINUOUS
 10
3.582480
 20
1.523720
  0
VERTEX
  8
0
  6
CONTINUOUS
 10
3.582040
 20
2.285360
  0
VERTEX
  8
0
  6
CONTINUOUS
 10
3.652880
 20
2.270400
  0
VERTEX
  8
0
  6
CONTINUOUS
 10
3.652880
 20
1.508760
  0
VERTEX
  8
0
  6
CONTINUOUS
 10
3.582480
 20
1.523720
  0
SEQEND
  8
0
  0
SOLID
  8
0
 62
    15
 10
3.652880
 20
1.508760
 11
3.652880
 21
2.270400
 12
3.712280
 22
1.491160
 13
3.711840
 23
2.253240
  0
POLYLINE
  8
0
  6
CONTINUOUS
 66
     1
 40
0.000000
 41
0.000000
  0
VERTEX
  8
0
  6
CONTINUOUS
 10
3.652880
 20
1.508760
  0
VERTEX
  8
0
  6
CONTINUOUS
 10
3.652880
 20
2.270400
  0
VERTEX
  8
0
  6
CONTINUOUS
 10
3.711840
 20
2.253240
  0
VERTEX
  8
0
  6
CONTINUOUS
 10
3.712280
 20
1.491160
  0
VERTEX
  8
0
  6
CONTINUOUS
 10
3.652880
 20
1.508760
  0
SEQEND
  8
0
  0
SOLID
  8
0
 62
    15
 10
3.712280
 20
1.491160
 11
3.711840
 21
2.253240
 12
3.760680
 22
1.471800
 13
3.760240
 23
2.233880
  0
POLYLINE
  8
0
  6
CONTINUOUS
 66
     1
 40
0.000000
 41
0.000000
  0
VERTEX
  8
0
  6
CONTINUOUS
 10
3.712280
 20
1.491160
  0
VERTEX
  8
0
  6
CONTINUOUS
 10
3.711840
 20
2.253240
  0
VERTEX
  8
0
  6
CONTINUOUS
 10
3.760240
 20
2.233880
  0
VERTEX
  8
0
  6
CONTINUOUS
 10
3.760680
 20
1.471800
  0
VERTEX
  8
0
  6
CONTINUOUS
 10
3.712280
 20
1.491160
  0
SEQEND
  8
0
  0
SOLID
  8
0
 62
    15
 10
3.760680
 20
1.471800
 11
3.760240
 21
2.233880
 12
3.798960
 22
1.451120
 13
3.798520
 23
2.213200
  0
POLYLINE
  8
0
  6
CONTINUOUS
 66
     1
 40
0.000000
 41
0.000000
  0
VERTEX
  8
0
  6
CONTINUOUS
 10
3.760680
 20
1.471800
  0
VERTEX
  8
0
  6
CONTINUOUS
 10
3.760240
 20
2.233880
  0
VERTEX
  8
0
  6
CONTINUOUS
 10
3.798520
 20
2.213200
  0
VERTEX
  8
0
  6
CONTINUOUS
 10
3.798960
 20
1.451120
  0
VERTEX
  8
0
  6
CONTINUOUS
 10
3.760680
 20
1.471800
  0
SEQEND
  8
0
  0
SOLID
  8
0
 62
    15
 10
3.798960
 20
1.451120
 11
3.798520
 21
2.213200
 12
3.828000
 22
1.429560
 13
3.827560
 23
2.191640
  0
POLYLINE
  8
0
  6
CONTINUOUS
 66
     1
 40
0.000000
 41
0.000000
  0
VERTEX
  8
0
  6
CONTINUOUS
 10
3.798960
 20
1.451120
  0
VERTEX
  8
0
  6
CONTINUOUS
 10
3.798520
 20
2.213200
  0
VERTEX
  8
0
  6
CONTINUOUS
 10
3.827560
 20
2.191640
  0
VERTEX
  8
0
  6
CONTINUOUS
 10
3.828000
 20
1.429560
  0
VERTEX
  8
0
  6
CONTINUOUS
 10
3.798960
 20
1.451120
  0
SEQEND
  8
0
  0
SOLID
  8
0
 62
    15
 10
3.828000
 20
1.429560
 11
3.827560
 21
2.191640
 12
3.848240
 22
1.407120
 13
3.847800
 23
2.169200
  0
POLYLINE
  8
0
  6
CONTINUOUS
 66
     1
 40
0.000000
 41
0.000000
  0
VERTEX
  8
0
  6
CONTINUOUS
 10
3.828000
 20
1.429560
  0
VERTEX
  8
0
  6
CONTINUOUS
 10
3.827560
 20
2.191640
  0
VERTEX
  8
0
  6
CONTINUOUS
 10
3.847800
 20
2.169200
  0
VERTEX
  8
0
  6
CONTINUOUS
 10
3.848240
 20
1.407120
  0
VERTEX
  8
0
  6
CONTINUOUS
 10
3.828000
 20
1.429560
  0
SEQEND
  8
0
  0
SOLID
  8
0
 62
    15
 10
3.848240
 20
1.407120
 11
3.847800
 21
2.169200
 12
3.860560
 22
1.384240
 13
3.860120
 23
2.146320
  0
POLYLINE
  8
0
  6
CONTINUOUS
 66
     1
 40
0.000000
 41
0.000000
  0
VERTEX
  8
0
  6
CONTINUOUS
 10
3.848240
 20
1.407120
  0
VERTEX
  8
0
  6
CONTINUOUS
 10
3.847800
 20
2.169200
  0
VERTEX
  8
0
  6
CONTINUOUS
 10
3.860120
 20
2.146320
  0
VERTEX
  8
0
  6
CONTINUOUS
 10
3.860560
 20
1.384240
  0
VERTEX
  8
0
  6
CONTINUOUS
 10
3.848240
 20
1.407120
  0
SEQEND
  8
0
  0
SOLID
  8
0
 62
    15
 10
3.860560
 20
1.384240
 11
3.860120
 21
2.146320
 12
3.865400
 22
1.361360
 13
3.865400
 23
2.123440
  0
POLYLINE
  8
0
  6
CONTINUOUS
 66
     1
 40
0.000000
 41
0.000000
  0
VERTEX
  8
0
  6
CONTINUOUS
 10
3.860560
 20
1.384240
  0
VERTEX
  8
0
  6
CONTINUOUS
 10
3.860120
 20
2.146320
  0
VERTEX
  8
0
  6
CONTINUOUS
 10
3.865400
 20
2.123440
  0
VERTEX
  8
0
  6
CONTINUOUS
 10
3.865400
 20
1.361360
  0
VERTEX
  8
0
  6
CONTINUOUS
 10
3.860560
 20
1.384240
  0
SEQEND
  8
0
  0
SOLID
  8
0
 62
    15
 10
1.363560
 20
1.088120
 11
1.363560
 21
1.850200
 12
1.363560
 22
1.667160
 13
1.363560
 23
2.428800
  0
POLYLINE
  8
0
  6
CONTINUOUS
 66
     1
 40
0.000000
 41
0.000000
  0
VERTEX
  8
0
  6
CONTINUOUS
 10
1.363560
 20
1.088120
  0
VERTEX
  8
0
  6
CONTINUOUS
 10
1.363560
 20
1.850200
  0
VERTEX
  8
0
  6
CONTINUOUS
 10
1.363560
 20
2.428800
  0
VERTEX
  8
0
  6
CONTINUOUS
 10
1.363560
 20
1.667160
  0
VERTEX
  8
0
  6
CONTINUOUS
 10
1.363560
 20
1.088120
  0
SEQEND
  8
0
  0
SOLID
  8
0
 62
    15
 10
1.363560
 20
1.667160
 11
1.363560
 21
2.428800
 12
1.364440
 22
1.671560
 13
1.364440
 23
2.433200
  0
POLYLINE
  8
0
  6
CONTINUOUS
 66
     1
 40
0.000000
 41
0.000000
  0
VERTEX
  8
0
  6
CONTINUOUS
 10
1.363560
 20
1.667160
  0
VERTEX
  8
0
  6
CONTINUOUS
 10
1.363560
 20
2.428800
  0
VERTEX
  8
0
  6
CONTINUOUS
 10
1.364440
 20
2.433200
  0
VERTEX
  8
0
  6
CONTINUOUS
 10
1.364440
 20
1.671560
  0
VERTEX
  8
0
  6
CONTINUOUS
 10
1.363560
 20
1.667160
  0
SEQEND
  8
0
  0
POLYLINE
  8
0
  6
CONTINUOUS
 66
     1
 40
0.000000
 41
0.000000
  0
VERTEX
  8
0
  6
CONTINUOUS
 10
1.364440
 20
1.671560
  0
VERTEX
  8
0
  6
CONTINUOUS
 10
1.401840
 20
1.703240
  0
VERTEX
  8
0
  6
CONTINUOUS
 10
1.448040
 20
1.729200
  0
VERTEX
  8
0
  6
CONTINUOUS
 10
1.500840
 20
1.749000
  0
VERTEX
  8
0
  6
CONTINUOUS
 10
1.559800
 20
1.763960
  0
VERTEX
  8
0
  6
CONTINUOUS
 10
1.622720
 20
1.774080
  0
VERTEX
  8
0
  6
CONTINUOUS
 10
1.688280
 20
1.780680
  0
VERTEX
  8
0
  6
CONTINUOUS
 10
1.822040
 20
1.783760
  0
VERTEX
  8
0
  6
CONTINUOUS
 10
1.887160
 20
1.782000
  0
VERTEX
  8
0
  6
CONTINUOUS
 10
1.949640
 20
1.778040
  0
VERTEX
  8
0
  6
CONTINUOUS
 10
2.007720
 20
1.773640
  0
VERTEX
  8
0
  6
CONTINUOUS
 10
2.059640
 20
1.768360
  0
VERTEX
  8
0
  6
CONTINUOUS
 10
2.104080
 20
1.763520
  0
VERTEX
  8
0
  6
CONTINUOUS
 10
2.140160
 20
1.759120
  0
VERTEX
  8
0
  6
CONTINUOUS
 10
2.166120
 20
1.756040
  0
VERTEX
  8
0
  6
CONTINUOUS
 10
2.180200
 20
1.755160
  0
VERTEX
  8
0
  6
CONTINUOUS
 10
3.582480
 20
1.523720
  0
VERTEX
  8
0
  6
CONTINUOUS
 10
3.652880
 20
1.508760
  0
VERTEX
  8
0
  6
CONTINUOUS
 10
3.712280
 20
1.491160
  0
VERTEX
  8
0
  6
CONTINUOUS
 10
3.760680
 20
1.471800
  0
VERTEX
  8
0
  6
CONTINUOUS
 10
3.798960
 20
1.451120
  0
VERTEX
  8
0
  6
CONTINUOUS
 10
3.828000
 20
1.429560
  0
VERTEX
  8
0
  6
CONTINUOUS
 10
3.848240
 20
1.407120
  0
VERTEX
  8
0
  6
CONTINUOUS
 10
3.860560
 20
1.384240
  0
VERTEX
  8
0
  6
CONTINUOUS
 10
3.865400
 20
1.361360
  0
VERTEX
  8
0
  6
CONTINUOUS
 10
3.865400
 20
1.088120
  0
VERTEX
  8
0
  6
CONTINUOUS
 10
1.363560
 20
1.088120
  0
VERTEX
  8
0
  6
CONTINUOUS
 10
1.363560
 20
1.667160
  0
VERTEX
  8
0
  6
CONTINUOUS
 10
1.364440
 20
1.671560
  0
SEQEND
  8
0
  0
TEXT
  8
0
 10
2.318800
 20
0.852720
 40
0.138272
  1
BA  561
 41
1.000000
  7
SN0
 71
     0
 72
     5
 11
2.909092
 21
0.852720
  0
TEXT
  8
0
 10
2.070640
 20
0.660880
 40
0.138272
  1
11/16" x 2-1/2"
 41
1.000000
  7
SN0
 71
     0
 72
     5
 11
3.155792
 21
0.660880
  0
ENDSEC
  0
EOF
