  0
SECTION
  2
HEADER
  9
$ACADVER
  1
AC1006
  9
$EXTMIN
 10
3.125760
 20
4.869920
  9
$EXTMAX
 10
5.373720
 20
6.129640
  9
$LTSCALE
 40
0.044000
  9
$PDMODE
 70
    35
  9
$PDSIZE
 40
0.035200
  0
ENDSEC
  0
SECTION
  2
TABLES
  0
TABLE
  2
LTYPE
 70
     9
  0
LTYPE
  2
CONTINUOUS
 70
    64
  3
Solid line
 72
    65
 73
     0
 40
0.000000
  0
LTYPE
  2
DASHED
 70
    64
  3
__ __ __ __ __ __ __ __ __ __ __ __ __ __ __
 72
    65
 73
     2
 40
0.000330
 49
0.000220
 49
-0.000110
  0
LTYPE
  2
HIDDEN
 70
    64
  3
 _ _ _ _ _ _ _ _ _ _ _ _ _ _ _ _ _ _ _ _ _ _
 72
    65
 73
     2
 40
0.000165
 49
0.000110
 49
-0.000055
  0
LTYPE
  2
CENTER
 70
    64
  3
____ _ ____ _ ____ _ ____ _ ____ _ ____ _ ____
 72
    65
 73
     4
 40
0.000880
 49
0.000550
 49
-0.000110
 49
0.000110
 49
-0.000110
  0
LTYPE
  2
PHANTOM
 70
    64
  3
_____ _ _ _____ _ _ _____ _ _ _____ _ _ ____
 72
    65
 73
     6
 40
0.001100
 49
0.000550
 49
-0.000110
 49
0.000110
 49
-0.000110
 49
0.000110
 49
-0.000110
  0
LTYPE
  2
DOT
 70
    64
  3
...............................................
 72
    65
 73
     2
 40
0.000110
 49
0.000000
 49
-0.000110
  0
LTYPE
  2
DASHDOT
 70
    64
  3
__ . __ . __ . __ . __ . __ . __ . __ . __ . __
 72
    65
 73
     4
 40
0.000440
 49
0.000220
 49
-0.000110
 49
0.000000
 49
-0.000110
  0
LTYPE
  2
BORDER
 70
    64
  3
__ __ . __ __ . __ __ . __ __ . __ __ . __ __
 72
    65
 73
     6
 40
0.000770
 49
0.000220
 49
-0.000110
 49
0.000220
 49
-0.000110
 49
0.000000
 49
-0.000110
  0
LTYPE
  2
DIVIDE
 70
    64
  3
__ . . __ . . __ . . __ . . __ . . __ . . __
 72
    65
 73
     6
 40
0.000550
 49
0.000220
 49
-0.000110
 49
0.000000
 49
-0.000110
 49
0.000000
 49
-0.000110
  0
LTYPE
  2
DOTDOT
 70
    64
  3
 . .  . .  . .  . .  . .  . . 
 72
    65
 73
     5
 40
0.000242
 49
-0.000110
 49
0.000000
 49
-0.000110
 49
0.000000
 49
-0.000110
  0
ENDTAB
  0
TABLE
  2
STYLE
 70
     2
  0
STYLE
 70
     0
  2
SN0
 40
0.000000
 41
0.000440
 50
0.000000
 71
     0
 42
0.000000
  3
ROMAND
  0
STYLE
 70
    68
  2
SV0
 40
0.000000
 41
0.000440
 50
0.000000
 71
     0
 42
0.000000
  3
ROMAND
  0
ENDTAB
  0
TABLE
  2
LAYER
 70
     3
  0
LAYER
  2
FOREGROUND
 70
    64
 62
     7
  6
CONTINUOUS
  0
LAYER
  2
BACKGROUND
 70
    65
 62
    -7
  6
CONTINUOUS
  0
LAYER
  2
0
 70
    64
 62
     7
  6
CONTINUOUS
  0
ENDTAB
  0
ENDSEC
  0
SECTION
  2
ENTITIES
  0
POLYLINE
  8
FOREGROUND
  6
CONTINUOUS
 66
     1
 40
0.000000
 41
0.000000
  0
VERTEX
  8
FOREGROUND
  6
CONTINUOUS
 10
0.000000
 20
10.999560
  0
VERTEX
  8
FOREGROUND
  6
CONTINUOUS
 10
8.499920
 20
10.999560
  0
VERTEX
  8
FOREGROUND
  6
CONTINUOUS
 10
8.499920
 20
-0.000440
  0
VERTEX
  8
FOREGROUND
  6
CONTINUOUS
 10
0.000000
 20
-0.000440
  0
VERTEX
  8
FOREGROUND
  6
CONTINUOUS
 10
0.000000
 20
10.999560
  0
SEQEND
  8
0
  0
POLYLINE
  8
FOREGROUND
  6
CONTINUOUS
 66
     1
 40
0.000000
 41
0.000000
  0
VERTEX
  8
FOREGROUND
  6
CONTINUOUS
 10
0.000000
 20
10.999560
  0
VERTEX
  8
FOREGROUND
  6
CONTINUOUS
 10
8.499920
 20
10.999560
  0
VERTEX
  8
FOREGROUND
  6
CONTINUOUS
 10
8.499920
 20
-0.000440
  0
VERTEX
  8
FOREGROUND
  6
CONTINUOUS
 10
0.000000
 20
-0.000440
  0
VERTEX
  8
FOREGROUND
  6
CONTINUOUS
 10
0.000000
 20
10.999560
  0
SEQEND
  8
0
  0
TEXT
  8
0
 10
3.351920
 20
5.104440
 40
0.138170
  1
BA  560
 41
1.000000
  7
SN0
 71
     0
 72
     5
 11
3.942234
 21
5.104440
  0
TEXT
  8
0
 10
3.223880
 20
4.913040
 40
0.138170
  1
1/4" x 7/16"
 41
1.000000
  7
SN0
 71
     0
 72
     5
 11
4.069563
 21
4.913040
  0
SOLID
  8
0
 62
     7
 10
3.447400
 20
5.582280
 11
4.092440
 21
5.957600
 12
3.450920
 22
5.569080
 13
4.095960
 23
5.943960
  0
POLYLINE
  8
0
  6
CONTINUOUS
 66
     1
 40
0.000000
 41
0.000000
  0
VERTEX
  8
0
  6
CONTINUOUS
 10
3.447400
 20
5.582280
  0
VERTEX
  8
0
  6
CONTINUOUS
 10
4.092440
 20
5.957600
  0
VERTEX
  8
0
  6
CONTINUOUS
 10
4.095960
 20
5.943960
  0
VERTEX
  8
0
  6
CONTINUOUS
 10
3.450920
 20
5.569080
  0
VERTEX
  8
0
  6
CONTINUOUS
 10
3.447400
 20
5.582280
  0
SEQEND
  8
0
  0
SOLID
  8
0
 62
     7
 10
3.314520
 20
5.753880
 11
3.959560
 21
6.129200
 12
3.314520
 22
5.680400
 13
3.959560
 23
6.055280
  0
POLYLINE
  8
0
  6
CONTINUOUS
 66
     1
 40
0.000000
 41
0.000000
  0
VERTEX
  8
0
  6
CONTINUOUS
 10
3.314520
 20
5.753880
  0
VERTEX
  8
0
  6
CONTINUOUS
 10
3.959560
 20
6.129200
  0
VERTEX
  8
0
  6
CONTINUOUS
 10
3.959560
 20
6.055280
  0
VERTEX
  8
0
  6
CONTINUOUS
 10
3.314520
 20
5.680400
  0
VERTEX
  8
0
  6
CONTINUOUS
 10
3.314520
 20
5.753880
  0
SEQEND
  8
0
  0
SOLID
  8
0
 62
    15
 10
3.314520
 20
5.680400
 11
3.959560
 21
6.055280
 12
3.328600
 22
5.679520
 13
3.973640
 23
6.054840
  0
POLYLINE
  8
0
  6
CONTINUOUS
 66
     1
 40
0.000000
 41
0.000000
  0
VERTEX
  8
0
  6
CONTINUOUS
 10
3.314520
 20
5.680400
  0
VERTEX
  8
0
  6
CONTINUOUS
 10
3.959560
 20
6.055280
  0
VERTEX
  8
0
  6
CONTINUOUS
 10
3.973640
 20
6.054840
  0
VERTEX
  8
0
  6
CONTINUOUS
 10
3.328600
 20
5.679520
  0
VERTEX
  8
0
  6
CONTINUOUS
 10
3.314520
 20
5.680400
  0
SEQEND
  8
0
  0
SOLID
  8
0
 62
    15
 10
3.328600
 20
5.679520
 11
3.973640
 21
6.054840
 12
3.342240
 22
5.677320
 13
3.987280
 23
6.052640
  0
POLYLINE
  8
0
  6
CONTINUOUS
 66
     1
 40
0.000000
 41
0.000000
  0
VERTEX
  8
0
  6
CONTINUOUS
 10
3.328600
 20
5.679520
  0
VERTEX
  8
0
  6
CONTINUOUS
 10
3.973640
 20
6.054840
  0
VERTEX
  8
0
  6
CONTINUOUS
 10
3.987280
 20
6.052640
  0
VERTEX
  8
0
  6
CONTINUOUS
 10
3.342240
 20
5.677320
  0
VERTEX
  8
0
  6
CONTINUOUS
 10
3.328600
 20
5.679520
  0
SEQEND
  8
0
  0
SOLID
  8
0
 62
    15
 10
3.342240
 20
5.677320
 11
3.987280
 21
6.052640
 12
3.355880
 22
5.673800
 13
4.000920
 23
6.049120
  0
POLYLINE
  8
0
  6
CONTINUOUS
 66
     1
 40
0.000000
 41
0.000000
  0
VERTEX
  8
0
  6
CONTINUOUS
 10
3.342240
 20
5.677320
  0
VERTEX
  8
0
  6
CONTINUOUS
 10
3.987280
 20
6.052640
  0
VERTEX
  8
0
  6
CONTINUOUS
 10
4.000920
 20
6.049120
  0
VERTEX
  8
0
  6
CONTINUOUS
 10
3.355880
 20
5.673800
  0
VERTEX
  8
0
  6
CONTINUOUS
 10
3.342240
 20
5.677320
  0
SEQEND
  8
0
  0
SOLID
  8
0
 62
    15
 10
3.355880
 20
5.673800
 11
4.000920
 21
6.049120
 12
3.368640
 22
5.669400
 13
4.013680
 23
6.044720
  0
POLYLINE
  8
0
  6
CONTINUOUS
 66
     1
 40
0.000000
 41
0.000000
  0
VERTEX
  8
0
  6
CONTINUOUS
 10
3.355880
 20
5.673800
  0
VERTEX
  8
0
  6
CONTINUOUS
 10
4.000920
 20
6.049120
  0
VERTEX
  8
0
  6
CONTINUOUS
 10
4.013680
 20
6.044720
  0
VERTEX
  8
0
  6
CONTINUOUS
 10
3.368640
 20
5.669400
  0
VERTEX
  8
0
  6
CONTINUOUS
 10
3.355880
 20
5.673800
  0
SEQEND
  8
0
  0
SOLID
  8
0
 62
    15
 10
3.368640
 20
5.669400
 11
4.013680
 21
6.044720
 12
3.380960
 22
5.663240
 13
4.026000
 23
6.038560
  0
POLYLINE
  8
0
  6
CONTINUOUS
 66
     1
 40
0.000000
 41
0.000000
  0
VERTEX
  8
0
  6
CONTINUOUS
 10
3.368640
 20
5.669400
  0
VERTEX
  8
0
  6
CONTINUOUS
 10
4.013680
 20
6.044720
  0
VERTEX
  8
0
  6
CONTINUOUS
 10
4.026000
 20
6.038560
  0
VERTEX
  8
0
  6
CONTINUOUS
 10
3.380960
 20
5.663240
  0
VERTEX
  8
0
  6
CONTINUOUS
 10
3.368640
 20
5.669400
  0
SEQEND
  8
0
  0
SOLID
  8
0
 62
    15
 10
3.380960
 20
5.663240
 11
4.026000
 21
6.038560
 12
3.392400
 22
5.656200
 13
4.037440
 23
6.031520
  0
POLYLINE
  8
0
  6
CONTINUOUS
 66
     1
 40
0.000000
 41
0.000000
  0
VERTEX
  8
0
  6
CONTINUOUS
 10
3.380960
 20
5.663240
  0
VERTEX
  8
0
  6
CONTINUOUS
 10
4.026000
 20
6.038560
  0
VERTEX
  8
0
  6
CONTINUOUS
 10
4.037440
 20
6.031520
  0
VERTEX
  8
0
  6
CONTINUOUS
 10
3.392400
 20
5.656200
  0
VERTEX
  8
0
  6
CONTINUOUS
 10
3.380960
 20
5.663240
  0
SEQEND
  8
0
  0
SOLID
  8
0
 62
    15
 10
3.392400
 20
5.656200
 11
4.037440
 21
6.031520
 12
3.402960
 22
5.648280
 13
4.048000
 23
6.023600
  0
POLYLINE
  8
0
  6
CONTINUOUS
 66
     1
 40
0.000000
 41
0.000000
  0
VERTEX
  8
0
  6
CONTINUOUS
 10
3.392400
 20
5.656200
  0
VERTEX
  8
0
  6
CONTINUOUS
 10
4.037440
 20
6.031520
  0
VERTEX
  8
0
  6
CONTINUOUS
 10
4.048000
 20
6.023600
  0
VERTEX
  8
0
  6
CONTINUOUS
 10
3.402960
 20
5.648280
  0
VERTEX
  8
0
  6
CONTINUOUS
 10
3.392400
 20
5.656200
  0
SEQEND
  8
0
  0
SOLID
  8
0
 62
    15
 10
3.402960
 20
5.648280
 11
4.048000
 21
6.023600
 12
3.413080
 22
5.639480
 13
4.058120
 23
6.014800
  0
POLYLINE
  8
0
  6
CONTINUOUS
 66
     1
 40
0.000000
 41
0.000000
  0
VERTEX
  8
0
  6
CONTINUOUS
 10
3.402960
 20
5.648280
  0
VERTEX
  8
0
  6
CONTINUOUS
 10
4.048000
 20
6.023600
  0
VERTEX
  8
0
  6
CONTINUOUS
 10
4.058120
 20
6.014800
  0
VERTEX
  8
0
  6
CONTINUOUS
 10
3.413080
 20
5.639480
  0
VERTEX
  8
0
  6
CONTINUOUS
 10
3.402960
 20
5.648280
  0
SEQEND
  8
0
  0
SOLID
  8
0
 62
    15
 10
3.413080
 20
5.639480
 11
4.058120
 21
6.014800
 12
3.421880
 22
5.629360
 13
4.066920
 23
6.004680
  0
POLYLINE
  8
0
  6
CONTINUOUS
 66
     1
 40
0.000000
 41
0.000000
  0
VERTEX
  8
0
  6
CONTINUOUS
 10
3.413080
 20
5.639480
  0
VERTEX
  8
0
  6
CONTINUOUS
 10
4.058120
 20
6.014800
  0
VERTEX
  8
0
  6
CONTINUOUS
 10
4.066920
 20
6.004680
  0
VERTEX
  8
0
  6
CONTINUOUS
 10
3.421880
 20
5.629360
  0
VERTEX
  8
0
  6
CONTINUOUS
 10
3.413080
 20
5.639480
  0
SEQEND
  8
0
  0
SOLID
  8
0
 62
     7
 10
3.421880
 20
5.629360
 11
4.066920
 21
6.004680
 12
3.429800
 22
5.618800
 13
4.074840
 23
5.994120
  0
POLYLINE
  8
0
  6
CONTINUOUS
 66
     1
 40
0.000000
 41
0.000000
  0
VERTEX
  8
0
  6
CONTINUOUS
 10
3.421880
 20
5.629360
  0
VERTEX
  8
0
  6
CONTINUOUS
 10
4.066920
 20
6.004680
  0
VERTEX
  8
0
  6
CONTINUOUS
 10
4.074840
 20
5.994120
  0
VERTEX
  8
0
  6
CONTINUOUS
 10
3.429800
 20
5.618800
  0
VERTEX
  8
0
  6
CONTINUOUS
 10
3.421880
 20
5.629360
  0
SEQEND
  8
0
  0
SOLID
  8
0
 62
     7
 10
3.429800
 20
5.618800
 11
4.074840
 21
5.994120
 12
3.436840
 22
5.607360
 13
4.081880
 23
5.982680
  0
POLYLINE
  8
0
  6
CONTINUOUS
 66
     1
 40
0.000000
 41
0.000000
  0
VERTEX
  8
0
  6
CONTINUOUS
 10
3.429800
 20
5.618800
  0
VERTEX
  8
0
  6
CONTINUOUS
 10
4.074840
 20
5.994120
  0
VERTEX
  8
0
  6
CONTINUOUS
 10
4.081880
 20
5.982680
  0
VERTEX
  8
0
  6
CONTINUOUS
 10
3.436840
 20
5.607360
  0
VERTEX
  8
0
  6
CONTINUOUS
 10
3.429800
 20
5.618800
  0
SEQEND
  8
0
  0
SOLID
  8
0
 62
     7
 10
3.436840
 20
5.607360
 11
4.081880
 21
5.982680
 12
3.443000
 22
5.595040
 13
4.088040
 23
5.970360
  0
POLYLINE
  8
0
  6
CONTINUOUS
 66
     1
 40
0.000000
 41
0.000000
  0
VERTEX
  8
0
  6
CONTINUOUS
 10
3.436840
 20
5.607360
  0
VERTEX
  8
0
  6
CONTINUOUS
 10
4.081880
 20
5.982680
  0
VERTEX
  8
0
  6
CONTINUOUS
 10
4.088040
 20
5.970360
  0
VERTEX
  8
0
  6
CONTINUOUS
 10
3.443000
 20
5.595040
  0
VERTEX
  8
0
  6
CONTINUOUS
 10
3.436840
 20
5.607360
  0
SEQEND
  8
0
  0
SOLID
  8
0
 62
     7
 10
3.443000
 20
5.595040
 11
4.088040
 21
5.970360
 12
3.447400
 22
5.582280
 13
4.092440
 23
5.957600
  0
POLYLINE
  8
0
  6
CONTINUOUS
 66
     1
 40
0.000000
 41
0.000000
  0
VERTEX
  8
0
  6
CONTINUOUS
 10
3.443000
 20
5.595040
  0
VERTEX
  8
0
  6
CONTINUOUS
 10
4.088040
 20
5.970360
  0
VERTEX
  8
0
  6
CONTINUOUS
 10
4.092440
 20
5.957600
  0
VERTEX
  8
0
  6
CONTINUOUS
 10
3.447400
 20
5.582280
  0
VERTEX
  8
0
  6
CONTINUOUS
 10
3.443000
 20
5.595040
  0
SEQEND
  8
0
  0
SOLID
  8
0
 62
    15
 10
3.196600
 20
5.753880
 11
3.841640
 21
6.129200
 12
3.314520
 22
5.753880
 13
3.959560
 23
6.129200
  0
POLYLINE
  8
0
  6
CONTINUOUS
 66
     1
 40
0.000000
 41
0.000000
  0
VERTEX
  8
0
  6
CONTINUOUS
 10
3.196600
 20
5.753880
  0
VERTEX
  8
0
  6
CONTINUOUS
 10
3.841640
 20
6.129200
  0
VERTEX
  8
0
  6
CONTINUOUS
 10
3.959560
 20
6.129200
  0
VERTEX
  8
0
  6
CONTINUOUS
 10
3.314520
 20
5.753880
  0
VERTEX
  8
0
  6
CONTINUOUS
 10
3.196600
 20
5.753880
  0
SEQEND
  8
0
  0
SOLID
  8
0
 62
     7
 10
3.450920
 20
5.569080
 11
4.095960
 21
5.943960
 12
3.453120
 22
5.555000
 13
4.098160
 23
5.930320
  0
POLYLINE
  8
0
  6
CONTINUOUS
 66
     1
 40
0.000000
 41
0.000000
  0
VERTEX
  8
0
  6
CONTINUOUS
 10
3.450920
 20
5.569080
  0
VERTEX
  8
0
  6
CONTINUOUS
 10
4.095960
 20
5.943960
  0
VERTEX
  8
0
  6
CONTINUOUS
 10
4.098160
 20
5.930320
  0
VERTEX
  8
0
  6
CONTINUOUS
 10
3.453120
 20
5.555000
  0
VERTEX
  8
0
  6
CONTINUOUS
 10
3.450920
 20
5.569080
  0
SEQEND
  8
0
  0
SOLID
  8
0
 62
     7
 10
3.453120
 20
5.555000
 11
4.098160
 21
5.930320
 12
3.453560
 22
5.540920
 13
4.098600
 23
5.916240
  0
POLYLINE
  8
0
  6
CONTINUOUS
 66
     1
 40
0.000000
 41
0.000000
  0
VERTEX
  8
0
  6
CONTINUOUS
 10
3.453120
 20
5.555000
  0
VERTEX
  8
0
  6
CONTINUOUS
 10
4.098160
 20
5.930320
  0
VERTEX
  8
0
  6
CONTINUOUS
 10
4.098600
 20
5.916240
  0
VERTEX
  8
0
  6
CONTINUOUS
 10
3.453560
 20
5.540920
  0
VERTEX
  8
0
  6
CONTINUOUS
 10
3.453120
 20
5.555000
  0
SEQEND
  8
0
  0
SOLID
  8
0
 62
     7
 10
3.453560
 20
5.540920
 11
4.098600
 21
5.916240
 12
3.453120
 22
5.526400
 13
4.098160
 23
5.901720
  0
POLYLINE
  8
0
  6
CONTINUOUS
 66
     1
 40
0.000000
 41
0.000000
  0
VERTEX
  8
0
  6
CONTINUOUS
 10
3.453560
 20
5.540920
  0
VERTEX
  8
0
  6
CONTINUOUS
 10
4.098600
 20
5.916240
  0
VERTEX
  8
0
  6
CONTINUOUS
 10
4.098160
 20
5.901720
  0
VERTEX
  8
0
  6
CONTINUOUS
 10
3.453120
 20
5.526400
  0
VERTEX
  8
0
  6
CONTINUOUS
 10
3.453560
 20
5.540920
  0
SEQEND
  8
0
  0
SOLID
  8
0
 62
    15
 10
3.453120
 20
5.526400
 11
4.098160
 21
5.901720
 12
3.450920
 22
5.512760
 13
4.095960
 23
5.888080
  0
POLYLINE
  8
0
  6
CONTINUOUS
 66
     1
 40
0.000000
 41
0.000000
  0
VERTEX
  8
0
  6
CONTINUOUS
 10
3.453120
 20
5.526400
  0
VERTEX
  8
0
  6
CONTINUOUS
 10
4.098160
 20
5.901720
  0
VERTEX
  8
0
  6
CONTINUOUS
 10
4.095960
 20
5.888080
  0
VERTEX
  8
0
  6
CONTINUOUS
 10
3.450920
 20
5.512760
  0
VERTEX
  8
0
  6
CONTINUOUS
 10
3.453120
 20
5.526400
  0
SEQEND
  8
0
  0
SOLID
  8
0
 62
    15
 10
3.450920
 20
5.512760
 11
4.095960
 21
5.888080
 12
3.447400
 22
5.499560
 13
4.092440
 23
5.874440
  0
POLYLINE
  8
0
  6
CONTINUOUS
 66
     1
 40
0.000000
 41
0.000000
  0
VERTEX
  8
0
  6
CONTINUOUS
 10
3.450920
 20
5.512760
  0
VERTEX
  8
0
  6
CONTINUOUS
 10
4.095960
 20
5.888080
  0
VERTEX
  8
0
  6
CONTINUOUS
 10
4.092440
 20
5.874440
  0
VERTEX
  8
0
  6
CONTINUOUS
 10
3.447400
 20
5.499560
  0
VERTEX
  8
0
  6
CONTINUOUS
 10
3.450920
 20
5.512760
  0
SEQEND
  8
0
  0
SOLID
  8
0
 62
    15
 10
3.447400
 20
5.499560
 11
4.092440
 21
5.874440
 12
3.443000
 22
5.486360
 13
4.088040
 23
5.861680
  0
POLYLINE
  8
0
  6
CONTINUOUS
 66
     1
 40
0.000000
 41
0.000000
  0
VERTEX
  8
0
  6
CONTINUOUS
 10
3.447400
 20
5.499560
  0
VERTEX
  8
0
  6
CONTINUOUS
 10
4.092440
 20
5.874440
  0
VERTEX
  8
0
  6
CONTINUOUS
 10
4.088040
 20
5.861680
  0
VERTEX
  8
0
  6
CONTINUOUS
 10
3.443000
 20
5.486360
  0
VERTEX
  8
0
  6
CONTINUOUS
 10
3.447400
 20
5.499560
  0
SEQEND
  8
0
  0
SOLID
  8
0
 62
    15
 10
3.443000
 20
5.486360
 11
4.088040
 21
5.861680
 12
3.436840
 22
5.474480
 13
4.081880
 23
5.849800
  0
POLYLINE
  8
0
  6
CONTINUOUS
 66
     1
 40
0.000000
 41
0.000000
  0
VERTEX
  8
0
  6
CONTINUOUS
 10
3.443000
 20
5.486360
  0
VERTEX
  8
0
  6
CONTINUOUS
 10
4.088040
 20
5.861680
  0
VERTEX
  8
0
  6
CONTINUOUS
 10
4.081880
 20
5.849800
  0
VERTEX
  8
0
  6
CONTINUOUS
 10
3.436840
 20
5.474480
  0
VERTEX
  8
0
  6
CONTINUOUS
 10
3.443000
 20
5.486360
  0
SEQEND
  8
0
  0
SOLID
  8
0
 62
     7
 10
3.314520
 20
5.401440
 11
3.959560
 21
5.776760
 12
3.314520
 22
5.328840
 13
3.959560
 23
5.704160
  0
POLYLINE
  8
0
  6
CONTINUOUS
 66
     1
 40
0.000000
 41
0.000000
  0
VERTEX
  8
0
  6
CONTINUOUS
 10
3.314520
 20
5.401440
  0
VERTEX
  8
0
  6
CONTINUOUS
 10
3.959560
 20
5.776760
  0
VERTEX
  8
0
  6
CONTINUOUS
 10
3.959560
 20
5.704160
  0
VERTEX
  8
0
  6
CONTINUOUS
 10
3.314520
 20
5.328840
  0
VERTEX
  8
0
  6
CONTINUOUS
 10
3.314520
 20
5.401440
  0
SEQEND
  8
0
  0
SOLID
  8
0
 62
    15
 10
3.429800
 20
5.463040
 11
4.074840
 21
5.837920
 12
3.421880
 22
5.452040
 13
4.066920
 23
5.827360
  0
POLYLINE
  8
0
  6
CONTINUOUS
 66
     1
 40
0.000000
 41
0.000000
  0
VERTEX
  8
0
  6
CONTINUOUS
 10
3.429800
 20
5.463040
  0
VERTEX
  8
0
  6
CONTINUOUS
 10
4.074840
 20
5.837920
  0
VERTEX
  8
0
  6
CONTINUOUS
 10
4.066920
 20
5.827360
  0
VERTEX
  8
0
  6
CONTINUOUS
 10
3.421880
 20
5.452040
  0
VERTEX
  8
0
  6
CONTINUOUS
 10
3.429800
 20
5.463040
  0
SEQEND
  8
0
  0
SOLID
  8
0
 62
    15
 10
3.421880
 20
5.452040
 11
4.066920
 21
5.827360
 12
3.413080
 22
5.442360
 13
4.058120
 23
5.817680
  0
POLYLINE
  8
0
  6
CONTINUOUS
 66
     1
 40
0.000000
 41
0.000000
  0
VERTEX
  8
0
  6
CONTINUOUS
 10
3.421880
 20
5.452040
  0
VERTEX
  8
0
  6
CONTINUOUS
 10
4.066920
 20
5.827360
  0
VERTEX
  8
0
  6
CONTINUOUS
 10
4.058120
 20
5.817680
  0
VERTEX
  8
0
  6
CONTINUOUS
 10
3.413080
 20
5.442360
  0
VERTEX
  8
0
  6
CONTINUOUS
 10
3.421880
 20
5.452040
  0
SEQEND
  8
0
  0
SOLID
  8
0
 62
    15
 10
3.413080
 20
5.442360
 11
4.058120
 21
5.817680
 12
3.402960
 22
5.433120
 13
4.048000
 23
5.808440
  0
POLYLINE
  8
0
  6
CONTINUOUS
 66
     1
 40
0.000000
 41
0.000000
  0
VERTEX
  8
0
  6
CONTINUOUS
 10
3.413080
 20
5.442360
  0
VERTEX
  8
0
  6
CONTINUOUS
 10
4.058120
 20
5.817680
  0
VERTEX
  8
0
  6
CONTINUOUS
 10
4.048000
 20
5.808440
  0
VERTEX
  8
0
  6
CONTINUOUS
 10
3.402960
 20
5.433120
  0
VERTEX
  8
0
  6
CONTINUOUS
 10
3.413080
 20
5.442360
  0
SEQEND
  8
0
  0
SOLID
  8
0
 62
    15
 10
3.402960
 20
5.433120
 11
4.048000
 21
5.808440
 12
3.392400
 22
5.425200
 13
4.037440
 23
5.800520
  0
POLYLINE
  8
0
  6
CONTINUOUS
 66
     1
 40
0.000000
 41
0.000000
  0
VERTEX
  8
0
  6
CONTINUOUS
 10
3.402960
 20
5.433120
  0
VERTEX
  8
0
  6
CONTINUOUS
 10
4.048000
 20
5.808440
  0
VERTEX
  8
0
  6
CONTINUOUS
 10
4.037440
 20
5.800520
  0
VERTEX
  8
0
  6
CONTINUOUS
 10
3.392400
 20
5.425200
  0
VERTEX
  8
0
  6
CONTINUOUS
 10
3.402960
 20
5.433120
  0
SEQEND
  8
0
  0
SOLID
  8
0
 62
    15
 10
3.392400
 20
5.425200
 11
4.037440
 21
5.800520
 12
3.380960
 22
5.418160
 13
4.026000
 23
5.793480
  0
POLYLINE
  8
0
  6
CONTINUOUS
 66
     1
 40
0.000000
 41
0.000000
  0
VERTEX
  8
0
  6
CONTINUOUS
 10
3.392400
 20
5.425200
  0
VERTEX
  8
0
  6
CONTINUOUS
 10
4.037440
 20
5.800520
  0
VERTEX
  8
0
  6
CONTINUOUS
 10
4.026000
 20
5.793480
  0
VERTEX
  8
0
  6
CONTINUOUS
 10
3.380960
 20
5.418160
  0
VERTEX
  8
0
  6
CONTINUOUS
 10
3.392400
 20
5.425200
  0
SEQEND
  8
0
  0
SOLID
  8
0
 62
    15
 10
3.436840
 20
5.474480
 11
4.081880
 21
5.849800
 12
3.429800
 22
5.463040
 13
4.074840
 23
5.837920
  0
POLYLINE
  8
0
  6
CONTINUOUS
 66
     1
 40
0.000000
 41
0.000000
  0
VERTEX
  8
0
  6
CONTINUOUS
 10
3.436840
 20
5.474480
  0
VERTEX
  8
0
  6
CONTINUOUS
 10
4.081880
 20
5.849800
  0
VERTEX
  8
0
  6
CONTINUOUS
 10
4.074840
 20
5.837920
  0
VERTEX
  8
0
  6
CONTINUOUS
 10
3.429800
 20
5.463040
  0
VERTEX
  8
0
  6
CONTINUOUS
 10
3.436840
 20
5.474480
  0
SEQEND
  8
0
  0
SOLID
  8
0
 62
    15
 10
3.195720
 20
5.753880
 11
3.840760
 21
6.129200
 12
3.196600
 22
5.753880
 13
3.841640
 23
6.129200
  0
POLYLINE
  8
0
  6
CONTINUOUS
 66
     1
 40
0.000000
 41
0.000000
  0
VERTEX
  8
0
  6
CONTINUOUS
 10
3.195720
 20
5.753880
  0
VERTEX
  8
0
  6
CONTINUOUS
 10
3.840760
 20
6.129200
  0
VERTEX
  8
0
  6
CONTINUOUS
 10
3.841640
 20
6.129200
  0
VERTEX
  8
0
  6
CONTINUOUS
 10
3.196600
 20
5.753880
  0
VERTEX
  8
0
  6
CONTINUOUS
 10
3.195720
 20
5.753880
  0
SEQEND
  8
0
  0
POLYLINE
  8
0
  6
CONTINUOUS
 66
     1
 40
0.000000
 41
0.000000
  0
VERTEX
  8
0
  6
CONTINUOUS
 10
3.196600
 20
5.753880
  0
VERTEX
  8
0
  6
CONTINUOUS
 10
3.314520
 20
5.753880
  0
VERTEX
  8
0
  6
CONTINUOUS
 10
3.314520
 20
5.680400
  0
VERTEX
  8
0
  6
CONTINUOUS
 10
3.328600
 20
5.679520
  0
VERTEX
  8
0
  6
CONTINUOUS
 10
3.342240
 20
5.677320
  0
VERTEX
  8
0
  6
CONTINUOUS
 10
3.355880
 20
5.673800
  0
VERTEX
  8
0
  6
CONTINUOUS
 10
3.368640
 20
5.669400
  0
VERTEX
  8
0
  6
CONTINUOUS
 10
3.380960
 20
5.663240
  0
VERTEX
  8
0
  6
CONTINUOUS
 10
3.392400
 20
5.656200
  0
VERTEX
  8
0
  6
CONTINUOUS
 10
3.402960
 20
5.648280
  0
VERTEX
  8
0
  6
CONTINUOUS
 10
3.413080
 20
5.639480
  0
VERTEX
  8
0
  6
CONTINUOUS
 10
3.421880
 20
5.629360
  0
VERTEX
  8
0
  6
CONTINUOUS
 10
3.429800
 20
5.618800
  0
VERTEX
  8
0
  6
CONTINUOUS
 10
3.436840
 20
5.607360
  0
VERTEX
  8
0
  6
CONTINUOUS
 10
3.443000
 20
5.595040
  0
VERTEX
  8
0
  6
CONTINUOUS
 10
3.447400
 20
5.582280
  0
VERTEX
  8
0
  6
CONTINUOUS
 10
3.450920
 20
5.569080
  0
VERTEX
  8
0
  6
CONTINUOUS
 10
3.453120
 20
5.555000
  0
VERTEX
  8
0
  6
CONTINUOUS
 10
3.453560
 20
5.540920
  0
VERTEX
  8
0
  6
CONTINUOUS
 10
3.453120
 20
5.526400
  0
VERTEX
  8
0
  6
CONTINUOUS
 10
3.450920
 20
5.512760
  0
VERTEX
  8
0
  6
CONTINUOUS
 10
3.447400
 20
5.499560
  0
VERTEX
  8
0
  6
CONTINUOUS
 10
3.443000
 20
5.486360
  0
VERTEX
  8
0
  6
CONTINUOUS
 10
3.436840
 20
5.474480
  0
VERTEX
  8
0
  6
CONTINUOUS
 10
3.429800
 20
5.463040
  0
VERTEX
  8
0
  6
CONTINUOUS
 10
3.421880
 20
5.452040
  0
VERTEX
  8
0
  6
CONTINUOUS
 10
3.413080
 20
5.442360
  0
VERTEX
  8
0
  6
CONTINUOUS
 10
3.402960
 20
5.433120
  0
VERTEX
  8
0
  6
CONTINUOUS
 10
3.392400
 20
5.425200
  0
VERTEX
  8
0
  6
CONTINUOUS
 10
3.380960
 20
5.418160
  0
VERTEX
  8
0
  6
CONTINUOUS
 10
3.368640
 20
5.412440
  0
VERTEX
  8
0
  6
CONTINUOUS
 10
3.355880
 20
5.407600
  0
VERTEX
  8
0
  6
CONTINUOUS
 10
3.342240
 20
5.404080
  0
VERTEX
  8
0
  6
CONTINUOUS
 10
3.328600
 20
5.402320
  0
VERTEX
  8
0
  6
CONTINUOUS
 10
3.314520
 20
5.401440
  0
VERTEX
  8
0
  6
CONTINUOUS
 10
3.314520
 20
5.328840
  0
VERTEX
  8
0
  6
CONTINUOUS
 10
3.195720
 20
5.328840
  0
VERTEX
  8
0
  6
CONTINUOUS
 10
3.195720
 20
5.753880
  0
VERTEX
  8
0
  6
CONTINUOUS
 10
3.196600
 20
5.753880
  0
SEQEND
  8
0
  0
POLYLINE
  8
0
  6
CONTINUOUS
 66
     1
 40
0.014080
 41
0.014080
  0
VERTEX
  8
0
  6
CONTINUOUS
 10
4.639360
 20
5.711200
  0
VERTEX
  8
0
  6
CONTINUOUS
 10
4.639360
 20
5.829120
  0
VERTEX
  8
0
  6
CONTINUOUS
 10
4.712840
 20
5.829120
  0
VERTEX
  8
0
  6
CONTINUOUS
 10
4.713720
 20
5.843200
  0
VERTEX
  8
0
  6
CONTINUOUS
 10
4.715480
 20
5.857280
  0
VERTEX
  8
0
  6
CONTINUOUS
 10
4.719000
 20
5.870480
  0
VERTEX
  8
0
  6
CONTINUOUS
 10
4.723840
 20
5.883240
  0
VERTEX
  8
0
  6
CONTINUOUS
 10
4.729560
 20
5.895560
  0
VERTEX
  8
0
  6
CONTINUOUS
 10
4.736600
 20
5.907000
  0
VERTEX
  8
0
  6
CONTINUOUS
 10
4.744520
 20
5.918000
  0
VERTEX
  8
0
  6
CONTINUOUS
 10
4.753760
 20
5.927680
  0
VERTEX
  8
0
  6
CONTINUOUS
 10
4.763440
 20
5.936920
  0
VERTEX
  8
0
  6
CONTINUOUS
 10
4.774440
 20
5.944840
  0
VERTEX
  8
0
  6
CONTINUOUS
 10
4.785880
 20
5.951880
  0
VERTEX
  8
0
  6
CONTINUOUS
 10
4.798200
 20
5.957600
  0
VERTEX
  8
0
  6
CONTINUOUS
 10
4.810960
 20
5.962440
  0
VERTEX
  8
0
  6
CONTINUOUS
 10
4.824160
 20
5.965960
  0
VERTEX
  8
0
  6
CONTINUOUS
 10
4.838240
 20
5.967720
  0
VERTEX
  8
0
  6
CONTINUOUS
 10
4.852320
 20
5.968600
  0
VERTEX
  8
0
  6
CONTINUOUS
 10
4.866400
 20
5.967720
  0
VERTEX
  8
0
  6
CONTINUOUS
 10
4.880480
 20
5.965960
  0
VERTEX
  8
0
  6
CONTINUOUS
 10
4.893680
 20
5.962440
  0
VERTEX
  8
0
  6
CONTINUOUS
 10
4.906440
 20
5.957600
  0
VERTEX
  8
0
  6
CONTINUOUS
 10
4.918760
 20
5.951880
  0
VERTEX
  8
0
  6
CONTINUOUS
 10
4.930200
 20
5.944840
  0
VERTEX
  8
0
  6
CONTINUOUS
 10
4.941200
 20
5.936920
  0
VERTEX
  8
0
  6
CONTINUOUS
 10
4.950880
 20
5.927680
  0
VERTEX
  8
0
  6
CONTINUOUS
 10
4.960120
 20
5.918000
  0
VERTEX
  8
0
  6
CONTINUOUS
 10
4.968040
 20
5.907000
  0
VERTEX
  8
0
  6
CONTINUOUS
 10
4.975080
 20
5.895560
  0
VERTEX
  8
0
  6
CONTINUOUS
 10
4.980800
 20
5.883240
  0
VERTEX
  8
0
  6
CONTINUOUS
 10
4.985640
 20
5.870480
  0
VERTEX
  8
0
  6
CONTINUOUS
 10
4.989160
 20
5.857280
  0
VERTEX
  8
0
  6
CONTINUOUS
 10
4.990920
 20
5.843200
  0
VERTEX
  8
0
  6
CONTINUOUS
 10
4.991800
 20
5.829120
  0
VERTEX
  8
0
  6
CONTINUOUS
 10
5.063960
 20
5.829120
  0
VERTEX
  8
0
  6
CONTINUOUS
 10
5.063960
 20
5.710320
  0
VERTEX
  8
0
  6
CONTINUOUS
 10
4.639360
 20
5.710320
  0
VERTEX
  8
0
  6
CONTINUOUS
 10
4.639360
 20
5.711200
  0
SEQEND
  8
0
  0
TEXT
  8
0
 10
4.557520
 20
5.501760
 40
0.138170
  1
BA  560
 41
1.000000
  7
SN0
 71
     0
 72
     5
 11
5.147834
 21
5.501760
  0
TEXT
  8
0
 10
4.429480
 20
5.309920
 40
0.138170
  1
1/4" x 7/16"
 41
1.000000
  7
SN0
 71
     0
 72
     5
 11
5.275163
 21
5.309920
  0
ENDSEC
  0
EOF
