  0
SECTION
  2
HEADER
  9
$ACADVER
  1
AC1006
  9
$EXTMIN
 10
3.566200
 20
0.398200
  9
$EXTMAX
 10
6.992040
 20
2.735480
  9
$LTSCALE
 40
0.044000
  9
$PDMODE
 70
    35
  9
$PDSIZE
 40
0.035200
  0
ENDSEC
  0
SECTION
  2
TABLES
  0
TABLE
  2
LTYPE
 70
     9
  0
LTYPE
  2
CONTINUOUS
 70
    64
  3
Solid line
 72
    65
 73
     0
 40
0.000000
  0
LTYPE
  2
DASHED
 70
    64
  3
__ __ __ __ __ __ __ __ __ __ __ __ __ __ __
 72
    65
 73
     2
 40
0.000330
 49
0.000220
 49
-0.000110
  0
LTYPE
  2
HIDDEN
 70
    64
  3
 _ _ _ _ _ _ _ _ _ _ _ _ _ _ _ _ _ _ _ _ _ _
 72
    65
 73
     2
 40
0.000165
 49
0.000110
 49
-0.000055
  0
LTYPE
  2
CENTER
 70
    64
  3
____ _ ____ _ ____ _ ____ _ ____ _ ____ _ ____
 72
    65
 73
     4
 40
0.000880
 49
0.000550
 49
-0.000110
 49
0.000110
 49
-0.000110
  0
LTYPE
  2
PHANTOM
 70
    64
  3
_____ _ _ _____ _ _ _____ _ _ _____ _ _ ____
 72
    65
 73
     6
 40
0.001100
 49
0.000550
 49
-0.000110
 49
0.000110
 49
-0.000110
 49
0.000110
 49
-0.000110
  0
LTYPE
  2
DOT
 70
    64
  3
...............................................
 72
    65
 73
     2
 40
0.000110
 49
0.000000
 49
-0.000110
  0
LTYPE
  2
DASHDOT
 70
    64
  3
__ . __ . __ . __ . __ . __ . __ . __ . __ . __
 72
    65
 73
     4
 40
0.000440
 49
0.000220
 49
-0.000110
 49
0.000000
 49
-0.000110
  0
LTYPE
  2
BORDER
 70
    64
  3
__ __ . __ __ . __ __ . __ __ . __ __ . __ __
 72
    65
 73
     6
 40
0.000770
 49
0.000220
 49
-0.000110
 49
0.000220
 49
-0.000110
 49
0.000000
 49
-0.000110
  0
LTYPE
  2
DIVIDE
 70
    64
  3
__ . . __ . . __ . . __ . . __ . . __ . . __
 72
    65
 73
     6
 40
0.000550
 49
0.000220
 49
-0.000110
 49
0.000000
 49
-0.000110
 49
0.000000
 49
-0.000110
  0
LTYPE
  2
DOTDOT
 70
    64
  3
 . .  . .  . .  . .  . .  . . 
 72
    65
 73
     5
 40
0.000242
 49
-0.000110
 49
0.000000
 49
-0.000110
 49
0.000000
 49
-0.000110
  0
ENDTAB
  0
TABLE
  2
STYLE
 70
     2
  0
STYLE
 70
     0
  2
SN0
 40
0.000000
 41
0.000440
 50
0.000000
 71
     0
 42
0.000000
  3
ROMAND
  0
STYLE
 70
    68
  2
SV0
 40
0.000000
 41
0.000440
 50
0.000000
 71
     0
 42
0.000000
  3
ROMAND
  0
ENDTAB
  0
TABLE
  2
LAYER
 70
     3
  0
LAYER
  2
FOREGROUND
 70
    64
 62
     7
  6
CONTINUOUS
  0
LAYER
  2
BACKGROUND
 70
    65
 62
    -7
  6
CONTINUOUS
  0
LAYER
  2
0
 70
    64
 62
     7
  6
CONTINUOUS
  0
ENDTAB
  0
ENDSEC
  0
SECTION
  2
ENTITIES
  0
POLYLINE
  8
FOREGROUND
  6
CONTINUOUS
 66
     1
 40
0.000000
 41
0.000000
  0
VERTEX
  8
FOREGROUND
  6
CONTINUOUS
 10
0.000000
 20
3.133680
  0
VERTEX
  8
FOREGROUND
  6
CONTINUOUS
 10
8.499920
 20
3.133680
  0
VERTEX
  8
FOREGROUND
  6
CONTINUOUS
 10
8.499920
 20
-7.866320
  0
VERTEX
  8
FOREGROUND
  6
CONTINUOUS
 10
0.000000
 20
-7.866320
  0
VERTEX
  8
FOREGROUND
  6
CONTINUOUS
 10
0.000000
 20
3.133680
  0
SEQEND
  8
0
  0
POLYLINE
  8
FOREGROUND
  6
CONTINUOUS
 66
     1
 40
0.000000
 41
0.000000
  0
VERTEX
  8
FOREGROUND
  6
CONTINUOUS
 10
0.000000
 20
3.133680
  0
VERTEX
  8
FOREGROUND
  6
CONTINUOUS
 10
8.499920
 20
3.133680
  0
VERTEX
  8
FOREGROUND
  6
CONTINUOUS
 10
8.499920
 20
-7.866320
  0
VERTEX
  8
FOREGROUND
  6
CONTINUOUS
 10
0.000000
 20
-7.866320
  0
VERTEX
  8
FOREGROUND
  6
CONTINUOUS
 10
0.000000
 20
3.133680
  0
SEQEND
  8
0
  0
POLYLINE
  8
0
  6
CONTINUOUS
 66
     1
 40
0.014080
 41
0.014080
  0
VERTEX
  8
0
  6
CONTINUOUS
 10
6.524320
 20
1.808400
  0
VERTEX
  8
0
  6
CONTINUOUS
 10
6.574920
 20
1.824240
  0
VERTEX
  8
0
  6
CONTINUOUS
 10
6.622880
 20
1.842720
  0
VERTEX
  8
0
  6
CONTINUOUS
 10
6.667760
 20
1.863400
  0
VERTEX
  8
0
  6
CONTINUOUS
 10
6.729360
 20
1.898600
  0
VERTEX
  8
0
  6
CONTINUOUS
 10
6.784360
 20
1.938640
  0
VERTEX
  8
0
  6
CONTINUOUS
 10
6.817360
 20
1.967680
  0
VERTEX
  8
0
  6
CONTINUOUS
 10
6.861360
 20
2.013440
  0
VERTEX
  8
0
  6
CONTINUOUS
 10
6.898760
 20
2.062720
  0
VERTEX
  8
0
  6
CONTINUOUS
 10
6.919880
 20
2.096600
  0
VERTEX
  8
0
  6
CONTINUOUS
 10
6.945840
 20
2.148960
  0
VERTEX
  8
0
  6
CONTINUOUS
 10
6.965200
 20
2.202640
  0
VERTEX
  8
0
  6
CONTINUOUS
 10
6.974440
 20
2.238720
  0
VERTEX
  8
0
  6
CONTINUOUS
 10
6.983240
 20
2.293280
  0
VERTEX
  8
0
  6
CONTINUOUS
 10
6.985000
 20
2.329360
  0
VERTEX
  8
0
  6
CONTINUOUS
 10
6.984120
 20
2.365440
  0
VERTEX
  8
0
  6
CONTINUOUS
 10
6.977080
 20
2.418240
  0
VERTEX
  8
0
  6
CONTINUOUS
 10
6.963440
 20
2.469280
  0
VERTEX
  8
0
  6
CONTINUOUS
 10
6.943200
 20
2.517680
  0
VERTEX
  8
0
  6
CONTINUOUS
 10
6.926040
 20
2.548920
  0
VERTEX
  8
0
  6
CONTINUOUS
 10
6.894800
 20
2.592040
  0
VERTEX
  8
0
  6
CONTINUOUS
 10
6.856960
 20
2.631640
  0
VERTEX
  8
0
  6
CONTINUOUS
 10
6.827920
 20
2.655840
  0
VERTEX
  8
0
  6
CONTINUOUS
 10
6.779520
 20
2.687520
  0
VERTEX
  8
0
  6
CONTINUOUS
 10
6.743440
 20
2.705560
  0
VERTEX
  8
0
  6
CONTINUOUS
 10
6.704280
 20
2.720960
  0
VERTEX
  8
0
  6
CONTINUOUS
 10
6.683600
 20
2.727560
  0
VERTEX
  8
0
  6
CONTINUOUS
 10
5.997200
 20
2.727560
  0
VERTEX
  8
0
  6
CONTINUOUS
 10
5.997200
 20
1.257080
  0
VERTEX
  8
0
  6
CONTINUOUS
 10
6.328080
 20
1.257080
  0
VERTEX
  8
0
  6
CONTINUOUS
 10
6.328520
 20
1.287880
  0
VERTEX
  8
0
  6
CONTINUOUS
 10
6.331160
 20
1.317800
  0
VERTEX
  8
0
  6
CONTINUOUS
 10
6.335560
 20
1.346840
  0
VERTEX
  8
0
  6
CONTINUOUS
 10
6.341720
 20
1.375000
  0
VERTEX
  8
0
  6
CONTINUOUS
 10
6.349640
 20
1.401840
  0
VERTEX
  8
0
  6
CONTINUOUS
 10
6.359320
 20
1.427800
  0
VERTEX
  8
0
  6
CONTINUOUS
 10
6.383080
 20
1.475320
  0
VERTEX
  8
0
  6
CONTINUOUS
 10
6.412120
 20
1.518440
  0
VERTEX
  8
0
  6
CONTINUOUS
 10
6.445560
 20
1.555840
  0
VERTEX
  8
0
  6
CONTINUOUS
 10
6.482520
 20
1.587080
  0
VERTEX
  8
0
  6
CONTINUOUS
 10
6.522120
 20
1.612160
  0
VERTEX
  8
0
  6
CONTINUOUS
 10
6.522120
 20
1.809280
  0
VERTEX
  8
0
  6
CONTINUOUS
 10
6.524320
 20
1.808400
  0
SEQEND
  8
0
  0
SOLID
  8
0
 62
    15
 10
4.397360
 20
2.257200
 11
5.040200
 21
2.632080
 12
4.452360
 22
2.207480
 13
5.095200
 23
2.581920
  0
POLYLINE
  8
0
  6
CONTINUOUS
 66
     1
 40
0.000000
 41
0.000000
  0
VERTEX
  8
0
  6
CONTINUOUS
 10
4.397360
 20
2.257200
  0
VERTEX
  8
0
  6
CONTINUOUS
 10
5.040200
 20
2.632080
  0
VERTEX
  8
0
  6
CONTINUOUS
 10
5.095200
 20
2.581920
  0
VERTEX
  8
0
  6
CONTINUOUS
 10
4.452360
 20
2.207480
  0
VERTEX
  8
0
  6
CONTINUOUS
 10
4.397360
 20
2.257200
  0
SEQEND
  8
0
  0
SOLID
  8
0
 62
    15
 10
4.091560
 20
1.213520
 11
4.734400
 21
1.588400
 12
4.051960
 22
1.188440
 13
4.694800
 23
1.563320
  0
POLYLINE
  8
0
  6
CONTINUOUS
 66
     1
 40
0.000000
 41
0.000000
  0
VERTEX
  8
0
  6
CONTINUOUS
 10
4.091560
 20
1.213520
  0
VERTEX
  8
0
  6
CONTINUOUS
 10
4.734400
 20
1.588400
  0
VERTEX
  8
0
  6
CONTINUOUS
 10
4.694800
 20
1.563320
  0
VERTEX
  8
0
  6
CONTINUOUS
 10
4.051960
 20
1.188440
  0
VERTEX
  8
0
  6
CONTINUOUS
 10
4.091560
 20
1.213520
  0
SEQEND
  8
0
  0
SOLID
  8
0
 62
    15
 10
4.051960
 20
1.188440
 11
4.694800
 21
1.563320
 12
4.015000
 22
1.157200
 13
4.657840
 23
1.531640
  0
POLYLINE
  8
0
  6
CONTINUOUS
 66
     1
 40
0.000000
 41
0.000000
  0
VERTEX
  8
0
  6
CONTINUOUS
 10
4.051960
 20
1.188440
  0
VERTEX
  8
0
  6
CONTINUOUS
 10
4.694800
 20
1.563320
  0
VERTEX
  8
0
  6
CONTINUOUS
 10
4.657840
 20
1.531640
  0
VERTEX
  8
0
  6
CONTINUOUS
 10
4.015000
 20
1.157200
  0
VERTEX
  8
0
  6
CONTINUOUS
 10
4.051960
 20
1.188440
  0
SEQEND
  8
0
  0
SOLID
  8
0
 62
    15
 10
4.015000
 20
1.157200
 11
4.657840
 21
1.531640
 12
3.981560
 22
1.119800
 13
4.624400
 23
1.494240
  0
POLYLINE
  8
0
  6
CONTINUOUS
 66
     1
 40
0.000000
 41
0.000000
  0
VERTEX
  8
0
  6
CONTINUOUS
 10
4.015000
 20
1.157200
  0
VERTEX
  8
0
  6
CONTINUOUS
 10
4.657840
 20
1.531640
  0
VERTEX
  8
0
  6
CONTINUOUS
 10
4.624400
 20
1.494240
  0
VERTEX
  8
0
  6
CONTINUOUS
 10
3.981560
 20
1.119800
  0
VERTEX
  8
0
  6
CONTINUOUS
 10
4.015000
 20
1.157200
  0
SEQEND
  8
0
  0
SOLID
  8
0
 62
    15
 10
3.981560
 20
1.119800
 11
4.624400
 21
1.494240
 12
3.952520
 22
1.077120
 13
4.595360
 23
1.451560
  0
POLYLINE
  8
0
  6
CONTINUOUS
 66
     1
 40
0.000000
 41
0.000000
  0
VERTEX
  8
0
  6
CONTINUOUS
 10
3.981560
 20
1.119800
  0
VERTEX
  8
0
  6
CONTINUOUS
 10
4.624400
 20
1.494240
  0
VERTEX
  8
0
  6
CONTINUOUS
 10
4.595360
 20
1.451560
  0
VERTEX
  8
0
  6
CONTINUOUS
 10
3.952520
 20
1.077120
  0
VERTEX
  8
0
  6
CONTINUOUS
 10
3.981560
 20
1.119800
  0
SEQEND
  8
0
  0
SOLID
  8
0
 62
    15
 10
3.952520
 20
1.077120
 11
4.595360
 21
1.451560
 12
3.928760
 22
1.029160
 13
4.571600
 23
1.403600
  0
POLYLINE
  8
0
  6
CONTINUOUS
 66
     1
 40
0.000000
 41
0.000000
  0
VERTEX
  8
0
  6
CONTINUOUS
 10
3.952520
 20
1.077120
  0
VERTEX
  8
0
  6
CONTINUOUS
 10
4.595360
 20
1.451560
  0
VERTEX
  8
0
  6
CONTINUOUS
 10
4.571600
 20
1.403600
  0
VERTEX
  8
0
  6
CONTINUOUS
 10
3.928760
 20
1.029160
  0
VERTEX
  8
0
  6
CONTINUOUS
 10
3.952520
 20
1.077120
  0
SEQEND
  8
0
  0
SOLID
  8
0
 62
    15
 10
3.928760
 20
1.029160
 11
4.571600
 21
1.403600
 12
3.911160
 22
0.976360
 13
4.554000
 23
1.350800
  0
POLYLINE
  8
0
  6
CONTINUOUS
 66
     1
 40
0.000000
 41
0.000000
  0
VERTEX
  8
0
  6
CONTINUOUS
 10
3.928760
 20
1.029160
  0
VERTEX
  8
0
  6
CONTINUOUS
 10
4.571600
 20
1.403600
  0
VERTEX
  8
0
  6
CONTINUOUS
 10
4.554000
 20
1.350800
  0
VERTEX
  8
0
  6
CONTINUOUS
 10
3.911160
 20
0.976360
  0
VERTEX
  8
0
  6
CONTINUOUS
 10
3.928760
 20
1.029160
  0
SEQEND
  8
0
  0
SOLID
  8
0
 62
    15
 10
3.911160
 20
0.976360
 11
4.554000
 21
1.350800
 12
3.900600
 22
0.919600
 13
4.543440
 23
1.294040
  0
POLYLINE
  8
0
  6
CONTINUOUS
 66
     1
 40
0.000000
 41
0.000000
  0
VERTEX
  8
0
  6
CONTINUOUS
 10
3.911160
 20
0.976360
  0
VERTEX
  8
0
  6
CONTINUOUS
 10
4.554000
 20
1.350800
  0
VERTEX
  8
0
  6
CONTINUOUS
 10
4.543440
 20
1.294040
  0
VERTEX
  8
0
  6
CONTINUOUS
 10
3.900600
 20
0.919600
  0
VERTEX
  8
0
  6
CONTINUOUS
 10
3.911160
 20
0.976360
  0
SEQEND
  8
0
  0
SOLID
  8
0
 62
    15
 10
3.900600
 20
0.919600
 11
4.543440
 21
1.294040
 12
3.897520
 22
0.858440
 13
4.540360
 23
1.232880
  0
POLYLINE
  8
0
  6
CONTINUOUS
 66
     1
 40
0.000000
 41
0.000000
  0
VERTEX
  8
0
  6
CONTINUOUS
 10
3.900600
 20
0.919600
  0
VERTEX
  8
0
  6
CONTINUOUS
 10
4.543440
 20
1.294040
  0
VERTEX
  8
0
  6
CONTINUOUS
 10
4.540360
 20
1.232880
  0
VERTEX
  8
0
  6
CONTINUOUS
 10
3.897520
 20
0.858440
  0
VERTEX
  8
0
  6
CONTINUOUS
 10
3.900600
 20
0.919600
  0
SEQEND
  8
0
  0
SOLID
  8
0
 62
    15
 10
3.566640
 20
2.329360
 11
4.209480
 21
2.703800
 12
4.253040
 22
2.329360
 13
4.895880
 23
2.703800
  0
POLYLINE
  8
0
  6
CONTINUOUS
 66
     1
 40
0.000000
 41
0.000000
  0
VERTEX
  8
0
  6
CONTINUOUS
 10
3.566640
 20
2.329360
  0
VERTEX
  8
0
  6
CONTINUOUS
 10
4.209480
 20
2.703800
  0
VERTEX
  8
0
  6
CONTINUOUS
 10
4.895880
 20
2.703800
  0
VERTEX
  8
0
  6
CONTINUOUS
 10
4.253040
 20
2.329360
  0
VERTEX
  8
0
  6
CONTINUOUS
 10
3.566640
 20
2.329360
  0
SEQEND
  8
0
  0
SOLID
  8
0
 62
    15
 10
4.253040
 20
2.329360
 11
4.895880
 21
2.703800
 12
4.331360
 22
2.298560
 13
4.973760
 23
2.673000
  0
POLYLINE
  8
0
  6
CONTINUOUS
 66
     1
 40
0.000000
 41
0.000000
  0
VERTEX
  8
0
  6
CONTINUOUS
 10
4.253040
 20
2.329360
  0
VERTEX
  8
0
  6
CONTINUOUS
 10
4.895880
 20
2.703800
  0
VERTEX
  8
0
  6
CONTINUOUS
 10
4.973760
 20
2.673000
  0
VERTEX
  8
0
  6
CONTINUOUS
 10
4.331360
 20
2.298560
  0
VERTEX
  8
0
  6
CONTINUOUS
 10
4.253040
 20
2.329360
  0
SEQEND
  8
0
  0
SOLID
  8
0
 62
    15
 10
4.331360
 20
2.298560
 11
4.973760
 21
2.673000
 12
4.397360
 22
2.257200
 13
5.040200
 23
2.632080
  0
POLYLINE
  8
0
  6
CONTINUOUS
 66
     1
 40
0.000000
 41
0.000000
  0
VERTEX
  8
0
  6
CONTINUOUS
 10
4.331360
 20
2.298560
  0
VERTEX
  8
0
  6
CONTINUOUS
 10
4.973760
 20
2.673000
  0
VERTEX
  8
0
  6
CONTINUOUS
 10
5.040200
 20
2.632080
  0
VERTEX
  8
0
  6
CONTINUOUS
 10
4.397360
 20
2.257200
  0
VERTEX
  8
0
  6
CONTINUOUS
 10
4.331360
 20
2.298560
  0
SEQEND
  8
0
  0
SOLID
  8
0
 62
    15
 10
4.091560
 20
1.410640
 11
4.734400
 21
1.785520
 12
4.091560
 22
1.213520
 13
4.734400
 23
1.588400
  0
POLYLINE
  8
0
  6
CONTINUOUS
 66
     1
 40
0.000000
 41
0.000000
  0
VERTEX
  8
0
  6
CONTINUOUS
 10
4.091560
 20
1.410640
  0
VERTEX
  8
0
  6
CONTINUOUS
 10
4.734400
 20
1.785520
  0
VERTEX
  8
0
  6
CONTINUOUS
 10
4.734400
 20
1.588400
  0
VERTEX
  8
0
  6
CONTINUOUS
 10
4.091560
 20
1.213520
  0
VERTEX
  8
0
  6
CONTINUOUS
 10
4.091560
 20
1.410640
  0
SEQEND
  8
0
  0
SOLID
  8
0
 62
    15
 10
4.452360
 20
2.207480
 11
5.095200
 21
2.581920
 12
4.495480
 22
2.150280
 13
5.138320
 23
2.524720
  0
POLYLINE
  8
0
  6
CONTINUOUS
 66
     1
 40
0.000000
 41
0.000000
  0
VERTEX
  8
0
  6
CONTINUOUS
 10
4.452360
 20
2.207480
  0
VERTEX
  8
0
  6
CONTINUOUS
 10
5.095200
 20
2.581920
  0
VERTEX
  8
0
  6
CONTINUOUS
 10
5.138320
 20
2.524720
  0
VERTEX
  8
0
  6
CONTINUOUS
 10
4.495480
 20
2.150280
  0
VERTEX
  8
0
  6
CONTINUOUS
 10
4.452360
 20
2.207480
  0
SEQEND
  8
0
  0
SOLID
  8
0
 62
    15
 10
4.495480
 20
2.150280
 11
5.138320
 21
2.524720
 12
4.526720
 22
2.087360
 13
5.169560
 23
2.461800
  0
POLYLINE
  8
0
  6
CONTINUOUS
 66
     1
 40
0.000000
 41
0.000000
  0
VERTEX
  8
0
  6
CONTINUOUS
 10
4.495480
 20
2.150280
  0
VERTEX
  8
0
  6
CONTINUOUS
 10
5.138320
 20
2.524720
  0
VERTEX
  8
0
  6
CONTINUOUS
 10
5.169560
 20
2.461800
  0
VERTEX
  8
0
  6
CONTINUOUS
 10
4.526720
 20
2.087360
  0
VERTEX
  8
0
  6
CONTINUOUS
 10
4.495480
 20
2.150280
  0
SEQEND
  8
0
  0
SOLID
  8
0
 62
    15
 10
4.526720
 20
2.087360
 11
5.169560
 21
2.461800
 12
4.546080
 22
2.019600
 13
5.188920
 23
2.394040
  0
POLYLINE
  8
0
  6
CONTINUOUS
 66
     1
 40
0.000000
 41
0.000000
  0
VERTEX
  8
0
  6
CONTINUOUS
 10
4.526720
 20
2.087360
  0
VERTEX
  8
0
  6
CONTINUOUS
 10
5.169560
 20
2.461800
  0
VERTEX
  8
0
  6
CONTINUOUS
 10
5.188920
 20
2.394040
  0
VERTEX
  8
0
  6
CONTINUOUS
 10
4.546080
 20
2.019600
  0
VERTEX
  8
0
  6
CONTINUOUS
 10
4.526720
 20
2.087360
  0
SEQEND
  8
0
  0
SOLID
  8
0
 62
    15
 10
4.546080
 20
2.019600
 11
5.188920
 21
2.394040
 12
4.554000
 22
1.948760
 13
5.196840
 23
2.323640
  0
POLYLINE
  8
0
  6
CONTINUOUS
 66
     1
 40
0.000000
 41
0.000000
  0
VERTEX
  8
0
  6
CONTINUOUS
 10
4.546080
 20
2.019600
  0
VERTEX
  8
0
  6
CONTINUOUS
 10
5.188920
 20
2.394040
  0
VERTEX
  8
0
  6
CONTINUOUS
 10
5.196840
 20
2.323640
  0
VERTEX
  8
0
  6
CONTINUOUS
 10
4.554000
 20
1.948760
  0
VERTEX
  8
0
  6
CONTINUOUS
 10
4.546080
 20
2.019600
  0
SEQEND
  8
0
  0
SOLID
  8
0
 62
    15
 10
4.554000
 20
1.948760
 11
5.196840
 21
2.323640
 12
4.550480
 22
1.876600
 13
5.193320
 23
2.251040
  0
POLYLINE
  8
0
  6
CONTINUOUS
 66
     1
 40
0.000000
 41
0.000000
  0
VERTEX
  8
0
  6
CONTINUOUS
 10
4.554000
 20
1.948760
  0
VERTEX
  8
0
  6
CONTINUOUS
 10
5.196840
 20
2.323640
  0
VERTEX
  8
0
  6
CONTINUOUS
 10
5.193320
 20
2.251040
  0
VERTEX
  8
0
  6
CONTINUOUS
 10
4.550480
 20
1.876600
  0
VERTEX
  8
0
  6
CONTINUOUS
 10
4.554000
 20
1.948760
  0
SEQEND
  8
0
  0
SOLID
  8
0
 62
    15
 10
4.550480
 20
1.876600
 11
5.193320
 21
2.251040
 12
4.534640
 22
1.804000
 13
5.177480
 23
2.178440
  0
POLYLINE
  8
0
  6
CONTINUOUS
 66
     1
 40
0.000000
 41
0.000000
  0
VERTEX
  8
0
  6
CONTINUOUS
 10
4.550480
 20
1.876600
  0
VERTEX
  8
0
  6
CONTINUOUS
 10
5.193320
 20
2.251040
  0
VERTEX
  8
0
  6
CONTINUOUS
 10
5.177480
 20
2.178440
  0
VERTEX
  8
0
  6
CONTINUOUS
 10
4.534640
 20
1.804000
  0
VERTEX
  8
0
  6
CONTINUOUS
 10
4.550480
 20
1.876600
  0
SEQEND
  8
0
  0
SOLID
  8
0
 62
    15
 10
4.534640
 20
1.804000
 11
5.177480
 21
2.178440
 12
4.507360
 22
1.732720
 13
5.150200
 23
2.107160
  0
POLYLINE
  8
0
  6
CONTINUOUS
 66
     1
 40
0.000000
 41
0.000000
  0
VERTEX
  8
0
  6
CONTINUOUS
 10
4.534640
 20
1.804000
  0
VERTEX
  8
0
  6
CONTINUOUS
 10
5.177480
 20
2.178440
  0
VERTEX
  8
0
  6
CONTINUOUS
 10
5.150200
 20
2.107160
  0
VERTEX
  8
0
  6
CONTINUOUS
 10
4.507360
 20
1.732720
  0
VERTEX
  8
0
  6
CONTINUOUS
 10
4.534640
 20
1.804000
  0
SEQEND
  8
0
  0
SOLID
  8
0
 62
    15
 10
4.507360
 20
1.732720
 11
5.150200
 21
2.107160
 12
4.467760
 22
1.664080
 13
5.110600
 23
2.038520
  0
POLYLINE
  8
0
  6
CONTINUOUS
 66
     1
 40
0.000000
 41
0.000000
  0
VERTEX
  8
0
  6
CONTINUOUS
 10
4.507360
 20
1.732720
  0
VERTEX
  8
0
  6
CONTINUOUS
 10
5.150200
 20
2.107160
  0
VERTEX
  8
0
  6
CONTINUOUS
 10
5.110600
 20
2.038520
  0
VERTEX
  8
0
  6
CONTINUOUS
 10
4.467760
 20
1.664080
  0
VERTEX
  8
0
  6
CONTINUOUS
 10
4.507360
 20
1.732720
  0
SEQEND
  8
0
  0
SOLID
  8
0
 62
    15
 10
4.467760
 20
1.664080
 11
5.110600
 21
2.038520
 12
4.416720
 22
1.599400
 13
5.059560
 23
1.973840
  0
POLYLINE
  8
0
  6
CONTINUOUS
 66
     1
 40
0.000000
 41
0.000000
  0
VERTEX
  8
0
  6
CONTINUOUS
 10
4.467760
 20
1.664080
  0
VERTEX
  8
0
  6
CONTINUOUS
 10
5.110600
 20
2.038520
  0
VERTEX
  8
0
  6
CONTINUOUS
 10
5.059560
 20
1.973840
  0
VERTEX
  8
0
  6
CONTINUOUS
 10
4.416720
 20
1.599400
  0
VERTEX
  8
0
  6
CONTINUOUS
 10
4.467760
 20
1.664080
  0
SEQEND
  8
0
  0
SOLID
  8
0
 62
    15
 10
4.416720
 20
1.599400
 11
5.059560
 21
1.973840
 12
4.353800
 22
1.540000
 13
4.996640
 23
1.914880
  0
POLYLINE
  8
0
  6
CONTINUOUS
 66
     1
 40
0.000000
 41
0.000000
  0
VERTEX
  8
0
  6
CONTINUOUS
 10
4.416720
 20
1.599400
  0
VERTEX
  8
0
  6
CONTINUOUS
 10
5.059560
 20
1.973840
  0
VERTEX
  8
0
  6
CONTINUOUS
 10
4.996640
 20
1.914880
  0
VERTEX
  8
0
  6
CONTINUOUS
 10
4.353800
 20
1.540000
  0
VERTEX
  8
0
  6
CONTINUOUS
 10
4.416720
 20
1.599400
  0
SEQEND
  8
0
  0
SOLID
  8
0
 62
    15
 10
4.353800
 20
1.540000
 11
4.996640
 21
1.914880
 12
4.279000
 22
1.488080
 13
4.921840
 23
1.862520
  0
POLYLINE
  8
0
  6
CONTINUOUS
 66
     1
 40
0.000000
 41
0.000000
  0
VERTEX
  8
0
  6
CONTINUOUS
 10
4.353800
 20
1.540000
  0
VERTEX
  8
0
  6
CONTINUOUS
 10
4.996640
 20
1.914880
  0
VERTEX
  8
0
  6
CONTINUOUS
 10
4.921840
 20
1.862520
  0
VERTEX
  8
0
  6
CONTINUOUS
 10
4.279000
 20
1.488080
  0
VERTEX
  8
0
  6
CONTINUOUS
 10
4.353800
 20
1.540000
  0
SEQEND
  8
0
  0
POLYLINE
  8
0
  6
CONTINUOUS
 66
     1
 40
0.000000
 41
0.000000
  0
VERTEX
  8
0
  6
CONTINUOUS
 10
4.091560
 20
1.410640
  0
VERTEX
  8
0
  6
CONTINUOUS
 10
4.091560
 20
1.213520
  0
VERTEX
  8
0
  6
CONTINUOUS
 10
4.051960
 20
1.188440
  0
VERTEX
  8
0
  6
CONTINUOUS
 10
4.015000
 20
1.157200
  0
VERTEX
  8
0
  6
CONTINUOUS
 10
3.981560
 20
1.119800
  0
VERTEX
  8
0
  6
CONTINUOUS
 10
3.952520
 20
1.077120
  0
VERTEX
  8
0
  6
CONTINUOUS
 10
3.928760
 20
1.029160
  0
VERTEX
  8
0
  6
CONTINUOUS
 10
3.911160
 20
0.976360
  0
VERTEX
  8
0
  6
CONTINUOUS
 10
3.900600
 20
0.919600
  0
VERTEX
  8
0
  6
CONTINUOUS
 10
3.897520
 20
0.858440
  0
VERTEX
  8
0
  6
CONTINUOUS
 10
3.566640
 20
0.858440
  0
VERTEX
  8
0
  6
CONTINUOUS
 10
3.566640
 20
2.329360
  0
VERTEX
  8
0
  6
CONTINUOUS
 10
4.253040
 20
2.329360
  0
VERTEX
  8
0
  6
CONTINUOUS
 10
4.331360
 20
2.298560
  0
VERTEX
  8
0
  6
CONTINUOUS
 10
4.397360
 20
2.257200
  0
VERTEX
  8
0
  6
CONTINUOUS
 10
4.452360
 20
2.207480
  0
VERTEX
  8
0
  6
CONTINUOUS
 10
4.495480
 20
2.150280
  0
VERTEX
  8
0
  6
CONTINUOUS
 10
4.526720
 20
2.087360
  0
VERTEX
  8
0
  6
CONTINUOUS
 10
4.546080
 20
2.019600
  0
VERTEX
  8
0
  6
CONTINUOUS
 10
4.554000
 20
1.948760
  0
VERTEX
  8
0
  6
CONTINUOUS
 10
4.550480
 20
1.876600
  0
VERTEX
  8
0
  6
CONTINUOUS
 10
4.534640
 20
1.804000
  0
VERTEX
  8
0
  6
CONTINUOUS
 10
4.507360
 20
1.732720
  0
VERTEX
  8
0
  6
CONTINUOUS
 10
4.467760
 20
1.664080
  0
VERTEX
  8
0
  6
CONTINUOUS
 10
4.416720
 20
1.599400
  0
VERTEX
  8
0
  6
CONTINUOUS
 10
4.353800
 20
1.540000
  0
VERTEX
  8
0
  6
CONTINUOUS
 10
4.279000
 20
1.488080
  0
VERTEX
  8
0
  6
CONTINUOUS
 10
4.192320
 20
1.444080
  0
VERTEX
  8
0
  6
CONTINUOUS
 10
4.093760
 20
1.410200
  0
VERTEX
  8
0
  6
CONTINUOUS
 10
4.091560
 20
1.410640
  0
SEQEND
  8
0
  0
TEXT
  8
0
 10
4.086720
 20
0.634040
 40
0.138181
  1
BA  559
 41
1.000000
  7
SN0
 71
     0
 72
     5
 11
4.677164
 21
0.634040
  0
TEXT
  8
0
 10
4.000040
 20
0.442200
 40
0.138181
  1
1" x 1-1/2"
 41
1.000000
  7
SN0
 71
     0
 72
     5
 11
4.762975
 21
0.442200
  0
ENDSEC
  0
EOF
