  0
SECTION
  2
HEADER
  9
$ACADVER
  1
AC1006
  9
$EXTMIN
 10
3.398120
 20
0.517440
  9
$EXTMAX
 10
7.185200
 20
2.507560
  9
$LTSCALE
 40
0.044000
  9
$PDMODE
 70
    35
  9
$PDSIZE
 40
0.035200
  0
ENDSEC
  0
SECTION
  2
TABLES
  0
TABLE
  2
LTYPE
 70
     9
  0
LTYPE
  2
CONTINUOUS
 70
    64
  3
Solid line
 72
    65
 73
     0
 40
0.000000
  0
LTYPE
  2
DASHED
 70
    64
  3
__ __ __ __ __ __ __ __ __ __ __ __ __ __ __
 72
    65
 73
     2
 40
0.000330
 49
0.000220
 49
-0.000110
  0
LTYPE
  2
HIDDEN
 70
    64
  3
 _ _ _ _ _ _ _ _ _ _ _ _ _ _ _ _ _ _ _ _ _ _
 72
    65
 73
     2
 40
0.000165
 49
0.000110
 49
-0.000055
  0
LTYPE
  2
CENTER
 70
    64
  3
____ _ ____ _ ____ _ ____ _ ____ _ ____ _ ____
 72
    65
 73
     4
 40
0.000880
 49
0.000550
 49
-0.000110
 49
0.000110
 49
-0.000110
  0
LTYPE
  2
PHANTOM
 70
    64
  3
_____ _ _ _____ _ _ _____ _ _ _____ _ _ ____
 72
    65
 73
     6
 40
0.001100
 49
0.000550
 49
-0.000110
 49
0.000110
 49
-0.000110
 49
0.000110
 49
-0.000110
  0
LTYPE
  2
DOT
 70
    64
  3
...............................................
 72
    65
 73
     2
 40
0.000110
 49
0.000000
 49
-0.000110
  0
LTYPE
  2
DASHDOT
 70
    64
  3
__ . __ . __ . __ . __ . __ . __ . __ . __ . __
 72
    65
 73
     4
 40
0.000440
 49
0.000220
 49
-0.000110
 49
0.000000
 49
-0.000110
  0
LTYPE
  2
BORDER
 70
    64
  3
__ __ . __ __ . __ __ . __ __ . __ __ . __ __
 72
    65
 73
     6
 40
0.000770
 49
0.000220
 49
-0.000110
 49
0.000220
 49
-0.000110
 49
0.000000
 49
-0.000110
  0
LTYPE
  2
DIVIDE
 70
    64
  3
__ . . __ . . __ . . __ . . __ . . __ . . __
 72
    65
 73
     6
 40
0.000550
 49
0.000220
 49
-0.000110
 49
0.000000
 49
-0.000110
 49
0.000000
 49
-0.000110
  0
LTYPE
  2
DOTDOT
 70
    64
  3
 . .  . .  . .  . .  . .  . . 
 72
    65
 73
     5
 40
0.000242
 49
-0.000110
 49
0.000000
 49
-0.000110
 49
0.000000
 49
-0.000110
  0
ENDTAB
  0
TABLE
  2
STYLE
 70
     2
  0
STYLE
 70
     0
  2
SN0
 40
0.000000
 41
0.000440
 50
0.000000
 71
     0
 42
0.000000
  3
ROMAND
  0
STYLE
 70
    68
  2
SV0
 40
0.000000
 41
0.000440
 50
0.000000
 71
     0
 42
0.000000
  3
ROMAND
  0
ENDTAB
  0
TABLE
  2
LAYER
 70
     3
  0
LAYER
  2
FOREGROUND
 70
    64
 62
     7
  6
CONTINUOUS
  0
LAYER
  2
BACKGROUND
 70
    65
 62
    -7
  6
CONTINUOUS
  0
LAYER
  2
0
 70
    64
 62
     7
  6
CONTINUOUS
  0
ENDTAB
  0
ENDSEC
  0
SECTION
  2
ENTITIES
  0
POLYLINE
  8
FOREGROUND
  6
CONTINUOUS
 66
     1
 40
0.000000
 41
0.000000
  0
VERTEX
  8
FOREGROUND
  6
CONTINUOUS
 10
0.000000
 20
3.025000
  0
VERTEX
  8
FOREGROUND
  6
CONTINUOUS
 10
8.499920
 20
3.025000
  0
VERTEX
  8
FOREGROUND
  6
CONTINUOUS
 10
8.499920
 20
-7.975000
  0
VERTEX
  8
FOREGROUND
  6
CONTINUOUS
 10
0.000000
 20
-7.975000
  0
VERTEX
  8
FOREGROUND
  6
CONTINUOUS
 10
0.000000
 20
3.025000
  0
SEQEND
  8
0
  0
POLYLINE
  8
FOREGROUND
  6
CONTINUOUS
 66
     1
 40
0.000000
 41
0.000000
  0
VERTEX
  8
FOREGROUND
  6
CONTINUOUS
 10
0.000000
 20
3.025000
  0
VERTEX
  8
FOREGROUND
  6
CONTINUOUS
 10
8.499920
 20
3.025000
  0
VERTEX
  8
FOREGROUND
  6
CONTINUOUS
 10
8.499920
 20
-7.975000
  0
VERTEX
  8
FOREGROUND
  6
CONTINUOUS
 10
0.000000
 20
-7.975000
  0
VERTEX
  8
FOREGROUND
  6
CONTINUOUS
 10
0.000000
 20
3.025000
  0
SEQEND
  8
0
  0
POLYLINE
  8
0
  6
CONTINUOUS
 66
     1
 40
0.014080
 41
0.014080
  0
VERTEX
  8
0
  6
CONTINUOUS
 10
7.177720
 20
1.789920
  0
VERTEX
  8
0
  6
CONTINUOUS
 10
7.175960
 20
1.824240
  0
VERTEX
  8
0
  6
CONTINUOUS
 10
7.170240
 20
1.870880
  0
VERTEX
  8
0
  6
CONTINUOUS
 10
7.157040
 20
1.926320
  0
VERTEX
  8
0
  6
CONTINUOUS
 10
7.143840
 20
1.961960
  0
VERTEX
  8
0
  6
CONTINUOUS
 10
7.133280
 20
1.983520
  0
VERTEX
  8
0
  6
CONTINUOUS
 10
7.121840
 20
2.002880
  0
VERTEX
  8
0
  6
CONTINUOUS
 10
7.096760
 20
2.035880
  0
VERTEX
  8
0
  6
CONTINUOUS
 10
7.082680
 20
2.049520
  0
VERTEX
  8
0
  6
CONTINUOUS
 10
7.052760
 20
2.071080
  0
VERTEX
  8
0
  6
CONTINUOUS
 10
7.021520
 20
2.085600
  0
VERTEX
  8
0
  6
CONTINUOUS
 10
7.005680
 20
2.090440
  0
VERTEX
  8
0
  6
CONTINUOUS
 10
6.989400
 20
2.093520
  0
VERTEX
  8
0
  6
CONTINUOUS
 10
6.973120
 20
2.094840
  0
VERTEX
  8
0
  6
CONTINUOUS
 10
6.941000
 20
2.092640
  0
VERTEX
  8
0
  6
CONTINUOUS
 10
6.925160
 20
2.089560
  0
VERTEX
  8
0
  6
CONTINUOUS
 10
6.895240
 20
2.078560
  0
VERTEX
  8
0
  6
CONTINUOUS
 10
6.867520
 20
2.061840
  0
VERTEX
  8
0
  6
CONTINUOUS
 10
6.843320
 20
2.039840
  0
VERTEX
  8
0
  6
CONTINUOUS
 10
6.823080
 20
2.013000
  0
VERTEX
  8
0
  6
CONTINUOUS
 10
6.807680
 20
1.980880
  0
VERTEX
  8
0
  6
CONTINUOUS
 10
6.801960
 20
1.963280
  0
VERTEX
  8
0
  6
CONTINUOUS
 10
6.781280
 20
1.960640
  0
VERTEX
  8
0
  6
CONTINUOUS
 10
6.741240
 20
1.959320
  0
VERTEX
  8
0
  6
CONTINUOUS
 10
6.704280
 20
1.962400
  0
VERTEX
  8
0
  6
CONTINUOUS
 10
6.669080
 20
1.969440
  0
VERTEX
  8
0
  6
CONTINUOUS
 10
6.636520
 20
1.980440
  0
VERTEX
  8
0
  6
CONTINUOUS
 10
6.591640
 20
2.002440
  0
VERTEX
  8
0
  6
CONTINUOUS
 10
6.564800
 20
2.020480
  0
VERTEX
  8
0
  6
CONTINUOUS
 10
6.528720
 20
2.051720
  0
VERTEX
  8
0
  6
CONTINUOUS
 10
6.497920
 20
2.086920
  0
VERTEX
  8
0
  6
CONTINUOUS
 10
6.479880
 20
2.111560
  0
VERTEX
  8
0
  6
CONTINUOUS
 10
6.464040
 20
2.137080
  0
VERTEX
  8
0
  6
CONTINUOUS
 10
6.450400
 20
2.163040
  0
VERTEX
  8
0
  6
CONTINUOUS
 10
6.438960
 20
2.188560
  0
VERTEX
  8
0
  6
CONTINUOUS
 10
6.422240
 20
2.237840
  0
VERTEX
  8
0
  6
CONTINUOUS
 10
6.310040
 20
2.237840
  0
VERTEX
  8
0
  6
CONTINUOUS
 10
6.304760
 20
2.277440
  0
VERTEX
  8
0
  6
CONTINUOUS
 10
6.294640
 20
2.314400
  0
VERTEX
  8
0
  6
CONTINUOUS
 10
6.285400
 20
2.337280
  0
VERTEX
  8
0
  6
CONTINUOUS
 10
6.262080
 20
2.378640
  0
VERTEX
  8
0
  6
CONTINUOUS
 10
6.233040
 20
2.414280
  0
VERTEX
  8
0
  6
CONTINUOUS
 10
6.198720
 20
2.443760
  0
VERTEX
  8
0
  6
CONTINUOUS
 10
6.180240
 20
2.456520
  0
VERTEX
  8
0
  6
CONTINUOUS
 10
6.140640
 20
2.476760
  0
VERTEX
  8
0
  6
CONTINUOUS
 10
6.098400
 20
2.490840
  0
VERTEX
  8
0
  6
CONTINUOUS
 10
6.076840
 20
2.495680
  0
VERTEX
  8
0
  6
CONTINUOUS
 10
6.033280
 20
2.499640
  0
VERTEX
  8
0
  6
CONTINUOUS
 10
6.011720
 20
2.499200
  0
VERTEX
  8
0
  6
CONTINUOUS
 10
5.969040
 20
2.493480
  0
VERTEX
  8
0
  6
CONTINUOUS
 10
5.948360
 20
2.487760
  0
VERTEX
  8
0
  6
CONTINUOUS
 10
5.928120
 20
2.480280
  0
VERTEX
  8
0
  6
CONTINUOUS
 10
5.908320
 20
2.471040
  0
VERTEX
  8
0
  6
CONTINUOUS
 10
5.872240
 20
2.446840
  0
VERTEX
  8
0
  6
CONTINUOUS
 10
5.855520
 20
2.431880
  0
VERTEX
  8
0
  6
CONTINUOUS
 10
5.840120
 20
2.415160
  0
VERTEX
  8
0
  6
CONTINUOUS
 10
5.826040
 20
2.396680
  0
VERTEX
  8
0
  6
CONTINUOUS
 10
5.808000
 20
2.365000
  0
VERTEX
  8
0
  6
CONTINUOUS
 10
5.793480
 20
2.328920
  0
VERTEX
  8
0
  6
CONTINUOUS
 10
5.716480
 20
2.328920
  0
VERTEX
  8
0
  6
CONTINUOUS
 10
5.701960
 20
2.277880
  0
VERTEX
  8
0
  6
CONTINUOUS
 10
5.690080
 20
2.251480
  0
VERTEX
  8
0
  6
CONTINUOUS
 10
5.675120
 20
2.230360
  0
VERTEX
  8
0
  6
CONTINUOUS
 10
5.655320
 20
2.214520
  0
VERTEX
  8
0
  6
CONTINUOUS
 10
5.643880
 20
2.208360
  0
VERTEX
  8
0
  6
CONTINUOUS
 10
5.615280
 20
2.199120
  0
VERTEX
  8
0
  6
CONTINUOUS
 10
5.598560
 20
2.196040
  0
VERTEX
  8
0
  6
CONTINUOUS
 10
5.546640
 20
2.192520
  0
VERTEX
  8
0
  6
CONTINUOUS
 10
5.534760
 20
2.192520
  0
VERTEX
  8
0
  6
CONTINUOUS
 10
5.534760
 20
1.783760
  0
VERTEX
  8
0
  6
CONTINUOUS
 10
7.177720
 20
1.783760
  0
VERTEX
  8
0
  6
CONTINUOUS
 10
7.177720
 20
1.789920
  0
SEQEND
  8
0
  0
SOLID
  8
0
 62
    15
 10
4.303200
 20
1.363560
 11
4.304960
 21
2.101440
 12
4.328280
 22
1.312080
 13
4.330040
 23
2.049960
  0
POLYLINE
  8
0
  6
CONTINUOUS
 66
     1
 40
0.000000
 41
0.000000
  0
VERTEX
  8
0
  6
CONTINUOUS
 10
4.303200
 20
1.363560
  0
VERTEX
  8
0
  6
CONTINUOUS
 10
4.304960
 20
2.101440
  0
VERTEX
  8
0
  6
CONTINUOUS
 10
4.330040
 20
2.049960
  0
VERTEX
  8
0
  6
CONTINUOUS
 10
4.328280
 20
1.312080
  0
VERTEX
  8
0
  6
CONTINUOUS
 10
4.303200
 20
1.363560
  0
SEQEND
  8
0
  0
SOLID
  8
0
 62
    15
 10
3.443880
 20
1.368840
 11
3.445640
 21
2.106720
 12
3.479520
 22
1.374120
 13
3.481280
 23
2.112000
  0
POLYLINE
  8
0
  6
CONTINUOUS
 66
     1
 40
0.000000
 41
0.000000
  0
VERTEX
  8
0
  6
CONTINUOUS
 10
3.443880
 20
1.368840
  0
VERTEX
  8
0
  6
CONTINUOUS
 10
3.445640
 20
2.106720
  0
VERTEX
  8
0
  6
CONTINUOUS
 10
3.481280
 20
2.112000
  0
VERTEX
  8
0
  6
CONTINUOUS
 10
3.479520
 20
1.374120
  0
VERTEX
  8
0
  6
CONTINUOUS
 10
3.443880
 20
1.368840
  0
SEQEND
  8
0
  0
SOLID
  8
0
 62
    15
 10
3.479520
 20
1.374120
 11
3.481280
 21
2.112000
 12
3.508120
 22
1.383360
 13
3.509880
 23
2.121240
  0
POLYLINE
  8
0
  6
CONTINUOUS
 66
     1
 40
0.000000
 41
0.000000
  0
VERTEX
  8
0
  6
CONTINUOUS
 10
3.479520
 20
1.374120
  0
VERTEX
  8
0
  6
CONTINUOUS
 10
3.481280
 20
2.112000
  0
VERTEX
  8
0
  6
CONTINUOUS
 10
3.509880
 20
2.121240
  0
VERTEX
  8
0
  6
CONTINUOUS
 10
3.508120
 20
1.383360
  0
VERTEX
  8
0
  6
CONTINUOUS
 10
3.479520
 20
1.374120
  0
SEQEND
  8
0
  0
SOLID
  8
0
 62
    15
 10
3.508120
 20
1.383360
 11
3.509880
 21
2.121240
 12
3.530120
 22
1.396560
 13
3.531880
 23
2.134440
  0
POLYLINE
  8
0
  6
CONTINUOUS
 66
     1
 40
0.000000
 41
0.000000
  0
VERTEX
  8
0
  6
CONTINUOUS
 10
3.508120
 20
1.383360
  0
VERTEX
  8
0
  6
CONTINUOUS
 10
3.509880
 20
2.121240
  0
VERTEX
  8
0
  6
CONTINUOUS
 10
3.531880
 20
2.134440
  0
VERTEX
  8
0
  6
CONTINUOUS
 10
3.530120
 20
1.396560
  0
VERTEX
  8
0
  6
CONTINUOUS
 10
3.508120
 20
1.383360
  0
SEQEND
  8
0
  0
SOLID
  8
0
 62
    15
 10
3.530120
 20
1.396560
 11
3.531880
 21
2.134440
 12
3.547280
 22
1.415040
 13
3.549040
 23
2.152920
  0
POLYLINE
  8
0
  6
CONTINUOUS
 66
     1
 40
0.000000
 41
0.000000
  0
VERTEX
  8
0
  6
CONTINUOUS
 10
3.530120
 20
1.396560
  0
VERTEX
  8
0
  6
CONTINUOUS
 10
3.531880
 20
2.134440
  0
VERTEX
  8
0
  6
CONTINUOUS
 10
3.549040
 20
2.152920
  0
VERTEX
  8
0
  6
CONTINUOUS
 10
3.547280
 20
1.415040
  0
VERTEX
  8
0
  6
CONTINUOUS
 10
3.530120
 20
1.396560
  0
SEQEND
  8
0
  0
SOLID
  8
0
 62
    15
 10
3.547280
 20
1.415040
 11
3.549040
 21
2.152920
 12
3.560480
 22
1.438800
 13
3.562240
 23
2.176680
  0
POLYLINE
  8
0
  6
CONTINUOUS
 66
     1
 40
0.000000
 41
0.000000
  0
VERTEX
  8
0
  6
CONTINUOUS
 10
3.547280
 20
1.415040
  0
VERTEX
  8
0
  6
CONTINUOUS
 10
3.549040
 20
2.152920
  0
VERTEX
  8
0
  6
CONTINUOUS
 10
3.562240
 20
2.176680
  0
VERTEX
  8
0
  6
CONTINUOUS
 10
3.560480
 20
1.438800
  0
VERTEX
  8
0
  6
CONTINUOUS
 10
3.547280
 20
1.415040
  0
SEQEND
  8
0
  0
SOLID
  8
0
 62
    15
 10
3.560480
 20
1.438800
 11
3.562240
 21
2.176680
 12
3.571040
 22
1.467840
 13
3.573240
 23
2.206160
  0
POLYLINE
  8
0
  6
CONTINUOUS
 66
     1
 40
0.000000
 41
0.000000
  0
VERTEX
  8
0
  6
CONTINUOUS
 10
3.560480
 20
1.438800
  0
VERTEX
  8
0
  6
CONTINUOUS
 10
3.562240
 20
2.176680
  0
VERTEX
  8
0
  6
CONTINUOUS
 10
3.573240
 20
2.206160
  0
VERTEX
  8
0
  6
CONTINUOUS
 10
3.571040
 20
1.467840
  0
VERTEX
  8
0
  6
CONTINUOUS
 10
3.560480
 20
1.438800
  0
SEQEND
  8
0
  0
SOLID
  8
0
 62
    15
 10
3.571040
 20
1.467840
 11
3.573240
 21
2.206160
 12
3.580720
 22
1.503480
 13
3.582480
 23
2.241360
  0
POLYLINE
  8
0
  6
CONTINUOUS
 66
     1
 40
0.000000
 41
0.000000
  0
VERTEX
  8
0
  6
CONTINUOUS
 10
3.571040
 20
1.467840
  0
VERTEX
  8
0
  6
CONTINUOUS
 10
3.573240
 20
2.206160
  0
VERTEX
  8
0
  6
CONTINUOUS
 10
3.582480
 20
2.241360
  0
VERTEX
  8
0
  6
CONTINUOUS
 10
3.580720
 20
1.503480
  0
VERTEX
  8
0
  6
CONTINUOUS
 10
3.571040
 20
1.467840
  0
SEQEND
  8
0
  0
SOLID
  8
0
 62
    15
 10
3.580720
 20
1.503480
 11
3.582480
 21
2.241360
 12
3.657720
 22
1.503480
 13
3.659480
 23
2.241360
  0
POLYLINE
  8
0
  6
CONTINUOUS
 66
     1
 40
0.000000
 41
0.000000
  0
VERTEX
  8
0
  6
CONTINUOUS
 10
3.580720
 20
1.503480
  0
VERTEX
  8
0
  6
CONTINUOUS
 10
3.582480
 20
2.241360
  0
VERTEX
  8
0
  6
CONTINUOUS
 10
3.659480
 20
2.241360
  0
VERTEX
  8
0
  6
CONTINUOUS
 10
3.657720
 20
1.503480
  0
VERTEX
  8
0
  6
CONTINUOUS
 10
3.580720
 20
1.503480
  0
SEQEND
  8
0
  0
SOLID
  8
0
 62
    15
 10
3.657720
 20
1.503480
 11
3.659480
 21
2.241360
 12
3.677960
 22
1.550560
 13
3.679720
 23
2.288440
  0
POLYLINE
  8
0
  6
CONTINUOUS
 66
     1
 40
0.000000
 41
0.000000
  0
VERTEX
  8
0
  6
CONTINUOUS
 10
3.657720
 20
1.503480
  0
VERTEX
  8
0
  6
CONTINUOUS
 10
3.659480
 20
2.241360
  0
VERTEX
  8
0
  6
CONTINUOUS
 10
3.679720
 20
2.288440
  0
VERTEX
  8
0
  6
CONTINUOUS
 10
3.677960
 20
1.550560
  0
VERTEX
  8
0
  6
CONTINUOUS
 10
3.657720
 20
1.503480
  0
SEQEND
  8
0
  0
SOLID
  8
0
 62
    15
 10
3.677960
 20
1.550560
 11
3.679720
 21
2.288440
 12
3.704360
 22
1.589720
 13
3.706120
 23
2.327600
  0
POLYLINE
  8
0
  6
CONTINUOUS
 66
     1
 40
0.000000
 41
0.000000
  0
VERTEX
  8
0
  6
CONTINUOUS
 10
3.677960
 20
1.550560
  0
VERTEX
  8
0
  6
CONTINUOUS
 10
3.679720
 20
2.288440
  0
VERTEX
  8
0
  6
CONTINUOUS
 10
3.706120
 20
2.327600
  0
VERTEX
  8
0
  6
CONTINUOUS
 10
3.704360
 20
1.589720
  0
VERTEX
  8
0
  6
CONTINUOUS
 10
3.677960
 20
1.550560
  0
SEQEND
  8
0
  0
SOLID
  8
0
 62
    15
 10
3.704360
 20
1.589720
 11
3.706120
 21
2.327600
 12
3.736480
 22
1.621400
 13
3.738240
 23
2.359280
  0
POLYLINE
  8
0
  6
CONTINUOUS
 66
     1
 40
0.000000
 41
0.000000
  0
VERTEX
  8
0
  6
CONTINUOUS
 10
3.704360
 20
1.589720
  0
VERTEX
  8
0
  6
CONTINUOUS
 10
3.706120
 20
2.327600
  0
VERTEX
  8
0
  6
CONTINUOUS
 10
3.738240
 20
2.359280
  0
VERTEX
  8
0
  6
CONTINUOUS
 10
3.736480
 20
1.621400
  0
VERTEX
  8
0
  6
CONTINUOUS
 10
3.704360
 20
1.589720
  0
SEQEND
  8
0
  0
SOLID
  8
0
 62
    15
 10
3.736480
 20
1.621400
 11
3.738240
 21
2.359280
 12
3.773000
 22
1.645600
 13
3.774760
 23
2.383480
  0
POLYLINE
  8
0
  6
CONTINUOUS
 66
     1
 40
0.000000
 41
0.000000
  0
VERTEX
  8
0
  6
CONTINUOUS
 10
3.736480
 20
1.621400
  0
VERTEX
  8
0
  6
CONTINUOUS
 10
3.738240
 20
2.359280
  0
VERTEX
  8
0
  6
CONTINUOUS
 10
3.774760
 20
2.383480
  0
VERTEX
  8
0
  6
CONTINUOUS
 10
3.773000
 20
1.645600
  0
VERTEX
  8
0
  6
CONTINUOUS
 10
3.736480
 20
1.621400
  0
SEQEND
  8
0
  0
SOLID
  8
0
 62
    15
 10
3.773000
 20
1.645600
 11
3.774760
 21
2.383480
 12
3.812600
 22
1.662320
 13
3.814360
 23
2.400200
  0
POLYLINE
  8
0
  6
CONTINUOUS
 66
     1
 40
0.000000
 41
0.000000
  0
VERTEX
  8
0
  6
CONTINUOUS
 10
3.773000
 20
1.645600
  0
VERTEX
  8
0
  6
CONTINUOUS
 10
3.774760
 20
2.383480
  0
VERTEX
  8
0
  6
CONTINUOUS
 10
3.814360
 20
2.400200
  0
VERTEX
  8
0
  6
CONTINUOUS
 10
3.812600
 20
1.662320
  0
VERTEX
  8
0
  6
CONTINUOUS
 10
3.773000
 20
1.645600
  0
SEQEND
  8
0
  0
SOLID
  8
0
 62
    15
 10
3.812600
 20
1.662320
 11
3.814360
 21
2.400200
 12
3.854400
 22
1.672000
 13
3.856160
 23
2.409880
  0
POLYLINE
  8
0
  6
CONTINUOUS
 66
     1
 40
0.000000
 41
0.000000
  0
VERTEX
  8
0
  6
CONTINUOUS
 10
3.812600
 20
1.662320
  0
VERTEX
  8
0
  6
CONTINUOUS
 10
3.814360
 20
2.400200
  0
VERTEX
  8
0
  6
CONTINUOUS
 10
3.856160
 20
2.409880
  0
VERTEX
  8
0
  6
CONTINUOUS
 10
3.854400
 20
1.672000
  0
VERTEX
  8
0
  6
CONTINUOUS
 10
3.812600
 20
1.662320
  0
SEQEND
  8
0
  0
SOLID
  8
0
 62
    15
 10
3.854400
 20
1.672000
 11
3.856160
 21
2.409880
 12
3.897960
 22
1.674640
 13
3.899720
 23
2.412520
  0
POLYLINE
  8
0
  6
CONTINUOUS
 66
     1
 40
0.000000
 41
0.000000
  0
VERTEX
  8
0
  6
CONTINUOUS
 10
3.854400
 20
1.672000
  0
VERTEX
  8
0
  6
CONTINUOUS
 10
3.856160
 20
2.409880
  0
VERTEX
  8
0
  6
CONTINUOUS
 10
3.899720
 20
2.412520
  0
VERTEX
  8
0
  6
CONTINUOUS
 10
3.897960
 20
1.674640
  0
VERTEX
  8
0
  6
CONTINUOUS
 10
3.854400
 20
1.672000
  0
SEQEND
  8
0
  0
SOLID
  8
0
 62
    15
 10
3.897960
 20
1.674640
 11
3.899720
 21
2.412520
 12
3.941520
 22
1.670240
 13
3.943280
 23
2.408120
  0
POLYLINE
  8
0
  6
CONTINUOUS
 66
     1
 40
0.000000
 41
0.000000
  0
VERTEX
  8
0
  6
CONTINUOUS
 10
3.897960
 20
1.674640
  0
VERTEX
  8
0
  6
CONTINUOUS
 10
3.899720
 20
2.412520
  0
VERTEX
  8
0
  6
CONTINUOUS
 10
3.943280
 20
2.408120
  0
VERTEX
  8
0
  6
CONTINUOUS
 10
3.941520
 20
1.670240
  0
VERTEX
  8
0
  6
CONTINUOUS
 10
3.897960
 20
1.674640
  0
SEQEND
  8
0
  0
SOLID
  8
0
 62
    15
 10
3.941520
 20
1.670240
 11
3.943280
 21
2.408120
 12
3.984200
 22
1.659240
 13
3.985960
 23
2.397120
  0
POLYLINE
  8
0
  6
CONTINUOUS
 66
     1
 40
0.000000
 41
0.000000
  0
VERTEX
  8
0
  6
CONTINUOUS
 10
3.941520
 20
1.670240
  0
VERTEX
  8
0
  6
CONTINUOUS
 10
3.943280
 20
2.408120
  0
VERTEX
  8
0
  6
CONTINUOUS
 10
3.985960
 20
2.397120
  0
VERTEX
  8
0
  6
CONTINUOUS
 10
3.984200
 20
1.659240
  0
VERTEX
  8
0
  6
CONTINUOUS
 10
3.941520
 20
1.670240
  0
SEQEND
  8
0
  0
SOLID
  8
0
 62
    15
 10
3.984200
 20
1.659240
 11
3.985960
 21
2.397120
 12
4.025120
 22
1.642080
 13
4.026880
 23
2.379960
  0
POLYLINE
  8
0
  6
CONTINUOUS
 66
     1
 40
0.000000
 41
0.000000
  0
VERTEX
  8
0
  6
CONTINUOUS
 10
3.984200
 20
1.659240
  0
VERTEX
  8
0
  6
CONTINUOUS
 10
3.985960
 20
2.397120
  0
VERTEX
  8
0
  6
CONTINUOUS
 10
4.026880
 20
2.379960
  0
VERTEX
  8
0
  6
CONTINUOUS
 10
4.025120
 20
1.642080
  0
VERTEX
  8
0
  6
CONTINUOUS
 10
3.984200
 20
1.659240
  0
SEQEND
  8
0
  0
SOLID
  8
0
 62
    15
 10
4.025120
 20
1.642080
 11
4.026880
 21
2.379960
 12
4.062960
 22
1.618760
 13
4.064720
 23
2.356640
  0
POLYLINE
  8
0
  6
CONTINUOUS
 66
     1
 40
0.000000
 41
0.000000
  0
VERTEX
  8
0
  6
CONTINUOUS
 10
4.025120
 20
1.642080
  0
VERTEX
  8
0
  6
CONTINUOUS
 10
4.026880
 20
2.379960
  0
VERTEX
  8
0
  6
CONTINUOUS
 10
4.064720
 20
2.356640
  0
VERTEX
  8
0
  6
CONTINUOUS
 10
4.062960
 20
1.618760
  0
VERTEX
  8
0
  6
CONTINUOUS
 10
4.025120
 20
1.642080
  0
SEQEND
  8
0
  0
SOLID
  8
0
 62
    15
 10
4.062960
 20
1.618760
 11
4.064720
 21
2.356640
 12
4.097280
 22
1.588840
 13
4.099040
 23
2.326720
  0
POLYLINE
  8
0
  6
CONTINUOUS
 66
     1
 40
0.000000
 41
0.000000
  0
VERTEX
  8
0
  6
CONTINUOUS
 10
4.062960
 20
1.618760
  0
VERTEX
  8
0
  6
CONTINUOUS
 10
4.064720
 20
2.356640
  0
VERTEX
  8
0
  6
CONTINUOUS
 10
4.099040
 20
2.326720
  0
VERTEX
  8
0
  6
CONTINUOUS
 10
4.097280
 20
1.588840
  0
VERTEX
  8
0
  6
CONTINUOUS
 10
4.062960
 20
1.618760
  0
SEQEND
  8
0
  0
SOLID
  8
0
 62
    15
 10
4.097280
 20
1.588840
 11
4.099040
 21
2.326720
 12
4.126320
 22
1.553200
 13
4.128080
 23
2.291080
  0
POLYLINE
  8
0
  6
CONTINUOUS
 66
     1
 40
0.000000
 41
0.000000
  0
VERTEX
  8
0
  6
CONTINUOUS
 10
4.097280
 20
1.588840
  0
VERTEX
  8
0
  6
CONTINUOUS
 10
4.099040
 20
2.326720
  0
VERTEX
  8
0
  6
CONTINUOUS
 10
4.128080
 20
2.291080
  0
VERTEX
  8
0
  6
CONTINUOUS
 10
4.126320
 20
1.553200
  0
VERTEX
  8
0
  6
CONTINUOUS
 10
4.097280
 20
1.588840
  0
SEQEND
  8
0
  0
SOLID
  8
0
 62
    15
 10
4.126320
 20
1.553200
 11
4.128080
 21
2.291080
 12
4.149640
 22
1.511840
 13
4.151400
 23
2.249720
  0
POLYLINE
  8
0
  6
CONTINUOUS
 66
     1
 40
0.000000
 41
0.000000
  0
VERTEX
  8
0
  6
CONTINUOUS
 10
4.126320
 20
1.553200
  0
VERTEX
  8
0
  6
CONTINUOUS
 10
4.128080
 20
2.291080
  0
VERTEX
  8
0
  6
CONTINUOUS
 10
4.151400
 20
2.249720
  0
VERTEX
  8
0
  6
CONTINUOUS
 10
4.149640
 20
1.511840
  0
VERTEX
  8
0
  6
CONTINUOUS
 10
4.126320
 20
1.553200
  0
SEQEND
  8
0
  0
SOLID
  8
0
 62
    15
 10
4.149640
 20
1.511840
 11
4.151400
 21
2.249720
 12
4.165920
 22
1.465200
 13
4.167680
 23
2.203080
  0
POLYLINE
  8
0
  6
CONTINUOUS
 66
     1
 40
0.000000
 41
0.000000
  0
VERTEX
  8
0
  6
CONTINUOUS
 10
4.149640
 20
1.511840
  0
VERTEX
  8
0
  6
CONTINUOUS
 10
4.151400
 20
2.249720
  0
VERTEX
  8
0
  6
CONTINUOUS
 10
4.167680
 20
2.203080
  0
VERTEX
  8
0
  6
CONTINUOUS
 10
4.165920
 20
1.465200
  0
VERTEX
  8
0
  6
CONTINUOUS
 10
4.149640
 20
1.511840
  0
SEQEND
  8
0
  0
SOLID
  8
0
 62
    15
 10
4.165920
 20
1.465200
 11
4.167680
 21
2.203080
 12
4.174280
 22
1.412840
 13
4.176040
 23
2.150720
  0
POLYLINE
  8
0
  6
CONTINUOUS
 66
     1
 40
0.000000
 41
0.000000
  0
VERTEX
  8
0
  6
CONTINUOUS
 10
4.165920
 20
1.465200
  0
VERTEX
  8
0
  6
CONTINUOUS
 10
4.167680
 20
2.203080
  0
VERTEX
  8
0
  6
CONTINUOUS
 10
4.176040
 20
2.150720
  0
VERTEX
  8
0
  6
CONTINUOUS
 10
4.174280
 20
1.412840
  0
VERTEX
  8
0
  6
CONTINUOUS
 10
4.165920
 20
1.465200
  0
SEQEND
  8
0
  0
SOLID
  8
0
 62
    15
 10
4.174280
 20
1.412840
 11
4.176040
 21
2.150720
 12
4.286480
 22
1.412840
 13
4.288240
 23
2.150720
  0
POLYLINE
  8
0
  6
CONTINUOUS
 66
     1
 40
0.000000
 41
0.000000
  0
VERTEX
  8
0
  6
CONTINUOUS
 10
4.174280
 20
1.412840
  0
VERTEX
  8
0
  6
CONTINUOUS
 10
4.176040
 20
2.150720
  0
VERTEX
  8
0
  6
CONTINUOUS
 10
4.288240
 20
2.150720
  0
VERTEX
  8
0
  6
CONTINUOUS
 10
4.286480
 20
1.412840
  0
VERTEX
  8
0
  6
CONTINUOUS
 10
4.174280
 20
1.412840
  0
SEQEND
  8
0
  0
SOLID
  8
0
 62
    15
 10
4.286480
 20
1.412840
 11
4.288240
 21
2.150720
 12
4.303200
 22
1.363560
 13
4.304960
 23
2.101440
  0
POLYLINE
  8
0
  6
CONTINUOUS
 66
     1
 40
0.000000
 41
0.000000
  0
VERTEX
  8
0
  6
CONTINUOUS
 10
4.286480
 20
1.412840
  0
VERTEX
  8
0
  6
CONTINUOUS
 10
4.288240
 20
2.150720
  0
VERTEX
  8
0
  6
CONTINUOUS
 10
4.304960
 20
2.101440
  0
VERTEX
  8
0
  6
CONTINUOUS
 10
4.303200
 20
1.363560
  0
VERTEX
  8
0
  6
CONTINUOUS
 10
4.286480
 20
1.412840
  0
SEQEND
  8
0
  0
SOLID
  8
0
 62
    15
 10
3.399000
 20
1.367080
 11
3.400760
 21
2.104960
 12
3.443880
 22
1.368840
 13
3.445640
 23
2.106720
  0
POLYLINE
  8
0
  6
CONTINUOUS
 66
     1
 40
0.000000
 41
0.000000
  0
VERTEX
  8
0
  6
CONTINUOUS
 10
3.399000
 20
1.367080
  0
VERTEX
  8
0
  6
CONTINUOUS
 10
3.400760
 20
2.104960
  0
VERTEX
  8
0
  6
CONTINUOUS
 10
3.445640
 20
2.106720
  0
VERTEX
  8
0
  6
CONTINUOUS
 10
3.443880
 20
1.368840
  0
VERTEX
  8
0
  6
CONTINUOUS
 10
3.399000
 20
1.367080
  0
SEQEND
  8
0
  0
SOLID
  8
0
 62
    15
 10
4.328280
 20
1.312080
 11
4.330040
 21
2.049960
 12
4.362160
 22
1.261480
 13
4.363920
 23
1.999800
  0
POLYLINE
  8
0
  6
CONTINUOUS
 66
     1
 40
0.000000
 41
0.000000
  0
VERTEX
  8
0
  6
CONTINUOUS
 10
4.328280
 20
1.312080
  0
VERTEX
  8
0
  6
CONTINUOUS
 10
4.330040
 20
2.049960
  0
VERTEX
  8
0
  6
CONTINUOUS
 10
4.363920
 20
1.999800
  0
VERTEX
  8
0
  6
CONTINUOUS
 10
4.362160
 20
1.261480
  0
VERTEX
  8
0
  6
CONTINUOUS
 10
4.328280
 20
1.312080
  0
SEQEND
  8
0
  0
SOLID
  8
0
 62
    15
 10
4.362160
 20
1.261480
 11
4.363920
 21
1.999800
 12
4.404400
 22
1.215720
 13
4.406160
 23
1.953600
  0
POLYLINE
  8
0
  6
CONTINUOUS
 66
     1
 40
0.000000
 41
0.000000
  0
VERTEX
  8
0
  6
CONTINUOUS
 10
4.362160
 20
1.261480
  0
VERTEX
  8
0
  6
CONTINUOUS
 10
4.363920
 20
1.999800
  0
VERTEX
  8
0
  6
CONTINUOUS
 10
4.406160
 20
1.953600
  0
VERTEX
  8
0
  6
CONTINUOUS
 10
4.404400
 20
1.215720
  0
VERTEX
  8
0
  6
CONTINUOUS
 10
4.362160
 20
1.261480
  0
SEQEND
  8
0
  0
SOLID
  8
0
 62
    15
 10
4.404400
 20
1.215720
 11
4.406160
 21
1.953600
 12
4.455880
 22
1.177000
 13
4.458080
 23
1.915320
  0
POLYLINE
  8
0
  6
CONTINUOUS
 66
     1
 40
0.000000
 41
0.000000
  0
VERTEX
  8
0
  6
CONTINUOUS
 10
4.404400
 20
1.215720
  0
VERTEX
  8
0
  6
CONTINUOUS
 10
4.406160
 20
1.953600
  0
VERTEX
  8
0
  6
CONTINUOUS
 10
4.458080
 20
1.915320
  0
VERTEX
  8
0
  6
CONTINUOUS
 10
4.455880
 20
1.177000
  0
VERTEX
  8
0
  6
CONTINUOUS
 10
4.404400
 20
1.215720
  0
SEQEND
  8
0
  0
SOLID
  8
0
 62
     7
 10
4.455880
 20
1.177000
 11
4.458080
 21
1.915320
 12
4.485360
 22
1.161600
 13
4.487120
 23
1.899480
  0
POLYLINE
  8
0
  6
CONTINUOUS
 66
     1
 40
0.000000
 41
0.000000
  0
VERTEX
  8
0
  6
CONTINUOUS
 10
4.455880
 20
1.177000
  0
VERTEX
  8
0
  6
CONTINUOUS
 10
4.458080
 20
1.915320
  0
VERTEX
  8
0
  6
CONTINUOUS
 10
4.487120
 20
1.899480
  0
VERTEX
  8
0
  6
CONTINUOUS
 10
4.485360
 20
1.161600
  0
VERTEX
  8
0
  6
CONTINUOUS
 10
4.455880
 20
1.177000
  0
SEQEND
  8
0
  0
SOLID
  8
0
 62
     7
 10
4.485360
 20
1.161600
 11
4.487120
 21
1.899480
 12
4.516600
 22
1.149280
 13
4.518360
 23
1.887160
  0
POLYLINE
  8
0
  6
CONTINUOUS
 66
     1
 40
0.000000
 41
0.000000
  0
VERTEX
  8
0
  6
CONTINUOUS
 10
4.485360
 20
1.161600
  0
VERTEX
  8
0
  6
CONTINUOUS
 10
4.487120
 20
1.899480
  0
VERTEX
  8
0
  6
CONTINUOUS
 10
4.518360
 20
1.887160
  0
VERTEX
  8
0
  6
CONTINUOUS
 10
4.516600
 20
1.149280
  0
VERTEX
  8
0
  6
CONTINUOUS
 10
4.485360
 20
1.161600
  0
SEQEND
  8
0
  0
SOLID
  8
0
 62
     7
 10
4.516600
 20
1.149280
 11
4.518360
 21
1.887160
 12
4.550480
 22
1.140480
 13
4.552240
 23
1.878360
  0
POLYLINE
  8
0
  6
CONTINUOUS
 66
     1
 40
0.000000
 41
0.000000
  0
VERTEX
  8
0
  6
CONTINUOUS
 10
4.516600
 20
1.149280
  0
VERTEX
  8
0
  6
CONTINUOUS
 10
4.518360
 20
1.887160
  0
VERTEX
  8
0
  6
CONTINUOUS
 10
4.552240
 20
1.878360
  0
VERTEX
  8
0
  6
CONTINUOUS
 10
4.550480
 20
1.140480
  0
VERTEX
  8
0
  6
CONTINUOUS
 10
4.516600
 20
1.149280
  0
SEQEND
  8
0
  0
SOLID
  8
0
 62
     7
 10
4.550480
 20
1.140480
 11
4.552240
 21
1.878360
 12
4.586560
 22
1.135200
 13
4.588760
 23
1.873080
  0
POLYLINE
  8
0
  6
CONTINUOUS
 66
     1
 40
0.000000
 41
0.000000
  0
VERTEX
  8
0
  6
CONTINUOUS
 10
4.550480
 20
1.140480
  0
VERTEX
  8
0
  6
CONTINUOUS
 10
4.552240
 20
1.878360
  0
VERTEX
  8
0
  6
CONTINUOUS
 10
4.588760
 20
1.873080
  0
VERTEX
  8
0
  6
CONTINUOUS
 10
4.586560
 20
1.135200
  0
VERTEX
  8
0
  6
CONTINUOUS
 10
4.550480
 20
1.140480
  0
SEQEND
  8
0
  0
SOLID
  8
0
 62
     7
 10
4.586560
 20
1.135200
 11
4.588760
 21
1.873080
 12
4.625280
 22
1.134320
 13
4.627040
 23
1.872200
  0
POLYLINE
  8
0
  6
CONTINUOUS
 66
     1
 40
0.000000
 41
0.000000
  0
VERTEX
  8
0
  6
CONTINUOUS
 10
4.586560
 20
1.135200
  0
VERTEX
  8
0
  6
CONTINUOUS
 10
4.588760
 20
1.873080
  0
VERTEX
  8
0
  6
CONTINUOUS
 10
4.627040
 20
1.872200
  0
VERTEX
  8
0
  6
CONTINUOUS
 10
4.625280
 20
1.134320
  0
VERTEX
  8
0
  6
CONTINUOUS
 10
4.586560
 20
1.135200
  0
SEQEND
  8
0
  0
SOLID
  8
0
 62
    15
 10
4.625280
 20
1.134320
 11
4.627040
 21
1.872200
 12
4.666200
 22
1.137840
 13
4.667960
 23
1.876160
  0
POLYLINE
  8
0
  6
CONTINUOUS
 66
     1
 40
0.000000
 41
0.000000
  0
VERTEX
  8
0
  6
CONTINUOUS
 10
4.625280
 20
1.134320
  0
VERTEX
  8
0
  6
CONTINUOUS
 10
4.627040
 20
1.872200
  0
VERTEX
  8
0
  6
CONTINUOUS
 10
4.667960
 20
1.876160
  0
VERTEX
  8
0
  6
CONTINUOUS
 10
4.666200
 20
1.137840
  0
VERTEX
  8
0
  6
CONTINUOUS
 10
4.625280
 20
1.134320
  0
SEQEND
  8
0
  0
SOLID
  8
0
 62
    15
 10
4.666200
 20
1.137840
 11
4.667960
 21
1.876160
 12
4.678960
 22
1.172160
 13
4.680720
 23
1.910040
  0
POLYLINE
  8
0
  6
CONTINUOUS
 66
     1
 40
0.000000
 41
0.000000
  0
VERTEX
  8
0
  6
CONTINUOUS
 10
4.666200
 20
1.137840
  0
VERTEX
  8
0
  6
CONTINUOUS
 10
4.667960
 20
1.876160
  0
VERTEX
  8
0
  6
CONTINUOUS
 10
4.680720
 20
1.910040
  0
VERTEX
  8
0
  6
CONTINUOUS
 10
4.678960
 20
1.172160
  0
VERTEX
  8
0
  6
CONTINUOUS
 10
4.666200
 20
1.137840
  0
SEQEND
  8
0
  0
SOLID
  8
0
 62
    15
 10
4.678960
 20
1.172160
 11
4.680720
 21
1.910040
 12
4.697000
 22
1.201640
 13
4.698760
 23
1.939520
  0
POLYLINE
  8
0
  6
CONTINUOUS
 66
     1
 40
0.000000
 41
0.000000
  0
VERTEX
  8
0
  6
CONTINUOUS
 10
4.678960
 20
1.172160
  0
VERTEX
  8
0
  6
CONTINUOUS
 10
4.680720
 20
1.910040
  0
VERTEX
  8
0
  6
CONTINUOUS
 10
4.698760
 20
1.939520
  0
VERTEX
  8
0
  6
CONTINUOUS
 10
4.697000
 20
1.201640
  0
VERTEX
  8
0
  6
CONTINUOUS
 10
4.678960
 20
1.172160
  0
SEQEND
  8
0
  0
SOLID
  8
0
 62
    15
 10
4.697000
 20
1.201640
 11
4.698760
 21
1.939520
 12
4.719440
 22
1.226280
 13
4.721200
 23
1.964160
  0
POLYLINE
  8
0
  6
CONTINUOUS
 66
     1
 40
0.000000
 41
0.000000
  0
VERTEX
  8
0
  6
CONTINUOUS
 10
4.697000
 20
1.201640
  0
VERTEX
  8
0
  6
CONTINUOUS
 10
4.698760
 20
1.939520
  0
VERTEX
  8
0
  6
CONTINUOUS
 10
4.721200
 20
1.964160
  0
VERTEX
  8
0
  6
CONTINUOUS
 10
4.719440
 20
1.226280
  0
VERTEX
  8
0
  6
CONTINUOUS
 10
4.697000
 20
1.201640
  0
SEQEND
  8
0
  0
SOLID
  8
0
 62
    15
 10
4.719440
 20
1.226280
 11
4.721200
 21
1.964160
 12
4.745400
 22
1.245640
 13
4.747160
 23
1.983520
  0
POLYLINE
  8
0
  6
CONTINUOUS
 66
     1
 40
0.000000
 41
0.000000
  0
VERTEX
  8
0
  6
CONTINUOUS
 10
4.719440
 20
1.226280
  0
VERTEX
  8
0
  6
CONTINUOUS
 10
4.721200
 20
1.964160
  0
VERTEX
  8
0
  6
CONTINUOUS
 10
4.747160
 20
1.983520
  0
VERTEX
  8
0
  6
CONTINUOUS
 10
4.745400
 20
1.245640
  0
VERTEX
  8
0
  6
CONTINUOUS
 10
4.719440
 20
1.226280
  0
SEQEND
  8
0
  0
SOLID
  8
0
 62
    15
 10
4.745400
 20
1.245640
 11
4.747160
 21
1.983520
 12
4.774440
 22
1.259280
 13
4.776200
 23
1.997600
  0
POLYLINE
  8
0
  6
CONTINUOUS
 66
     1
 40
0.000000
 41
0.000000
  0
VERTEX
  8
0
  6
CONTINUOUS
 10
4.745400
 20
1.245640
  0
VERTEX
  8
0
  6
CONTINUOUS
 10
4.747160
 20
1.983520
  0
VERTEX
  8
0
  6
CONTINUOUS
 10
4.776200
 20
1.997600
  0
VERTEX
  8
0
  6
CONTINUOUS
 10
4.774440
 20
1.259280
  0
VERTEX
  8
0
  6
CONTINUOUS
 10
4.745400
 20
1.245640
  0
SEQEND
  8
0
  0
SOLID
  8
0
 62
    15
 10
4.774440
 20
1.259280
 11
4.776200
 21
1.997600
 12
4.805240
 22
1.267640
 13
4.807000
 23
2.005520
  0
POLYLINE
  8
0
  6
CONTINUOUS
 66
     1
 40
0.000000
 41
0.000000
  0
VERTEX
  8
0
  6
CONTINUOUS
 10
4.774440
 20
1.259280
  0
VERTEX
  8
0
  6
CONTINUOUS
 10
4.776200
 20
1.997600
  0
VERTEX
  8
0
  6
CONTINUOUS
 10
4.807000
 20
2.005520
  0
VERTEX
  8
0
  6
CONTINUOUS
 10
4.805240
 20
1.267640
  0
VERTEX
  8
0
  6
CONTINUOUS
 10
4.774440
 20
1.259280
  0
SEQEND
  8
0
  0
SOLID
  8
0
 62
    15
 10
4.805240
 20
1.267640
 11
4.807000
 21
2.005520
 12
4.837360
 22
1.269400
 13
4.839120
 23
2.007280
  0
POLYLINE
  8
0
  6
CONTINUOUS
 66
     1
 40
0.000000
 41
0.000000
  0
VERTEX
  8
0
  6
CONTINUOUS
 10
4.805240
 20
1.267640
  0
VERTEX
  8
0
  6
CONTINUOUS
 10
4.807000
 20
2.005520
  0
VERTEX
  8
0
  6
CONTINUOUS
 10
4.839120
 20
2.007280
  0
VERTEX
  8
0
  6
CONTINUOUS
 10
4.837360
 20
1.269400
  0
VERTEX
  8
0
  6
CONTINUOUS
 10
4.805240
 20
1.267640
  0
SEQEND
  8
0
  0
SOLID
  8
0
 62
     7
 10
4.837360
 20
1.269400
 11
4.839120
 21
2.007280
 12
4.869920
 22
1.265000
 13
4.871680
 23
2.002880
  0
POLYLINE
  8
0
  6
CONTINUOUS
 66
     1
 40
0.000000
 41
0.000000
  0
VERTEX
  8
0
  6
CONTINUOUS
 10
4.837360
 20
1.269400
  0
VERTEX
  8
0
  6
CONTINUOUS
 10
4.839120
 20
2.007280
  0
VERTEX
  8
0
  6
CONTINUOUS
 10
4.871680
 20
2.002880
  0
VERTEX
  8
0
  6
CONTINUOUS
 10
4.869920
 20
1.265000
  0
VERTEX
  8
0
  6
CONTINUOUS
 10
4.837360
 20
1.269400
  0
SEQEND
  8
0
  0
SOLID
  8
0
 62
    15
 10
4.869920
 20
1.265000
 11
4.871680
 21
2.002880
 12
4.901600
 22
1.254000
 13
4.903800
 23
1.991880
  0
POLYLINE
  8
0
  6
CONTINUOUS
 66
     1
 40
0.000000
 41
0.000000
  0
VERTEX
  8
0
  6
CONTINUOUS
 10
4.869920
 20
1.265000
  0
VERTEX
  8
0
  6
CONTINUOUS
 10
4.871680
 20
2.002880
  0
VERTEX
  8
0
  6
CONTINUOUS
 10
4.903800
 20
1.991880
  0
VERTEX
  8
0
  6
CONTINUOUS
 10
4.901600
 20
1.254000
  0
VERTEX
  8
0
  6
CONTINUOUS
 10
4.869920
 20
1.265000
  0
SEQEND
  8
0
  0
SOLID
  8
0
 62
    15
 10
4.901600
 20
1.254000
 11
4.903800
 21
1.991880
 12
4.932400
 22
1.235960
 13
4.934160
 23
1.973840
  0
POLYLINE
  8
0
  6
CONTINUOUS
 66
     1
 40
0.000000
 41
0.000000
  0
VERTEX
  8
0
  6
CONTINUOUS
 10
4.901600
 20
1.254000
  0
VERTEX
  8
0
  6
CONTINUOUS
 10
4.903800
 20
1.991880
  0
VERTEX
  8
0
  6
CONTINUOUS
 10
4.934160
 20
1.973840
  0
VERTEX
  8
0
  6
CONTINUOUS
 10
4.932400
 20
1.235960
  0
VERTEX
  8
0
  6
CONTINUOUS
 10
4.901600
 20
1.254000
  0
SEQEND
  8
0
  0
SOLID
  8
0
 62
    15
 10
4.932400
 20
1.235960
 11
4.934160
 21
1.973840
 12
4.961000
 22
1.210440
 13
4.962760
 23
1.948320
  0
POLYLINE
  8
0
  6
CONTINUOUS
 66
     1
 40
0.000000
 41
0.000000
  0
VERTEX
  8
0
  6
CONTINUOUS
 10
4.932400
 20
1.235960
  0
VERTEX
  8
0
  6
CONTINUOUS
 10
4.934160
 20
1.973840
  0
VERTEX
  8
0
  6
CONTINUOUS
 10
4.962760
 20
1.948320
  0
VERTEX
  8
0
  6
CONTINUOUS
 10
4.961000
 20
1.210440
  0
VERTEX
  8
0
  6
CONTINUOUS
 10
4.932400
 20
1.235960
  0
SEQEND
  8
0
  0
SOLID
  8
0
 62
    15
 10
4.961000
 20
1.210440
 11
4.962760
 21
1.948320
 12
4.986520
 22
1.177440
 13
4.988280
 23
1.915320
  0
POLYLINE
  8
0
  6
CONTINUOUS
 66
     1
 40
0.000000
 41
0.000000
  0
VERTEX
  8
0
  6
CONTINUOUS
 10
4.961000
 20
1.210440
  0
VERTEX
  8
0
  6
CONTINUOUS
 10
4.962760
 20
1.948320
  0
VERTEX
  8
0
  6
CONTINUOUS
 10
4.988280
 20
1.915320
  0
VERTEX
  8
0
  6
CONTINUOUS
 10
4.986520
 20
1.177440
  0
VERTEX
  8
0
  6
CONTINUOUS
 10
4.961000
 20
1.210440
  0
SEQEND
  8
0
  0
SOLID
  8
0
 62
    15
 10
4.986520
 20
1.177440
 11
4.988280
 21
1.915320
 12
5.008080
 22
1.136960
 13
5.009840
 23
1.874840
  0
POLYLINE
  8
0
  6
CONTINUOUS
 66
     1
 40
0.000000
 41
0.000000
  0
VERTEX
  8
0
  6
CONTINUOUS
 10
4.986520
 20
1.177440
  0
VERTEX
  8
0
  6
CONTINUOUS
 10
4.988280
 20
1.915320
  0
VERTEX
  8
0
  6
CONTINUOUS
 10
5.009840
 20
1.874840
  0
VERTEX
  8
0
  6
CONTINUOUS
 10
5.008080
 20
1.136960
  0
VERTEX
  8
0
  6
CONTINUOUS
 10
4.986520
 20
1.177440
  0
SEQEND
  8
0
  0
SOLID
  8
0
 62
    15
 10
5.008080
 20
1.136960
 11
5.009840
 21
1.874840
 12
5.025240
 22
1.087680
 13
5.027000
 23
1.826000
  0
POLYLINE
  8
0
  6
CONTINUOUS
 66
     1
 40
0.000000
 41
0.000000
  0
VERTEX
  8
0
  6
CONTINUOUS
 10
5.008080
 20
1.136960
  0
VERTEX
  8
0
  6
CONTINUOUS
 10
5.009840
 20
1.874840
  0
VERTEX
  8
0
  6
CONTINUOUS
 10
5.027000
 20
1.826000
  0
VERTEX
  8
0
  6
CONTINUOUS
 10
5.025240
 20
1.087680
  0
VERTEX
  8
0
  6
CONTINUOUS
 10
5.008080
 20
1.136960
  0
SEQEND
  8
0
  0
SOLID
  8
0
 62
    15
 10
5.025240
 20
1.087680
 11
5.027000
 21
1.826000
 12
5.036680
 22
1.030480
 13
5.038440
 23
1.768360
  0
POLYLINE
  8
0
  6
CONTINUOUS
 66
     1
 40
0.000000
 41
0.000000
  0
VERTEX
  8
0
  6
CONTINUOUS
 10
5.025240
 20
1.087680
  0
VERTEX
  8
0
  6
CONTINUOUS
 10
5.027000
 20
1.826000
  0
VERTEX
  8
0
  6
CONTINUOUS
 10
5.038440
 20
1.768360
  0
VERTEX
  8
0
  6
CONTINUOUS
 10
5.036680
 20
1.030480
  0
VERTEX
  8
0
  6
CONTINUOUS
 10
5.025240
 20
1.087680
  0
SEQEND
  8
0
  0
SOLID
  8
0
 62
    15
 10
5.041960
 20
0.964480
 11
5.044160
 21
1.702360
 12
5.041960
 22
0.958320
 13
5.044160
 23
1.696200
  0
POLYLINE
  8
0
  6
CONTINUOUS
 66
     1
 40
0.000000
 41
0.000000
  0
VERTEX
  8
0
  6
CONTINUOUS
 10
5.041960
 20
0.964480
  0
VERTEX
  8
0
  6
CONTINUOUS
 10
5.044160
 20
1.702360
  0
VERTEX
  8
0
  6
CONTINUOUS
 10
5.044160
 20
1.696200
  0
VERTEX
  8
0
  6
CONTINUOUS
 10
5.041960
 20
0.958320
  0
VERTEX
  8
0
  6
CONTINUOUS
 10
5.041960
 20
0.964480
  0
SEQEND
  8
0
  0
SOLID
  8
0
 62
    15
 10
5.036680
 20
1.030480
 11
5.038440
 21
1.768360
 12
5.041960
 22
0.964480
 13
5.044160
 23
1.702360
  0
POLYLINE
  8
0
  6
CONTINUOUS
 66
     1
 40
0.000000
 41
0.000000
  0
VERTEX
  8
0
  6
CONTINUOUS
 10
5.036680
 20
1.030480
  0
VERTEX
  8
0
  6
CONTINUOUS
 10
5.038440
 20
1.768360
  0
VERTEX
  8
0
  6
CONTINUOUS
 10
5.044160
 20
1.702360
  0
VERTEX
  8
0
  6
CONTINUOUS
 10
5.041960
 20
0.964480
  0
VERTEX
  8
0
  6
CONTINUOUS
 10
5.036680
 20
1.030480
  0
SEQEND
  8
0
  0
POLYLINE
  8
0
  6
CONTINUOUS
 66
     1
 40
0.000000
 41
0.000000
  0
VERTEX
  8
0
  6
CONTINUOUS
 10
5.041960
 20
0.958320
  0
VERTEX
  8
0
  6
CONTINUOUS
 10
3.399000
 20
0.958320
  0
VERTEX
  8
0
  6
CONTINUOUS
 10
3.399000
 20
1.367080
  0
VERTEX
  8
0
  6
CONTINUOUS
 10
3.443880
 20
1.368840
  0
VERTEX
  8
0
  6
CONTINUOUS
 10
3.479520
 20
1.374120
  0
VERTEX
  8
0
  6
CONTINUOUS
 10
3.508120
 20
1.383360
  0
VERTEX
  8
0
  6
CONTINUOUS
 10
3.530120
 20
1.396560
  0
VERTEX
  8
0
  6
CONTINUOUS
 10
3.547280
 20
1.415040
  0
VERTEX
  8
0
  6
CONTINUOUS
 10
3.560480
 20
1.438800
  0
VERTEX
  8
0
  6
CONTINUOUS
 10
3.571040
 20
1.467840
  0
VERTEX
  8
0
  6
CONTINUOUS
 10
3.580720
 20
1.503480
  0
VERTEX
  8
0
  6
CONTINUOUS
 10
3.657720
 20
1.503480
  0
VERTEX
  8
0
  6
CONTINUOUS
 10
3.677960
 20
1.550560
  0
VERTEX
  8
0
  6
CONTINUOUS
 10
3.704360
 20
1.589720
  0
VERTEX
  8
0
  6
CONTINUOUS
 10
3.736480
 20
1.621400
  0
VERTEX
  8
0
  6
CONTINUOUS
 10
3.773000
 20
1.645600
  0
VERTEX
  8
0
  6
CONTINUOUS
 10
3.812600
 20
1.662320
  0
VERTEX
  8
0
  6
CONTINUOUS
 10
3.854400
 20
1.672000
  0
VERTEX
  8
0
  6
CONTINUOUS
 10
3.897960
 20
1.674640
  0
VERTEX
  8
0
  6
CONTINUOUS
 10
3.941520
 20
1.670240
  0
VERTEX
  8
0
  6
CONTINUOUS
 10
3.984200
 20
1.659240
  0
VERTEX
  8
0
  6
CONTINUOUS
 10
4.025120
 20
1.642080
  0
VERTEX
  8
0
  6
CONTINUOUS
 10
4.062960
 20
1.618760
  0
VERTEX
  8
0
  6
CONTINUOUS
 10
4.097280
 20
1.588840
  0
VERTEX
  8
0
  6
CONTINUOUS
 10
4.126320
 20
1.553200
  0
VERTEX
  8
0
  6
CONTINUOUS
 10
4.149640
 20
1.511840
  0
VERTEX
  8
0
  6
CONTINUOUS
 10
4.165920
 20
1.465200
  0
VERTEX
  8
0
  6
CONTINUOUS
 10
4.174280
 20
1.412840
  0
VERTEX
  8
0
  6
CONTINUOUS
 10
4.286480
 20
1.412840
  0
VERTEX
  8
0
  6
CONTINUOUS
 10
4.303200
 20
1.363560
  0
VERTEX
  8
0
  6
CONTINUOUS
 10
4.328280
 20
1.312080
  0
VERTEX
  8
0
  6
CONTINUOUS
 10
4.362160
 20
1.261480
  0
VERTEX
  8
0
  6
CONTINUOUS
 10
4.404400
 20
1.215720
  0
VERTEX
  8
0
  6
CONTINUOUS
 10
4.455880
 20
1.177000
  0
VERTEX
  8
0
  6
CONTINUOUS
 10
4.485360
 20
1.161600
  0
VERTEX
  8
0
  6
CONTINUOUS
 10
4.516600
 20
1.149280
  0
VERTEX
  8
0
  6
CONTINUOUS
 10
4.550480
 20
1.140480
  0
VERTEX
  8
0
  6
CONTINUOUS
 10
4.586560
 20
1.135200
  0
VERTEX
  8
0
  6
CONTINUOUS
 10
4.625280
 20
1.134320
  0
VERTEX
  8
0
  6
CONTINUOUS
 10
4.666200
 20
1.137840
  0
VERTEX
  8
0
  6
CONTINUOUS
 10
4.678960
 20
1.172160
  0
VERTEX
  8
0
  6
CONTINUOUS
 10
4.697000
 20
1.201640
  0
VERTEX
  8
0
  6
CONTINUOUS
 10
4.719440
 20
1.226280
  0
VERTEX
  8
0
  6
CONTINUOUS
 10
4.745400
 20
1.245640
  0
VERTEX
  8
0
  6
CONTINUOUS
 10
4.774440
 20
1.259280
  0
VERTEX
  8
0
  6
CONTINUOUS
 10
4.805240
 20
1.267640
  0
VERTEX
  8
0
  6
CONTINUOUS
 10
4.837360
 20
1.269400
  0
VERTEX
  8
0
  6
CONTINUOUS
 10
4.869920
 20
1.265000
  0
VERTEX
  8
0
  6
CONTINUOUS
 10
4.901600
 20
1.254000
  0
VERTEX
  8
0
  6
CONTINUOUS
 10
4.932400
 20
1.235960
  0
VERTEX
  8
0
  6
CONTINUOUS
 10
4.961000
 20
1.210440
  0
VERTEX
  8
0
  6
CONTINUOUS
 10
4.986520
 20
1.177440
  0
VERTEX
  8
0
  6
CONTINUOUS
 10
5.008080
 20
1.136960
  0
VERTEX
  8
0
  6
CONTINUOUS
 10
5.025240
 20
1.087680
  0
VERTEX
  8
0
  6
CONTINUOUS
 10
5.036680
 20
1.030480
  0
VERTEX
  8
0
  6
CONTINUOUS
 10
5.041960
 20
0.958320
  0
SEQEND
  8
0
  0
TEXT
  8
0
 10
3.925240
 20
0.753280
 40
0.138170
  1
BA  558
 41
1.000000
  7
SN0
 71
     0
 72
     5
 11
4.515078
 21
0.753280
  0
TEXT
  8
0
 10
3.677080
 20
0.561880
 40
0.138170
  1
11/16" x 1-5/8"
 41
1.000000
  7
SN0
 71
     0
 72
     5
 11
4.761700
 21
0.561880
  0
ENDSEC
  0
EOF
