  0
SECTION
  2
HEADER
  9
$ACADVER
  1
AC1006
  9
$EXTMIN
 10
4.267120
 20
0.469040
  9
$EXTMAX
 10
7.117880
 20
2.694120
  9
$LTSCALE
 40
0.044000
  9
$PDMODE
 70
    35
  9
$PDSIZE
 40
0.035200
  0
ENDSEC
  0
SECTION
  2
TABLES
  0
TABLE
  2
LTYPE
 70
     9
  0
LTYPE
  2
CONTINUOUS
 70
    64
  3
Solid line
 72
    65
 73
     0
 40
0.000000
  0
LTYPE
  2
DASHED
 70
    64
  3
__ __ __ __ __ __ __ __ __ __ __ __ __ __ __
 72
    65
 73
     2
 40
0.000330
 49
0.000220
 49
-0.000110
  0
LTYPE
  2
HIDDEN
 70
    64
  3
 _ _ _ _ _ _ _ _ _ _ _ _ _ _ _ _ _ _ _ _ _ _
 72
    65
 73
     2
 40
0.000165
 49
0.000110
 49
-0.000055
  0
LTYPE
  2
CENTER
 70
    64
  3
____ _ ____ _ ____ _ ____ _ ____ _ ____ _ ____
 72
    65
 73
     4
 40
0.000880
 49
0.000550
 49
-0.000110
 49
0.000110
 49
-0.000110
  0
LTYPE
  2
PHANTOM
 70
    64
  3
_____ _ _ _____ _ _ _____ _ _ _____ _ _ ____
 72
    65
 73
     6
 40
0.001100
 49
0.000550
 49
-0.000110
 49
0.000110
 49
-0.000110
 49
0.000110
 49
-0.000110
  0
LTYPE
  2
DOT
 70
    64
  3
...............................................
 72
    65
 73
     2
 40
0.000110
 49
0.000000
 49
-0.000110
  0
LTYPE
  2
DASHDOT
 70
    64
  3
__ . __ . __ . __ . __ . __ . __ . __ . __ . __
 72
    65
 73
     4
 40
0.000440
 49
0.000220
 49
-0.000110
 49
0.000000
 49
-0.000110
  0
LTYPE
  2
BORDER
 70
    64
  3
__ __ . __ __ . __ __ . __ __ . __ __ . __ __
 72
    65
 73
     6
 40
0.000770
 49
0.000220
 49
-0.000110
 49
0.000220
 49
-0.000110
 49
0.000000
 49
-0.000110
  0
LTYPE
  2
DIVIDE
 70
    64
  3
__ . . __ . . __ . . __ . . __ . . __ . . __
 72
    65
 73
     6
 40
0.000550
 49
0.000220
 49
-0.000110
 49
0.000000
 49
-0.000110
 49
0.000000
 49
-0.000110
  0
LTYPE
  2
DOTDOT
 70
    64
  3
 . .  . .  . .  . .  . .  . . 
 72
    65
 73
     5
 40
0.000242
 49
-0.000110
 49
0.000000
 49
-0.000110
 49
0.000000
 49
-0.000110
  0
ENDTAB
  0
TABLE
  2
STYLE
 70
     2
  0
STYLE
 70
     0
  2
SN0
 40
0.000000
 41
0.000440
 50
0.000000
 71
     0
 42
0.000000
  3
ROMAND
  0
STYLE
 70
    68
  2
SV0
 40
0.000000
 41
0.000440
 50
0.000000
 71
     0
 42
0.000000
  3
ROMAND
  0
ENDTAB
  0
TABLE
  2
LAYER
 70
     3
  0
LAYER
  2
FOREGROUND
 70
    64
 62
     7
  6
CONTINUOUS
  0
LAYER
  2
BACKGROUND
 70
    65
 62
    -7
  6
CONTINUOUS
  0
LAYER
  2
0
 70
    64
 62
     7
  6
CONTINUOUS
  0
ENDTAB
  0
ENDSEC
  0
SECTION
  2
ENTITIES
  0
POLYLINE
  8
FOREGROUND
  6
CONTINUOUS
 66
     1
 40
0.000000
 41
0.000000
  0
VERTEX
  8
FOREGROUND
  6
CONTINUOUS
 10
0.000000
 20
3.163160
  0
VERTEX
  8
FOREGROUND
  6
CONTINUOUS
 10
8.499920
 20
3.163160
  0
VERTEX
  8
FOREGROUND
  6
CONTINUOUS
 10
8.499920
 20
-7.836840
  0
VERTEX
  8
FOREGROUND
  6
CONTINUOUS
 10
0.000000
 20
-7.836840
  0
VERTEX
  8
FOREGROUND
  6
CONTINUOUS
 10
0.000000
 20
3.163160
  0
SEQEND
  8
0
  0
POLYLINE
  8
FOREGROUND
  6
CONTINUOUS
 66
     1
 40
0.000000
 41
0.000000
  0
VERTEX
  8
FOREGROUND
  6
CONTINUOUS
 10
0.000000
 20
3.163160
  0
VERTEX
  8
FOREGROUND
  6
CONTINUOUS
 10
8.499920
 20
3.163160
  0
VERTEX
  8
FOREGROUND
  6
CONTINUOUS
 10
8.499920
 20
-7.836840
  0
VERTEX
  8
FOREGROUND
  6
CONTINUOUS
 10
0.000000
 20
-7.836840
  0
VERTEX
  8
FOREGROUND
  6
CONTINUOUS
 10
0.000000
 20
3.163160
  0
SEQEND
  8
0
  0
POLYLINE
  8
0
  6
CONTINUOUS
 66
     1
 40
0.014080
 41
0.014080
  0
VERTEX
  8
0
  6
CONTINUOUS
 10
6.518160
 20
2.551120
  0
VERTEX
  8
0
  6
CONTINUOUS
 10
6.532680
 20
2.550680
  0
VERTEX
  8
0
  6
CONTINUOUS
 10
6.559520
 20
2.545840
  0
VERTEX
  8
0
  6
CONTINUOUS
 10
6.581960
 20
2.537040
  0
VERTEX
  8
0
  6
CONTINUOUS
 10
6.601320
 20
2.524720
  0
VERTEX
  8
0
  6
CONTINUOUS
 10
6.616280
 20
2.509320
  0
VERTEX
  8
0
  6
CONTINUOUS
 10
6.628160
 20
2.491280
  0
VERTEX
  8
0
  6
CONTINUOUS
 10
6.638280
 20
2.461800
  0
VERTEX
  8
0
  6
CONTINUOUS
 10
6.640480
 20
2.440680
  0
VERTEX
  8
0
  6
CONTINUOUS
 10
6.638720
 20
2.419560
  0
VERTEX
  8
0
  6
CONTINUOUS
 10
6.633440
 20
2.398880
  0
VERTEX
  8
0
  6
CONTINUOUS
 10
6.624640
 20
2.378640
  0
VERTEX
  8
0
  6
CONTINUOUS
 10
6.611880
 20
2.360600
  0
VERTEX
  8
0
  6
CONTINUOUS
 10
6.595160
 20
2.344320
  0
VERTEX
  8
0
  6
CONTINUOUS
 10
6.574920
 20
2.330680
  0
VERTEX
  8
0
  6
CONTINUOUS
 10
6.551160
 20
2.320560
  0
VERTEX
  8
0
  6
CONTINUOUS
 10
6.523440
 20
2.314400
  0
VERTEX
  8
0
  6
CONTINUOUS
 10
6.521680
 20
2.249280
  0
VERTEX
  8
0
  6
CONTINUOUS
 10
6.525200
 20
2.193840
  0
VERTEX
  8
0
  6
CONTINUOUS
 10
6.534000
 20
2.146760
  0
VERTEX
  8
0
  6
CONTINUOUS
 10
6.540600
 20
2.125640
  0
VERTEX
  8
0
  6
CONTINUOUS
 10
6.558640
 20
2.088240
  0
VERTEX
  8
0
  6
CONTINUOUS
 10
6.569640
 20
2.071080
  0
VERTEX
  8
0
  6
CONTINUOUS
 10
6.596920
 20
2.039840
  0
VERTEX
  8
0
  6
CONTINUOUS
 10
6.630800
 20
2.011240
  0
VERTEX
  8
0
  6
CONTINUOUS
 10
6.676120
 20
1.981320
  0
VERTEX
  8
0
  6
CONTINUOUS
 10
6.882920
 20
1.882320
  0
VERTEX
  8
0
  6
CONTINUOUS
 10
6.958160
 20
1.841400
  0
VERTEX
  8
0
  6
CONTINUOUS
 10
6.990720
 20
1.821160
  0
VERTEX
  8
0
  6
CONTINUOUS
 10
7.017120
 20
1.801800
  0
VERTEX
  8
0
  6
CONTINUOUS
 10
7.042640
 20
1.778040
  0
VERTEX
  8
0
  6
CONTINUOUS
 10
7.064200
 20
1.751640
  0
VERTEX
  8
0
  6
CONTINUOUS
 10
7.081360
 20
1.723920
  0
VERTEX
  8
0
  6
CONTINUOUS
 10
7.094560
 20
1.694880
  0
VERTEX
  8
0
  6
CONTINUOUS
 10
7.103800
 20
1.665400
  0
VERTEX
  8
0
  6
CONTINUOUS
 10
7.109080
 20
1.635040
  0
VERTEX
  8
0
  6
CONTINUOUS
 10
7.110840
 20
1.604680
  0
VERTEX
  8
0
  6
CONTINUOUS
 10
7.108640
 20
1.575200
  0
VERTEX
  8
0
  6
CONTINUOUS
 10
7.103360
 20
1.546600
  0
VERTEX
  8
0
  6
CONTINUOUS
 10
7.094120
 20
1.519320
  0
VERTEX
  8
0
  6
CONTINUOUS
 10
7.082240
 20
1.493800
  0
VERTEX
  8
0
  6
CONTINUOUS
 10
7.066400
 20
1.470480
  0
VERTEX
  8
0
  6
CONTINUOUS
 10
7.047920
 20
1.450240
  0
VERTEX
  8
0
  6
CONTINUOUS
 10
7.026360
 20
1.432640
  0
VERTEX
  8
0
  6
CONTINUOUS
 10
7.001720
 20
1.419000
  0
VERTEX
  8
0
  6
CONTINUOUS
 10
6.974440
 20
1.409320
  0
VERTEX
  8
0
  6
CONTINUOUS
 10
6.320600
 20
1.409320
  0
VERTEX
  8
0
  6
CONTINUOUS
 10
6.320600
 20
2.686640
  0
VERTEX
  8
0
  6
CONTINUOUS
 10
6.515520
 20
2.686640
  0
VERTEX
  8
0
  6
CONTINUOUS
 10
6.515520
 20
2.550240
  0
VERTEX
  8
0
  6
CONTINUOUS
 10
6.518160
 20
2.551120
  0
SEQEND
  8
0
  0
SOLID
  8
0
 62
     7
 10
4.629240
 20
1.521520
 11
5.284400
 21
1.898160
 12
4.642880
 22
1.514480
 13
5.298480
 23
1.891120
  0
POLYLINE
  8
0
  6
CONTINUOUS
 66
     1
 40
0.000000
 41
0.000000
  0
VERTEX
  8
0
  6
CONTINUOUS
 10
4.629240
 20
1.521520
  0
VERTEX
  8
0
  6
CONTINUOUS
 10
5.284400
 20
1.898160
  0
VERTEX
  8
0
  6
CONTINUOUS
 10
5.298480
 20
1.891120
  0
VERTEX
  8
0
  6
CONTINUOUS
 10
4.642880
 20
1.514480
  0
VERTEX
  8
0
  6
CONTINUOUS
 10
4.629240
 20
1.521520
  0
SEQEND
  8
0
  0
SOLID
  8
0
 62
    15
 10
4.493720
 20
2.091760
 11
5.149320
 21
2.468400
 12
4.518360
 22
2.085160
 13
5.173960
 23
2.461360
  0
POLYLINE
  8
0
  6
CONTINUOUS
 66
     1
 40
0.000000
 41
0.000000
  0
VERTEX
  8
0
  6
CONTINUOUS
 10
4.493720
 20
2.091760
  0
VERTEX
  8
0
  6
CONTINUOUS
 10
5.149320
 20
2.468400
  0
VERTEX
  8
0
  6
CONTINUOUS
 10
5.173960
 20
2.461360
  0
VERTEX
  8
0
  6
CONTINUOUS
 10
4.518360
 20
2.085160
  0
VERTEX
  8
0
  6
CONTINUOUS
 10
4.493720
 20
2.091760
  0
SEQEND
  8
0
  0
SOLID
  8
0
 62
    15
 10
4.518360
 20
2.085160
 11
5.173960
 21
2.461360
 12
4.539480
 22
2.074160
 13
5.195080
 23
2.450800
  0
POLYLINE
  8
0
  6
CONTINUOUS
 66
     1
 40
0.000000
 41
0.000000
  0
VERTEX
  8
0
  6
CONTINUOUS
 10
4.518360
 20
2.085160
  0
VERTEX
  8
0
  6
CONTINUOUS
 10
5.173960
 20
2.461360
  0
VERTEX
  8
0
  6
CONTINUOUS
 10
5.195080
 20
2.450800
  0
VERTEX
  8
0
  6
CONTINUOUS
 10
4.539480
 20
2.074160
  0
VERTEX
  8
0
  6
CONTINUOUS
 10
4.518360
 20
2.085160
  0
SEQEND
  8
0
  0
SOLID
  8
0
 62
     7
 10
4.539480
 20
2.074160
 11
5.195080
 21
2.450800
 12
4.556640
 22
2.060520
 13
5.211800
 23
2.436720
  0
POLYLINE
  8
0
  6
CONTINUOUS
 66
     1
 40
0.000000
 41
0.000000
  0
VERTEX
  8
0
  6
CONTINUOUS
 10
4.539480
 20
2.074160
  0
VERTEX
  8
0
  6
CONTINUOUS
 10
5.195080
 20
2.450800
  0
VERTEX
  8
0
  6
CONTINUOUS
 10
5.211800
 20
2.436720
  0
VERTEX
  8
0
  6
CONTINUOUS
 10
4.556640
 20
2.060520
  0
VERTEX
  8
0
  6
CONTINUOUS
 10
4.539480
 20
2.074160
  0
SEQEND
  8
0
  0
SOLID
  8
0
 62
     7
 10
4.556640
 20
2.060520
 11
5.211800
 21
2.436720
 12
4.569840
 22
2.043800
 13
5.225440
 23
2.420000
  0
POLYLINE
  8
0
  6
CONTINUOUS
 66
     1
 40
0.000000
 41
0.000000
  0
VERTEX
  8
0
  6
CONTINUOUS
 10
4.556640
 20
2.060520
  0
VERTEX
  8
0
  6
CONTINUOUS
 10
5.211800
 20
2.436720
  0
VERTEX
  8
0
  6
CONTINUOUS
 10
5.225440
 20
2.420000
  0
VERTEX
  8
0
  6
CONTINUOUS
 10
4.569840
 20
2.043800
  0
VERTEX
  8
0
  6
CONTINUOUS
 10
4.556640
 20
2.060520
  0
SEQEND
  8
0
  0
SOLID
  8
0
 62
     7
 10
4.569840
 20
2.043800
 11
5.225440
 21
2.420000
 12
4.579520
 22
2.025320
 13
5.235120
 23
2.401520
  0
POLYLINE
  8
0
  6
CONTINUOUS
 66
     1
 40
0.000000
 41
0.000000
  0
VERTEX
  8
0
  6
CONTINUOUS
 10
4.569840
 20
2.043800
  0
VERTEX
  8
0
  6
CONTINUOUS
 10
5.225440
 20
2.420000
  0
VERTEX
  8
0
  6
CONTINUOUS
 10
5.235120
 20
2.401520
  0
VERTEX
  8
0
  6
CONTINUOUS
 10
4.579520
 20
2.025320
  0
VERTEX
  8
0
  6
CONTINUOUS
 10
4.569840
 20
2.043800
  0
SEQEND
  8
0
  0
SOLID
  8
0
 62
     7
 10
4.579520
 20
2.025320
 11
5.235120
 21
2.401520
 12
4.585240
 22
2.005080
 13
5.240840
 23
2.381280
  0
POLYLINE
  8
0
  6
CONTINUOUS
 66
     1
 40
0.000000
 41
0.000000
  0
VERTEX
  8
0
  6
CONTINUOUS
 10
4.579520
 20
2.025320
  0
VERTEX
  8
0
  6
CONTINUOUS
 10
5.235120
 20
2.401520
  0
VERTEX
  8
0
  6
CONTINUOUS
 10
5.240840
 20
2.381280
  0
VERTEX
  8
0
  6
CONTINUOUS
 10
4.585240
 20
2.005080
  0
VERTEX
  8
0
  6
CONTINUOUS
 10
4.579520
 20
2.025320
  0
SEQEND
  8
0
  0
SOLID
  8
0
 62
    15
 10
4.585240
 20
2.005080
 11
5.240840
 21
2.381280
 12
4.587440
 22
1.983960
 13
5.243040
 23
2.360600
  0
POLYLINE
  8
0
  6
CONTINUOUS
 66
     1
 40
0.000000
 41
0.000000
  0
VERTEX
  8
0
  6
CONTINUOUS
 10
4.585240
 20
2.005080
  0
VERTEX
  8
0
  6
CONTINUOUS
 10
5.240840
 20
2.381280
  0
VERTEX
  8
0
  6
CONTINUOUS
 10
5.243040
 20
2.360600
  0
VERTEX
  8
0
  6
CONTINUOUS
 10
4.587440
 20
1.983960
  0
VERTEX
  8
0
  6
CONTINUOUS
 10
4.585240
 20
2.005080
  0
SEQEND
  8
0
  0
SOLID
  8
0
 62
    15
 10
4.587440
 20
1.983960
 11
5.243040
 21
2.360600
 12
4.580840
 22
1.942160
 13
5.236000
 23
2.318360
  0
POLYLINE
  8
0
  6
CONTINUOUS
 66
     1
 40
0.000000
 41
0.000000
  0
VERTEX
  8
0
  6
CONTINUOUS
 10
4.587440
 20
1.983960
  0
VERTEX
  8
0
  6
CONTINUOUS
 10
5.243040
 20
2.360600
  0
VERTEX
  8
0
  6
CONTINUOUS
 10
5.236000
 20
2.318360
  0
VERTEX
  8
0
  6
CONTINUOUS
 10
4.580840
 20
1.942160
  0
VERTEX
  8
0
  6
CONTINUOUS
 10
4.587440
 20
1.983960
  0
SEQEND
  8
0
  0
SOLID
  8
0
 62
    15
 10
4.580840
 20
1.942160
 11
5.236000
 21
2.318360
 12
4.571600
 22
1.921920
 13
5.227200
 23
2.298560
  0
POLYLINE
  8
0
  6
CONTINUOUS
 66
     1
 40
0.000000
 41
0.000000
  0
VERTEX
  8
0
  6
CONTINUOUS
 10
4.580840
 20
1.942160
  0
VERTEX
  8
0
  6
CONTINUOUS
 10
5.236000
 20
2.318360
  0
VERTEX
  8
0
  6
CONTINUOUS
 10
5.227200
 20
2.298560
  0
VERTEX
  8
0
  6
CONTINUOUS
 10
4.571600
 20
1.921920
  0
VERTEX
  8
0
  6
CONTINUOUS
 10
4.580840
 20
1.942160
  0
SEQEND
  8
0
  0
SOLID
  8
0
 62
    15
 10
4.470840
 20
1.857680
 11
5.126000
 21
2.233880
 12
4.469080
 22
1.792560
 13
5.124680
 23
2.168760
  0
POLYLINE
  8
0
  6
CONTINUOUS
 66
     1
 40
0.000000
 41
0.000000
  0
VERTEX
  8
0
  6
CONTINUOUS
 10
4.470840
 20
1.857680
  0
VERTEX
  8
0
  6
CONTINUOUS
 10
5.126000
 20
2.233880
  0
VERTEX
  8
0
  6
CONTINUOUS
 10
5.124680
 20
2.168760
  0
VERTEX
  8
0
  6
CONTINUOUS
 10
4.469080
 20
1.792560
  0
VERTEX
  8
0
  6
CONTINUOUS
 10
4.470840
 20
1.857680
  0
SEQEND
  8
0
  0
SOLID
  8
0
 62
    15
 10
4.558840
 20
1.903880
 11
5.214440
 21
2.280080
 12
4.542560
 22
1.887600
 13
5.197720
 23
2.263800
  0
POLYLINE
  8
0
  6
CONTINUOUS
 66
     1
 40
0.000000
 41
0.000000
  0
VERTEX
  8
0
  6
CONTINUOUS
 10
4.558840
 20
1.903880
  0
VERTEX
  8
0
  6
CONTINUOUS
 10
5.214440
 20
2.280080
  0
VERTEX
  8
0
  6
CONTINUOUS
 10
5.197720
 20
2.263800
  0
VERTEX
  8
0
  6
CONTINUOUS
 10
4.542560
 20
1.887600
  0
VERTEX
  8
0
  6
CONTINUOUS
 10
4.558840
 20
1.903880
  0
SEQEND
  8
0
  0
SOLID
  8
0
 62
    15
 10
4.542560
 20
1.887600
 11
5.197720
 21
2.263800
 12
4.522320
 22
1.873960
 13
5.177920
 23
2.250160
  0
POLYLINE
  8
0
  6
CONTINUOUS
 66
     1
 40
0.000000
 41
0.000000
  0
VERTEX
  8
0
  6
CONTINUOUS
 10
4.542560
 20
1.887600
  0
VERTEX
  8
0
  6
CONTINUOUS
 10
5.197720
 20
2.263800
  0
VERTEX
  8
0
  6
CONTINUOUS
 10
5.177920
 20
2.250160
  0
VERTEX
  8
0
  6
CONTINUOUS
 10
4.522320
 20
1.873960
  0
VERTEX
  8
0
  6
CONTINUOUS
 10
4.542560
 20
1.887600
  0
SEQEND
  8
0
  0
SOLID
  8
0
 62
    15
 10
4.571600
 20
1.921920
 11
5.227200
 21
2.298560
 12
4.558840
 22
1.903880
 13
5.214440
 23
2.280080
  0
POLYLINE
  8
0
  6
CONTINUOUS
 66
     1
 40
0.000000
 41
0.000000
  0
VERTEX
  8
0
  6
CONTINUOUS
 10
4.571600
 20
1.921920
  0
VERTEX
  8
0
  6
CONTINUOUS
 10
5.227200
 20
2.298560
  0
VERTEX
  8
0
  6
CONTINUOUS
 10
5.214440
 20
2.280080
  0
VERTEX
  8
0
  6
CONTINUOUS
 10
4.558840
 20
1.903880
  0
VERTEX
  8
0
  6
CONTINUOUS
 10
4.571600
 20
1.921920
  0
SEQEND
  8
0
  0
SOLID
  8
0
 62
    15
 10
4.469080
 20
1.792560
 11
5.124680
 21
2.168760
 12
4.472600
 22
1.737120
 13
5.128200
 23
2.113320
  0
POLYLINE
  8
0
  6
CONTINUOUS
 66
     1
 40
0.000000
 41
0.000000
  0
VERTEX
  8
0
  6
CONTINUOUS
 10
4.469080
 20
1.792560
  0
VERTEX
  8
0
  6
CONTINUOUS
 10
5.124680
 20
2.168760
  0
VERTEX
  8
0
  6
CONTINUOUS
 10
5.128200
 20
2.113320
  0
VERTEX
  8
0
  6
CONTINUOUS
 10
4.472600
 20
1.737120
  0
VERTEX
  8
0
  6
CONTINUOUS
 10
4.469080
 20
1.792560
  0
SEQEND
  8
0
  0
SOLID
  8
0
 62
     7
 10
4.472600
 20
1.737120
 11
5.128200
 21
2.113320
 12
4.481400
 22
1.690040
 13
5.137000
 23
2.066240
  0
POLYLINE
  8
0
  6
CONTINUOUS
 66
     1
 40
0.000000
 41
0.000000
  0
VERTEX
  8
0
  6
CONTINUOUS
 10
4.472600
 20
1.737120
  0
VERTEX
  8
0
  6
CONTINUOUS
 10
5.128200
 20
2.113320
  0
VERTEX
  8
0
  6
CONTINUOUS
 10
5.137000
 20
2.066240
  0
VERTEX
  8
0
  6
CONTINUOUS
 10
4.481400
 20
1.690040
  0
VERTEX
  8
0
  6
CONTINUOUS
 10
4.472600
 20
1.737120
  0
SEQEND
  8
0
  0
SOLID
  8
0
 62
     7
 10
4.481400
 20
1.690040
 11
5.137000
 21
2.066240
 12
4.496360
 22
1.649560
 13
5.151520
 23
2.025760
  0
POLYLINE
  8
0
  6
CONTINUOUS
 66
     1
 40
0.000000
 41
0.000000
  0
VERTEX
  8
0
  6
CONTINUOUS
 10
4.481400
 20
1.690040
  0
VERTEX
  8
0
  6
CONTINUOUS
 10
5.137000
 20
2.066240
  0
VERTEX
  8
0
  6
CONTINUOUS
 10
5.151520
 20
2.025760
  0
VERTEX
  8
0
  6
CONTINUOUS
 10
4.496360
 20
1.649560
  0
VERTEX
  8
0
  6
CONTINUOUS
 10
4.481400
 20
1.690040
  0
SEQEND
  8
0
  0
SOLID
  8
0
 62
     7
 10
4.496360
 20
1.649560
 11
5.151520
 21
2.025760
 12
4.517040
 22
1.614360
 13
5.172640
 23
1.990560
  0
POLYLINE
  8
0
  6
CONTINUOUS
 66
     1
 40
0.000000
 41
0.000000
  0
VERTEX
  8
0
  6
CONTINUOUS
 10
4.496360
 20
1.649560
  0
VERTEX
  8
0
  6
CONTINUOUS
 10
5.151520
 20
2.025760
  0
VERTEX
  8
0
  6
CONTINUOUS
 10
5.172640
 20
1.990560
  0
VERTEX
  8
0
  6
CONTINUOUS
 10
4.517040
 20
1.614360
  0
VERTEX
  8
0
  6
CONTINUOUS
 10
4.496360
 20
1.649560
  0
SEQEND
  8
0
  0
SOLID
  8
0
 62
     7
 10
4.517040
 20
1.614360
 11
5.172640
 21
1.990560
 12
4.544320
 22
1.583120
 13
5.199920
 23
1.959760
  0
POLYLINE
  8
0
  6
CONTINUOUS
 66
     1
 40
0.000000
 41
0.000000
  0
VERTEX
  8
0
  6
CONTINUOUS
 10
4.517040
 20
1.614360
  0
VERTEX
  8
0
  6
CONTINUOUS
 10
5.172640
 20
1.990560
  0
VERTEX
  8
0
  6
CONTINUOUS
 10
5.199920
 20
1.959760
  0
VERTEX
  8
0
  6
CONTINUOUS
 10
4.544320
 20
1.583120
  0
VERTEX
  8
0
  6
CONTINUOUS
 10
4.517040
 20
1.614360
  0
SEQEND
  8
0
  0
SOLID
  8
0
 62
     7
 10
4.544320
 20
1.583120
 11
5.199920
 21
1.959760
 12
4.578200
 22
1.554520
 13
5.233800
 23
1.931160
  0
POLYLINE
  8
0
  6
CONTINUOUS
 66
     1
 40
0.000000
 41
0.000000
  0
VERTEX
  8
0
  6
CONTINUOUS
 10
4.544320
 20
1.583120
  0
VERTEX
  8
0
  6
CONTINUOUS
 10
5.199920
 20
1.959760
  0
VERTEX
  8
0
  6
CONTINUOUS
 10
5.233800
 20
1.931160
  0
VERTEX
  8
0
  6
CONTINUOUS
 10
4.578200
 20
1.554520
  0
VERTEX
  8
0
  6
CONTINUOUS
 10
4.544320
 20
1.583120
  0
SEQEND
  8
0
  0
SOLID
  8
0
 62
     7
 10
4.578200
 20
1.554520
 11
5.233800
 21
1.931160
 12
4.619120
 22
1.527240
 13
5.274720
 23
1.903440
  0
POLYLINE
  8
0
  6
CONTINUOUS
 66
     1
 40
0.000000
 41
0.000000
  0
VERTEX
  8
0
  6
CONTINUOUS
 10
4.578200
 20
1.554520
  0
VERTEX
  8
0
  6
CONTINUOUS
 10
5.233800
 20
1.931160
  0
VERTEX
  8
0
  6
CONTINUOUS
 10
5.274720
 20
1.903440
  0
VERTEX
  8
0
  6
CONTINUOUS
 10
4.619120
 20
1.527240
  0
VERTEX
  8
0
  6
CONTINUOUS
 10
4.578200
 20
1.554520
  0
SEQEND
  8
0
  0
SOLID
  8
0
 62
     7
 10
4.619120
 20
1.527240
 11
5.274720
 21
1.903440
 12
4.629240
 22
1.521520
 13
5.284400
 23
1.898160
  0
POLYLINE
  8
0
  6
CONTINUOUS
 66
     1
 40
0.000000
 41
0.000000
  0
VERTEX
  8
0
  6
CONTINUOUS
 10
4.619120
 20
1.527240
  0
VERTEX
  8
0
  6
CONTINUOUS
 10
5.274720
 20
1.903440
  0
VERTEX
  8
0
  6
CONTINUOUS
 10
5.284400
 20
1.898160
  0
VERTEX
  8
0
  6
CONTINUOUS
 10
4.629240
 20
1.521520
  0
VERTEX
  8
0
  6
CONTINUOUS
 10
4.619120
 20
1.527240
  0
SEQEND
  8
0
  0
SOLID
  8
0
 62
    15
 10
4.465560
 20
2.094400
 11
5.121160
 21
2.470600
 12
4.493720
 22
2.091760
 13
5.149320
 23
2.468400
  0
POLYLINE
  8
0
  6
CONTINUOUS
 66
     1
 40
0.000000
 41
0.000000
  0
VERTEX
  8
0
  6
CONTINUOUS
 10
4.465560
 20
2.094400
  0
VERTEX
  8
0
  6
CONTINUOUS
 10
5.121160
 20
2.470600
  0
VERTEX
  8
0
  6
CONTINUOUS
 10
5.149320
 20
2.468400
  0
VERTEX
  8
0
  6
CONTINUOUS
 10
4.493720
 20
2.091760
  0
VERTEX
  8
0
  6
CONTINUOUS
 10
4.465560
 20
2.094400
  0
SEQEND
  8
0
  0
SOLID
  8
0
 62
     7
 10
4.642880
 20
1.514480
 11
5.298480
 21
1.891120
 12
4.679400
 22
1.497320
 13
5.335000
 23
1.873520
  0
POLYLINE
  8
0
  6
CONTINUOUS
 66
     1
 40
0.000000
 41
0.000000
  0
VERTEX
  8
0
  6
CONTINUOUS
 10
4.642880
 20
1.514480
  0
VERTEX
  8
0
  6
CONTINUOUS
 10
5.298480
 20
1.891120
  0
VERTEX
  8
0
  6
CONTINUOUS
 10
5.335000
 20
1.873520
  0
VERTEX
  8
0
  6
CONTINUOUS
 10
4.679400
 20
1.497320
  0
VERTEX
  8
0
  6
CONTINUOUS
 10
4.642880
 20
1.514480
  0
SEQEND
  8
0
  0
SOLID
  8
0
 62
     7
 10
4.679400
 20
1.497320
 11
5.335000
 21
1.873520
 12
4.725600
 22
1.475760
 13
5.380760
 23
1.852400
  0
POLYLINE
  8
0
  6
CONTINUOUS
 66
     1
 40
0.000000
 41
0.000000
  0
VERTEX
  8
0
  6
CONTINUOUS
 10
4.679400
 20
1.497320
  0
VERTEX
  8
0
  6
CONTINUOUS
 10
5.335000
 20
1.873520
  0
VERTEX
  8
0
  6
CONTINUOUS
 10
5.380760
 20
1.852400
  0
VERTEX
  8
0
  6
CONTINUOUS
 10
4.725600
 20
1.475760
  0
VERTEX
  8
0
  6
CONTINUOUS
 10
4.679400
 20
1.497320
  0
SEQEND
  8
0
  0
SOLID
  8
0
 62
     7
 10
4.725600
 20
1.475760
 11
5.380760
 21
1.852400
 12
4.777080
 22
1.451560
 13
5.432240
 23
1.828200
  0
POLYLINE
  8
0
  6
CONTINUOUS
 66
     1
 40
0.000000
 41
0.000000
  0
VERTEX
  8
0
  6
CONTINUOUS
 10
4.725600
 20
1.475760
  0
VERTEX
  8
0
  6
CONTINUOUS
 10
5.380760
 20
1.852400
  0
VERTEX
  8
0
  6
CONTINUOUS
 10
5.432240
 20
1.828200
  0
VERTEX
  8
0
  6
CONTINUOUS
 10
4.777080
 20
1.451560
  0
VERTEX
  8
0
  6
CONTINUOUS
 10
4.725600
 20
1.475760
  0
SEQEND
  8
0
  0
SOLID
  8
0
 62
     7
 10
4.777080
 20
1.451560
 11
5.432240
 21
1.828200
 12
4.881800
 22
1.398320
 13
5.537400
 23
1.774960
  0
POLYLINE
  8
0
  6
CONTINUOUS
 66
     1
 40
0.000000
 41
0.000000
  0
VERTEX
  8
0
  6
CONTINUOUS
 10
4.777080
 20
1.451560
  0
VERTEX
  8
0
  6
CONTINUOUS
 10
5.432240
 20
1.828200
  0
VERTEX
  8
0
  6
CONTINUOUS
 10
5.537400
 20
1.774960
  0
VERTEX
  8
0
  6
CONTINUOUS
 10
4.881800
 20
1.398320
  0
VERTEX
  8
0
  6
CONTINUOUS
 10
4.777080
 20
1.451560
  0
SEQEND
  8
0
  0
SOLID
  8
0
 62
     7
 10
4.881800
 20
1.398320
 11
5.537400
 21
1.774960
 12
4.928000
 22
1.371480
 13
5.583600
 23
1.747680
  0
POLYLINE
  8
0
  6
CONTINUOUS
 66
     1
 40
0.000000
 41
0.000000
  0
VERTEX
  8
0
  6
CONTINUOUS
 10
4.881800
 20
1.398320
  0
VERTEX
  8
0
  6
CONTINUOUS
 10
5.537400
 20
1.774960
  0
VERTEX
  8
0
  6
CONTINUOUS
 10
5.583600
 20
1.747680
  0
VERTEX
  8
0
  6
CONTINUOUS
 10
4.928000
 20
1.371480
  0
VERTEX
  8
0
  6
CONTINUOUS
 10
4.881800
 20
1.398320
  0
SEQEND
  8
0
  0
SOLID
  8
0
 62
     7
 10
4.928000
 20
1.371480
 11
5.583600
 21
1.747680
 12
4.964520
 22
1.345080
 13
5.620120
 23
1.721720
  0
POLYLINE
  8
0
  6
CONTINUOUS
 66
     1
 40
0.000000
 41
0.000000
  0
VERTEX
  8
0
  6
CONTINUOUS
 10
4.928000
 20
1.371480
  0
VERTEX
  8
0
  6
CONTINUOUS
 10
5.583600
 20
1.747680
  0
VERTEX
  8
0
  6
CONTINUOUS
 10
5.620120
 20
1.721720
  0
VERTEX
  8
0
  6
CONTINUOUS
 10
4.964520
 20
1.345080
  0
VERTEX
  8
0
  6
CONTINUOUS
 10
4.928000
 20
1.371480
  0
SEQEND
  8
0
  0
SOLID
  8
0
 62
     7
 10
4.964520
 20
1.345080
 11
5.620120
 21
1.721720
 12
4.990480
 22
1.321320
 13
5.645640
 23
1.697520
  0
POLYLINE
  8
0
  6
CONTINUOUS
 66
     1
 40
0.000000
 41
0.000000
  0
VERTEX
  8
0
  6
CONTINUOUS
 10
4.964520
 20
1.345080
  0
VERTEX
  8
0
  6
CONTINUOUS
 10
5.620120
 20
1.721720
  0
VERTEX
  8
0
  6
CONTINUOUS
 10
5.645640
 20
1.697520
  0
VERTEX
  8
0
  6
CONTINUOUS
 10
4.990480
 20
1.321320
  0
VERTEX
  8
0
  6
CONTINUOUS
 10
4.964520
 20
1.345080
  0
SEQEND
  8
0
  0
SOLID
  8
0
 62
     7
 10
4.990480
 20
1.321320
 11
5.645640
 21
1.697520
 12
5.011600
 22
1.295360
 13
5.667200
 23
1.671560
  0
POLYLINE
  8
0
  6
CONTINUOUS
 66
     1
 40
0.000000
 41
0.000000
  0
VERTEX
  8
0
  6
CONTINUOUS
 10
4.990480
 20
1.321320
  0
VERTEX
  8
0
  6
CONTINUOUS
 10
5.645640
 20
1.697520
  0
VERTEX
  8
0
  6
CONTINUOUS
 10
5.667200
 20
1.671560
  0
VERTEX
  8
0
  6
CONTINUOUS
 10
5.011600
 20
1.295360
  0
VERTEX
  8
0
  6
CONTINUOUS
 10
4.990480
 20
1.321320
  0
SEQEND
  8
0
  0
SOLID
  8
0
 62
     7
 10
5.011600
 20
1.295360
 11
5.667200
 21
1.671560
 12
5.028760
 22
1.267640
 13
5.684360
 23
1.643840
  0
POLYLINE
  8
0
  6
CONTINUOUS
 66
     1
 40
0.000000
 41
0.000000
  0
VERTEX
  8
0
  6
CONTINUOUS
 10
5.011600
 20
1.295360
  0
VERTEX
  8
0
  6
CONTINUOUS
 10
5.667200
 20
1.671560
  0
VERTEX
  8
0
  6
CONTINUOUS
 10
5.684360
 20
1.643840
  0
VERTEX
  8
0
  6
CONTINUOUS
 10
5.028760
 20
1.267640
  0
VERTEX
  8
0
  6
CONTINUOUS
 10
5.011600
 20
1.295360
  0
SEQEND
  8
0
  0
SOLID
  8
0
 62
     7
 10
5.028760
 20
1.267640
 11
5.684360
 21
1.643840
 12
5.041960
 22
1.238600
 13
5.697560
 23
1.614800
  0
POLYLINE
  8
0
  6
CONTINUOUS
 66
     1
 40
0.000000
 41
0.000000
  0
VERTEX
  8
0
  6
CONTINUOUS
 10
5.028760
 20
1.267640
  0
VERTEX
  8
0
  6
CONTINUOUS
 10
5.684360
 20
1.643840
  0
VERTEX
  8
0
  6
CONTINUOUS
 10
5.697560
 20
1.614800
  0
VERTEX
  8
0
  6
CONTINUOUS
 10
5.041960
 20
1.238600
  0
VERTEX
  8
0
  6
CONTINUOUS
 10
5.028760
 20
1.267640
  0
SEQEND
  8
0
  0
SOLID
  8
0
 62
    15
 10
5.041960
 20
1.238600
 11
5.697560
 21
1.614800
 12
5.051200
 22
1.208680
 13
5.706800
 23
1.584880
  0
POLYLINE
  8
0
  6
CONTINUOUS
 66
     1
 40
0.000000
 41
0.000000
  0
VERTEX
  8
0
  6
CONTINUOUS
 10
5.041960
 20
1.238600
  0
VERTEX
  8
0
  6
CONTINUOUS
 10
5.697560
 20
1.614800
  0
VERTEX
  8
0
  6
CONTINUOUS
 10
5.706800
 20
1.584880
  0
VERTEX
  8
0
  6
CONTINUOUS
 10
5.051200
 20
1.208680
  0
VERTEX
  8
0
  6
CONTINUOUS
 10
5.041960
 20
1.238600
  0
SEQEND
  8
0
  0
SOLID
  8
0
 62
    15
 10
5.051200
 20
1.208680
 11
5.706800
 21
1.584880
 12
5.056480
 22
1.178320
 13
5.712080
 23
1.554960
  0
POLYLINE
  8
0
  6
CONTINUOUS
 66
     1
 40
0.000000
 41
0.000000
  0
VERTEX
  8
0
  6
CONTINUOUS
 10
5.051200
 20
1.208680
  0
VERTEX
  8
0
  6
CONTINUOUS
 10
5.706800
 20
1.584880
  0
VERTEX
  8
0
  6
CONTINUOUS
 10
5.712080
 20
1.554960
  0
VERTEX
  8
0
  6
CONTINUOUS
 10
5.056480
 20
1.178320
  0
VERTEX
  8
0
  6
CONTINUOUS
 10
5.051200
 20
1.208680
  0
SEQEND
  8
0
  0
SOLID
  8
0
 62
    15
 10
5.056480
 20
1.178320
 11
5.712080
 21
1.554960
 12
5.056040
 22
1.118480
 13
5.711640
 23
1.495120
  0
POLYLINE
  8
0
  6
CONTINUOUS
 66
     1
 40
0.000000
 41
0.000000
  0
VERTEX
  8
0
  6
CONTINUOUS
 10
5.056480
 20
1.178320
  0
VERTEX
  8
0
  6
CONTINUOUS
 10
5.712080
 20
1.554960
  0
VERTEX
  8
0
  6
CONTINUOUS
 10
5.711640
 20
1.495120
  0
VERTEX
  8
0
  6
CONTINUOUS
 10
5.056040
 20
1.118480
  0
VERTEX
  8
0
  6
CONTINUOUS
 10
5.056480
 20
1.178320
  0
SEQEND
  8
0
  0
SOLID
  8
0
 62
    15
 10
5.056040
 20
1.118480
 11
5.711640
 21
1.495120
 12
5.050760
 22
1.089880
 13
5.706360
 23
1.466080
  0
POLYLINE
  8
0
  6
CONTINUOUS
 66
     1
 40
0.000000
 41
0.000000
  0
VERTEX
  8
0
  6
CONTINUOUS
 10
5.056040
 20
1.118480
  0
VERTEX
  8
0
  6
CONTINUOUS
 10
5.711640
 20
1.495120
  0
VERTEX
  8
0
  6
CONTINUOUS
 10
5.706360
 20
1.466080
  0
VERTEX
  8
0
  6
CONTINUOUS
 10
5.050760
 20
1.089880
  0
VERTEX
  8
0
  6
CONTINUOUS
 10
5.056040
 20
1.118480
  0
SEQEND
  8
0
  0
SOLID
  8
0
 62
    15
 10
5.050760
 20
1.089880
 11
5.706360
 21
1.466080
 12
5.041960
 22
1.062600
 13
5.697120
 23
1.438800
  0
POLYLINE
  8
0
  6
CONTINUOUS
 66
     1
 40
0.000000
 41
0.000000
  0
VERTEX
  8
0
  6
CONTINUOUS
 10
5.050760
 20
1.089880
  0
VERTEX
  8
0
  6
CONTINUOUS
 10
5.706360
 20
1.466080
  0
VERTEX
  8
0
  6
CONTINUOUS
 10
5.697120
 20
1.438800
  0
VERTEX
  8
0
  6
CONTINUOUS
 10
5.041960
 20
1.062600
  0
VERTEX
  8
0
  6
CONTINUOUS
 10
5.050760
 20
1.089880
  0
SEQEND
  8
0
  0
SOLID
  8
0
 62
    15
 10
5.041960
 20
1.062600
 11
5.697120
 21
1.438800
 12
5.029640
 22
1.037080
 13
5.684800
 23
1.413280
  0
POLYLINE
  8
0
  6
CONTINUOUS
 66
     1
 40
0.000000
 41
0.000000
  0
VERTEX
  8
0
  6
CONTINUOUS
 10
5.041960
 20
1.062600
  0
VERTEX
  8
0
  6
CONTINUOUS
 10
5.697120
 20
1.438800
  0
VERTEX
  8
0
  6
CONTINUOUS
 10
5.684800
 20
1.413280
  0
VERTEX
  8
0
  6
CONTINUOUS
 10
5.029640
 20
1.037080
  0
VERTEX
  8
0
  6
CONTINUOUS
 10
5.041960
 20
1.062600
  0
SEQEND
  8
0
  0
SOLID
  8
0
 62
    15
 10
5.029640
 20
1.037080
 11
5.684800
 21
1.413280
 12
5.013800
 22
1.013760
 13
5.669400
 23
1.390400
  0
POLYLINE
  8
0
  6
CONTINUOUS
 66
     1
 40
0.000000
 41
0.000000
  0
VERTEX
  8
0
  6
CONTINUOUS
 10
5.029640
 20
1.037080
  0
VERTEX
  8
0
  6
CONTINUOUS
 10
5.684800
 20
1.413280
  0
VERTEX
  8
0
  6
CONTINUOUS
 10
5.669400
 20
1.390400
  0
VERTEX
  8
0
  6
CONTINUOUS
 10
5.013800
 20
1.013760
  0
VERTEX
  8
0
  6
CONTINUOUS
 10
5.029640
 20
1.037080
  0
SEQEND
  8
0
  0
SOLID
  8
0
 62
    15
 10
5.013800
 20
1.013760
 11
5.669400
 21
1.390400
 12
4.995320
 22
0.993520
 13
5.650920
 23
1.369720
  0
POLYLINE
  8
0
  6
CONTINUOUS
 66
     1
 40
0.000000
 41
0.000000
  0
VERTEX
  8
0
  6
CONTINUOUS
 10
5.013800
 20
1.013760
  0
VERTEX
  8
0
  6
CONTINUOUS
 10
5.669400
 20
1.390400
  0
VERTEX
  8
0
  6
CONTINUOUS
 10
5.650920
 20
1.369720
  0
VERTEX
  8
0
  6
CONTINUOUS
 10
4.995320
 20
0.993520
  0
VERTEX
  8
0
  6
CONTINUOUS
 10
5.013800
 20
1.013760
  0
SEQEND
  8
0
  0
SOLID
  8
0
 62
    15
 10
4.995320
 20
0.993520
 11
5.650920
 21
1.369720
 12
4.973760
 22
0.975920
 13
5.629360
 23
1.352120
  0
POLYLINE
  8
0
  6
CONTINUOUS
 66
     1
 40
0.000000
 41
0.000000
  0
VERTEX
  8
0
  6
CONTINUOUS
 10
4.995320
 20
0.993520
  0
VERTEX
  8
0
  6
CONTINUOUS
 10
5.650920
 20
1.369720
  0
VERTEX
  8
0
  6
CONTINUOUS
 10
5.629360
 20
1.352120
  0
VERTEX
  8
0
  6
CONTINUOUS
 10
4.973760
 20
0.975920
  0
VERTEX
  8
0
  6
CONTINUOUS
 10
4.995320
 20
0.993520
  0
SEQEND
  8
0
  0
SOLID
  8
0
 62
    15
 10
4.268000
 20
2.229920
 11
4.923600
 21
2.606120
 12
4.462480
 22
2.229920
 13
5.118080
 23
2.606120
  0
POLYLINE
  8
0
  6
CONTINUOUS
 66
     1
 40
0.000000
 41
0.000000
  0
VERTEX
  8
0
  6
CONTINUOUS
 10
4.268000
 20
2.229920
  0
VERTEX
  8
0
  6
CONTINUOUS
 10
4.923600
 20
2.606120
  0
VERTEX
  8
0
  6
CONTINUOUS
 10
5.118080
 20
2.606120
  0
VERTEX
  8
0
  6
CONTINUOUS
 10
4.462480
 20
2.229920
  0
VERTEX
  8
0
  6
CONTINUOUS
 10
4.268000
 20
2.229920
  0
SEQEND
  8
0
  0
SOLID
  8
0
 62
    15
 10
4.462480
 20
2.229920
 11
5.118080
 21
2.606120
 12
4.462480
 22
2.093520
 13
5.118080
 23
2.470160
  0
POLYLINE
  8
0
  6
CONTINUOUS
 66
     1
 40
0.000000
 41
0.000000
  0
VERTEX
  8
0
  6
CONTINUOUS
 10
4.462480
 20
2.229920
  0
VERTEX
  8
0
  6
CONTINUOUS
 10
5.118080
 20
2.606120
  0
VERTEX
  8
0
  6
CONTINUOUS
 10
5.118080
 20
2.470160
  0
VERTEX
  8
0
  6
CONTINUOUS
 10
4.462480
 20
2.093520
  0
VERTEX
  8
0
  6
CONTINUOUS
 10
4.462480
 20
2.229920
  0
SEQEND
  8
0
  0
SOLID
  8
0
 62
    15
 10
4.462480
 20
2.093520
 11
5.118080
 21
2.470160
 12
4.465560
 22
2.094400
 13
5.121160
 23
2.470600
  0
POLYLINE
  8
0
  6
CONTINUOUS
 66
     1
 40
0.000000
 41
0.000000
  0
VERTEX
  8
0
  6
CONTINUOUS
 10
4.462480
 20
2.093520
  0
VERTEX
  8
0
  6
CONTINUOUS
 10
5.118080
 20
2.470160
  0
VERTEX
  8
0
  6
CONTINUOUS
 10
5.121160
 20
2.470600
  0
VERTEX
  8
0
  6
CONTINUOUS
 10
4.465560
 20
2.094400
  0
VERTEX
  8
0
  6
CONTINUOUS
 10
4.462480
 20
2.093520
  0
SEQEND
  8
0
  0
POLYLINE
  8
0
  6
CONTINUOUS
 66
     1
 40
0.000000
 41
0.000000
  0
VERTEX
  8
0
  6
CONTINUOUS
 10
4.465560
 20
2.094400
  0
VERTEX
  8
0
  6
CONTINUOUS
 10
4.493720
 20
2.091760
  0
VERTEX
  8
0
  6
CONTINUOUS
 10
4.518360
 20
2.085160
  0
VERTEX
  8
0
  6
CONTINUOUS
 10
4.539480
 20
2.074160
  0
VERTEX
  8
0
  6
CONTINUOUS
 10
4.556640
 20
2.060520
  0
VERTEX
  8
0
  6
CONTINUOUS
 10
4.569840
 20
2.043800
  0
VERTEX
  8
0
  6
CONTINUOUS
 10
4.579520
 20
2.025320
  0
VERTEX
  8
0
  6
CONTINUOUS
 10
4.585240
 20
2.005080
  0
VERTEX
  8
0
  6
CONTINUOUS
 10
4.587440
 20
1.983960
  0
VERTEX
  8
0
  6
CONTINUOUS
 10
4.580840
 20
1.942160
  0
VERTEX
  8
0
  6
CONTINUOUS
 10
4.571600
 20
1.921920
  0
VERTEX
  8
0
  6
CONTINUOUS
 10
4.558840
 20
1.903880
  0
VERTEX
  8
0
  6
CONTINUOUS
 10
4.542560
 20
1.887600
  0
VERTEX
  8
0
  6
CONTINUOUS
 10
4.522320
 20
1.873960
  0
VERTEX
  8
0
  6
CONTINUOUS
 10
4.498120
 20
1.863840
  0
VERTEX
  8
0
  6
CONTINUOUS
 10
4.470840
 20
1.857680
  0
VERTEX
  8
0
  6
CONTINUOUS
 10
4.469080
 20
1.792560
  0
VERTEX
  8
0
  6
CONTINUOUS
 10
4.472600
 20
1.737120
  0
VERTEX
  8
0
  6
CONTINUOUS
 10
4.481400
 20
1.690040
  0
VERTEX
  8
0
  6
CONTINUOUS
 10
4.496360
 20
1.649560
  0
VERTEX
  8
0
  6
CONTINUOUS
 10
4.517040
 20
1.614360
  0
VERTEX
  8
0
  6
CONTINUOUS
 10
4.544320
 20
1.583120
  0
VERTEX
  8
0
  6
CONTINUOUS
 10
4.578200
 20
1.554520
  0
VERTEX
  8
0
  6
CONTINUOUS
 10
4.629240
 20
1.521520
  0
VERTEX
  8
0
  6
CONTINUOUS
 10
4.777080
 20
1.451560
  0
VERTEX
  8
0
  6
CONTINUOUS
 10
4.881800
 20
1.398320
  0
VERTEX
  8
0
  6
CONTINUOUS
 10
4.928000
 20
1.371480
  0
VERTEX
  8
0
  6
CONTINUOUS
 10
4.964520
 20
1.345080
  0
VERTEX
  8
0
  6
CONTINUOUS
 10
4.990480
 20
1.321320
  0
VERTEX
  8
0
  6
CONTINUOUS
 10
5.011600
 20
1.295360
  0
VERTEX
  8
0
  6
CONTINUOUS
 10
5.028760
 20
1.267640
  0
VERTEX
  8
0
  6
CONTINUOUS
 10
5.041960
 20
1.238600
  0
VERTEX
  8
0
  6
CONTINUOUS
 10
5.051200
 20
1.208680
  0
VERTEX
  8
0
  6
CONTINUOUS
 10
5.056480
 20
1.178320
  0
VERTEX
  8
0
  6
CONTINUOUS
 10
5.056040
 20
1.118480
  0
VERTEX
  8
0
  6
CONTINUOUS
 10
5.050760
 20
1.089880
  0
VERTEX
  8
0
  6
CONTINUOUS
 10
5.041960
 20
1.062600
  0
VERTEX
  8
0
  6
CONTINUOUS
 10
5.029640
 20
1.037080
  0
VERTEX
  8
0
  6
CONTINUOUS
 10
5.013800
 20
1.013760
  0
VERTEX
  8
0
  6
CONTINUOUS
 10
4.995320
 20
0.993520
  0
VERTEX
  8
0
  6
CONTINUOUS
 10
4.973760
 20
0.975920
  0
VERTEX
  8
0
  6
CONTINUOUS
 10
4.949120
 20
0.962280
  0
VERTEX
  8
0
  6
CONTINUOUS
 10
4.921840
 20
0.952600
  0
VERTEX
  8
0
  6
CONTINUOUS
 10
4.268000
 20
0.952600
  0
VERTEX
  8
0
  6
CONTINUOUS
 10
4.268000
 20
2.229920
  0
VERTEX
  8
0
  6
CONTINUOUS
 10
4.462480
 20
2.229920
  0
VERTEX
  8
0
  6
CONTINUOUS
 10
4.462480
 20
2.093520
  0
VERTEX
  8
0
  6
CONTINUOUS
 10
4.465560
 20
2.094400
  0
SEQEND
  8
0
  0
TEXT
  8
0
 10
4.694800
 20
0.703560
 40
0.138112
  1
BA  557
 41
1.000000
  7
SN0
 71
     0
 72
     5
 11
5.284907
 21
0.703560
  0
TEXT
  8
0
 10
4.446640
 20
0.512160
 40
0.138112
  1
13/16" x 1-1/4"
 41
1.000000
  7
SN0
 71
     0
 72
     5
 11
5.531497
 21
0.512160
  0
ENDSEC
  0
EOF
