  0
SECTION
  2
HEADER
  9
$ACADVER
  1
AC1006
  9
$EXTMIN
 10
2.464440
 20
0.398640
  9
$EXTMAX
 10
7.174200
 20
2.731080
  9
$LTSCALE
 40
0.044000
  9
$PDMODE
 70
    35
  9
$PDSIZE
 40
0.035200
  0
ENDSEC
  0
SECTION
  2
TABLES
  0
TABLE
  2
LTYPE
 70
     9
  0
LTYPE
  2
CONTINUOUS
 70
    64
  3
Solid line
 72
    65
 73
     0
 40
0.000000
  0
LTYPE
  2
DASHED
 70
    64
  3
__ __ __ __ __ __ __ __ __ __ __ __ __ __ __
 72
    65
 73
     2
 40
0.000330
 49
0.000220
 49
-0.000110
  0
LTYPE
  2
HIDDEN
 70
    64
  3
 _ _ _ _ _ _ _ _ _ _ _ _ _ _ _ _ _ _ _ _ _ _
 72
    65
 73
     2
 40
0.000165
 49
0.000110
 49
-0.000055
  0
LTYPE
  2
CENTER
 70
    64
  3
____ _ ____ _ ____ _ ____ _ ____ _ ____ _ ____
 72
    65
 73
     4
 40
0.000880
 49
0.000550
 49
-0.000110
 49
0.000110
 49
-0.000110
  0
LTYPE
  2
PHANTOM
 70
    64
  3
_____ _ _ _____ _ _ _____ _ _ _____ _ _ ____
 72
    65
 73
     6
 40
0.001100
 49
0.000550
 49
-0.000110
 49
0.000110
 49
-0.000110
 49
0.000110
 49
-0.000110
  0
LTYPE
  2
DOT
 70
    64
  3
...............................................
 72
    65
 73
     2
 40
0.000110
 49
0.000000
 49
-0.000110
  0
LTYPE
  2
DASHDOT
 70
    64
  3
__ . __ . __ . __ . __ . __ . __ . __ . __ . __
 72
    65
 73
     4
 40
0.000440
 49
0.000220
 49
-0.000110
 49
0.000000
 49
-0.000110
  0
LTYPE
  2
BORDER
 70
    64
  3
__ __ . __ __ . __ __ . __ __ . __ __ . __ __
 72
    65
 73
     6
 40
0.000770
 49
0.000220
 49
-0.000110
 49
0.000220
 49
-0.000110
 49
0.000000
 49
-0.000110
  0
LTYPE
  2
DIVIDE
 70
    64
  3
__ . . __ . . __ . . __ . . __ . . __ . . __
 72
    65
 73
     6
 40
0.000550
 49
0.000220
 49
-0.000110
 49
0.000000
 49
-0.000110
 49
0.000000
 49
-0.000110
  0
LTYPE
  2
DOTDOT
 70
    64
  3
 . .  . .  . .  . .  . .  . . 
 72
    65
 73
     5
 40
0.000242
 49
-0.000110
 49
0.000000
 49
-0.000110
 49
0.000000
 49
-0.000110
  0
ENDTAB
  0
TABLE
  2
STYLE
 70
     2
  0
STYLE
 70
     0
  2
SN0
 40
0.000000
 41
0.000440
 50
0.000000
 71
     0
 42
0.000000
  3
ROMAND
  0
STYLE
 70
    68
  2
SV0
 40
0.000000
 41
0.000440
 50
0.000000
 71
     0
 42
0.000000
  3
ROMAND
  0
ENDTAB
  0
TABLE
  2
LAYER
 70
     3
  0
LAYER
  2
FOREGROUND
 70
    64
 62
     7
  6
CONTINUOUS
  0
LAYER
  2
BACKGROUND
 70
    65
 62
    -7
  6
CONTINUOUS
  0
LAYER
  2
0
 70
    64
 62
     7
  6
CONTINUOUS
  0
ENDTAB
  0
ENDSEC
  0
SECTION
  2
ENTITIES
  0
POLYLINE
  8
FOREGROUND
  6
CONTINUOUS
 66
     1
 40
0.000000
 41
0.000000
  0
VERTEX
  8
FOREGROUND
  6
CONTINUOUS
 10
0.000000
 20
3.129720
  0
VERTEX
  8
FOREGROUND
  6
CONTINUOUS
 10
8.499920
 20
3.129720
  0
VERTEX
  8
FOREGROUND
  6
CONTINUOUS
 10
8.499920
 20
-7.870280
  0
VERTEX
  8
FOREGROUND
  6
CONTINUOUS
 10
0.000000
 20
-7.870280
  0
VERTEX
  8
FOREGROUND
  6
CONTINUOUS
 10
0.000000
 20
3.129720
  0
SEQEND
  8
0
  0
POLYLINE
  8
FOREGROUND
  6
CONTINUOUS
 66
     1
 40
0.000000
 41
0.000000
  0
VERTEX
  8
FOREGROUND
  6
CONTINUOUS
 10
0.000000
 20
3.129720
  0
VERTEX
  8
FOREGROUND
  6
CONTINUOUS
 10
8.499920
 20
3.129720
  0
VERTEX
  8
FOREGROUND
  6
CONTINUOUS
 10
8.499920
 20
-7.870280
  0
VERTEX
  8
FOREGROUND
  6
CONTINUOUS
 10
0.000000
 20
-7.870280
  0
VERTEX
  8
FOREGROUND
  6
CONTINUOUS
 10
0.000000
 20
3.129720
  0
SEQEND
  8
0
  0
POLYLINE
  8
0
  6
CONTINUOUS
 66
     1
 40
0.014080
 41
0.014080
  0
VERTEX
  8
0
  6
CONTINUOUS
 10
4.989600
 20
2.357960
  0
VERTEX
  8
0
  6
CONTINUOUS
 10
5.012040
 20
2.390960
  0
VERTEX
  8
0
  6
CONTINUOUS
 10
5.035800
 20
2.422640
  0
VERTEX
  8
0
  6
CONTINUOUS
 10
5.087280
 20
2.481600
  0
VERTEX
  8
0
  6
CONTINUOUS
 10
5.143160
 20
2.533520
  0
VERTEX
  8
0
  6
CONTINUOUS
 10
5.203440
 20
2.579720
  0
VERTEX
  8
0
  6
CONTINUOUS
 10
5.266800
 20
2.618880
  0
VERTEX
  8
0
  6
CONTINUOUS
 10
5.299800
 20
2.636040
  0
VERTEX
  8
0
  6
CONTINUOUS
 10
5.333240
 20
2.651440
  0
VERTEX
  8
0
  6
CONTINUOUS
 10
5.402320
 20
2.677400
  0
VERTEX
  8
0
  6
CONTINUOUS
 10
5.473600
 20
2.696320
  0
VERTEX
  8
0
  6
CONTINUOUS
 10
5.546200
 20
2.708200
  0
VERTEX
  8
0
  6
CONTINUOUS
 10
5.619680
 20
2.713040
  0
VERTEX
  8
0
  6
CONTINUOUS
 10
5.657080
 20
2.712600
  0
VERTEX
  8
0
  6
CONTINUOUS
 10
5.694040
 20
2.710400
  0
VERTEX
  8
0
  6
CONTINUOUS
 10
5.731440
 20
2.706440
  0
VERTEX
  8
0
  6
CONTINUOUS
 10
5.805360
 20
2.692800
  0
VERTEX
  8
0
  6
CONTINUOUS
 10
5.842320
 20
2.683120
  0
VERTEX
  8
0
  6
CONTINUOUS
 10
5.878840
 20
2.671680
  0
VERTEX
  8
0
  6
CONTINUOUS
 10
5.915360
 20
2.658040
  0
VERTEX
  8
0
  6
CONTINUOUS
 10
5.986640
 20
2.625480
  0
VERTEX
  8
0
  6
CONTINUOUS
 10
6.064520
 20
2.580600
  0
VERTEX
  8
0
  6
CONTINUOUS
 10
6.208400
 20
2.703800
  0
VERTEX
  8
0
  6
CONTINUOUS
 10
6.212360
 20
2.703800
  0
VERTEX
  8
0
  6
CONTINUOUS
 10
6.244480
 20
2.665080
  0
VERTEX
  8
0
  6
CONTINUOUS
 10
6.281880
 20
2.631640
  0
VERTEX
  8
0
  6
CONTINUOUS
 10
6.324120
 20
2.603040
  0
VERTEX
  8
0
  6
CONTINUOUS
 10
6.369880
 20
2.579720
  0
VERTEX
  8
0
  6
CONTINUOUS
 10
6.418720
 20
2.561680
  0
VERTEX
  8
0
  6
CONTINUOUS
 10
6.469760
 20
2.548920
  0
VERTEX
  8
0
  6
CONTINUOUS
 10
6.522560
 20
2.541440
  0
VERTEX
  8
0
  6
CONTINUOUS
 10
6.575800
 20
2.539240
  0
VERTEX
  8
0
  6
CONTINUOUS
 10
6.602640
 20
2.540120
  0
VERTEX
  8
0
  6
CONTINUOUS
 10
6.655440
 20
2.546280
  0
VERTEX
  8
0
  6
CONTINUOUS
 10
6.707800
 20
2.558160
  0
VERTEX
  8
0
  6
CONTINUOUS
 10
6.757520
 20
2.575760
  0
VERTEX
  8
0
  6
CONTINUOUS
 10
6.805040
 20
2.599080
  0
VERTEX
  8
0
  6
CONTINUOUS
 10
6.827480
 20
2.612720
  0
VERTEX
  8
0
  6
CONTINUOUS
 10
6.869720
 20
2.644840
  0
VERTEX
  8
0
  6
CONTINUOUS
 10
6.889080
 20
2.662880
  0
VERTEX
  8
0
  6
CONTINUOUS
 10
6.923840
 20
2.703800
  0
VERTEX
  8
0
  6
CONTINUOUS
 10
6.939240
 20
2.726680
  0
VERTEX
  8
0
  6
CONTINUOUS
 10
7.168480
 20
2.441120
  0
VERTEX
  8
0
  6
CONTINUOUS
 10
6.847720
 20
2.145440
  0
VERTEX
  8
0
  6
CONTINUOUS
 10
5.181000
 20
2.145440
  0
VERTEX
  8
0
  6
CONTINUOUS
 10
4.989600
 20
2.349600
  0
VERTEX
  8
0
  6
CONTINUOUS
 10
4.989600
 20
2.357960
  0
SEQEND
  8
0
  0
SOLID
  8
0
 62
    15
 10
3.322880
 20
1.582680
 11
3.969240
 21
1.202520
 12
3.314080
 22
1.579600
 13
3.960880
 23
1.199440
  0
POLYLINE
  8
0
  6
CONTINUOUS
 66
     1
 40
0.000000
 41
0.000000
  0
VERTEX
  8
0
  6
CONTINUOUS
 10
3.322880
 20
1.582680
  0
VERTEX
  8
0
  6
CONTINUOUS
 10
3.969240
 20
1.202520
  0
VERTEX
  8
0
  6
CONTINUOUS
 10
3.960880
 20
1.199440
  0
VERTEX
  8
0
  6
CONTINUOUS
 10
3.314080
 20
1.579600
  0
VERTEX
  8
0
  6
CONTINUOUS
 10
3.322880
 20
1.582680
  0
SEQEND
  8
0
  0
SOLID
  8
0
 62
    15
 10
3.887840
 20
2.447720
 11
4.534640
 21
2.067560
 12
3.896640
 22
2.369840
 13
4.543440
 23
1.989680
  0
POLYLINE
  8
0
  6
CONTINUOUS
 66
     1
 40
0.000000
 41
0.000000
  0
VERTEX
  8
0
  6
CONTINUOUS
 10
3.887840
 20
2.447720
  0
VERTEX
  8
0
  6
CONTINUOUS
 10
4.534640
 20
2.067560
  0
VERTEX
  8
0
  6
CONTINUOUS
 10
4.543440
 20
1.989680
  0
VERTEX
  8
0
  6
CONTINUOUS
 10
3.896640
 20
2.369840
  0
VERTEX
  8
0
  6
CONTINUOUS
 10
3.887840
 20
2.447720
  0
SEQEND
  8
0
  0
SOLID
  8
0
 62
    15
 10
3.896640
 20
2.369840
 11
4.543440
 21
1.989680
 12
3.897960
 22
2.293280
 13
4.544760
 23
1.913120
  0
POLYLINE
  8
0
  6
CONTINUOUS
 66
     1
 40
0.000000
 41
0.000000
  0
VERTEX
  8
0
  6
CONTINUOUS
 10
3.896640
 20
2.369840
  0
VERTEX
  8
0
  6
CONTINUOUS
 10
4.543440
 20
1.989680
  0
VERTEX
  8
0
  6
CONTINUOUS
 10
4.544760
 20
1.913120
  0
VERTEX
  8
0
  6
CONTINUOUS
 10
3.897960
 20
2.293280
  0
VERTEX
  8
0
  6
CONTINUOUS
 10
3.896640
 20
2.369840
  0
SEQEND
  8
0
  0
SOLID
  8
0
 62
    15
 10
3.897960
 20
2.293280
 11
4.544760
 21
1.913120
 12
3.891800
 22
2.218040
 13
4.538160
 23
1.837880
  0
POLYLINE
  8
0
  6
CONTINUOUS
 66
     1
 40
0.000000
 41
0.000000
  0
VERTEX
  8
0
  6
CONTINUOUS
 10
3.897960
 20
2.293280
  0
VERTEX
  8
0
  6
CONTINUOUS
 10
4.544760
 20
1.913120
  0
VERTEX
  8
0
  6
CONTINUOUS
 10
4.538160
 20
1.837880
  0
VERTEX
  8
0
  6
CONTINUOUS
 10
3.891800
 20
2.218040
  0
VERTEX
  8
0
  6
CONTINUOUS
 10
3.897960
 20
2.293280
  0
SEQEND
  8
0
  0
SOLID
  8
0
 62
    15
 10
3.891800
 20
2.218040
 11
4.538160
 21
1.837880
 12
3.878160
 22
2.144560
 13
4.524960
 23
1.764400
  0
POLYLINE
  8
0
  6
CONTINUOUS
 66
     1
 40
0.000000
 41
0.000000
  0
VERTEX
  8
0
  6
CONTINUOUS
 10
3.891800
 20
2.218040
  0
VERTEX
  8
0
  6
CONTINUOUS
 10
4.538160
 20
1.837880
  0
VERTEX
  8
0
  6
CONTINUOUS
 10
4.524960
 20
1.764400
  0
VERTEX
  8
0
  6
CONTINUOUS
 10
3.878160
 20
2.144560
  0
VERTEX
  8
0
  6
CONTINUOUS
 10
3.891800
 20
2.218040
  0
SEQEND
  8
0
  0
SOLID
  8
0
 62
    15
 10
3.878160
 20
2.144560
 11
4.524960
 21
1.764400
 12
3.857480
 22
2.073280
 13
4.504280
 23
1.693560
  0
POLYLINE
  8
0
  6
CONTINUOUS
 66
     1
 40
0.000000
 41
0.000000
  0
VERTEX
  8
0
  6
CONTINUOUS
 10
3.878160
 20
2.144560
  0
VERTEX
  8
0
  6
CONTINUOUS
 10
4.524960
 20
1.764400
  0
VERTEX
  8
0
  6
CONTINUOUS
 10
4.504280
 20
1.693560
  0
VERTEX
  8
0
  6
CONTINUOUS
 10
3.857480
 20
2.073280
  0
VERTEX
  8
0
  6
CONTINUOUS
 10
3.878160
 20
2.144560
  0
SEQEND
  8
0
  0
SOLID
  8
0
 62
    15
 10
3.857480
 20
2.073280
 11
4.504280
 21
1.693560
 12
3.830200
 22
2.005080
 13
4.477000
 23
1.624920
  0
POLYLINE
  8
0
  6
CONTINUOUS
 66
     1
 40
0.000000
 41
0.000000
  0
VERTEX
  8
0
  6
CONTINUOUS
 10
3.857480
 20
2.073280
  0
VERTEX
  8
0
  6
CONTINUOUS
 10
4.504280
 20
1.693560
  0
VERTEX
  8
0
  6
CONTINUOUS
 10
4.477000
 20
1.624920
  0
VERTEX
  8
0
  6
CONTINUOUS
 10
3.830200
 20
2.005080
  0
VERTEX
  8
0
  6
CONTINUOUS
 10
3.857480
 20
2.073280
  0
SEQEND
  8
0
  0
SOLID
  8
0
 62
    15
 10
3.830200
 20
2.005080
 11
4.477000
 21
1.624920
 12
3.796760
 22
1.939520
 13
4.443120
 23
1.559360
  0
POLYLINE
  8
0
  6
CONTINUOUS
 66
     1
 40
0.000000
 41
0.000000
  0
VERTEX
  8
0
  6
CONTINUOUS
 10
3.830200
 20
2.005080
  0
VERTEX
  8
0
  6
CONTINUOUS
 10
4.477000
 20
1.624920
  0
VERTEX
  8
0
  6
CONTINUOUS
 10
4.443120
 20
1.559360
  0
VERTEX
  8
0
  6
CONTINUOUS
 10
3.796760
 20
1.939520
  0
VERTEX
  8
0
  6
CONTINUOUS
 10
3.830200
 20
2.005080
  0
SEQEND
  8
0
  0
SOLID
  8
0
 62
    15
 10
3.796760
 20
1.939520
 11
4.443120
 21
1.559360
 12
3.756720
 22
1.877920
 13
4.403080
 23
1.497760
  0
POLYLINE
  8
0
  6
CONTINUOUS
 66
     1
 40
0.000000
 41
0.000000
  0
VERTEX
  8
0
  6
CONTINUOUS
 10
3.796760
 20
1.939520
  0
VERTEX
  8
0
  6
CONTINUOUS
 10
4.443120
 20
1.559360
  0
VERTEX
  8
0
  6
CONTINUOUS
 10
4.403080
 20
1.497760
  0
VERTEX
  8
0
  6
CONTINUOUS
 10
3.756720
 20
1.877920
  0
VERTEX
  8
0
  6
CONTINUOUS
 10
3.796760
 20
1.939520
  0
SEQEND
  8
0
  0
SOLID
  8
0
 62
    15
 10
3.756720
 20
1.877920
 11
4.403080
 21
1.497760
 12
3.710520
 22
1.819840
 13
4.357320
 23
1.439680
  0
POLYLINE
  8
0
  6
CONTINUOUS
 66
     1
 40
0.000000
 41
0.000000
  0
VERTEX
  8
0
  6
CONTINUOUS
 10
3.756720
 20
1.877920
  0
VERTEX
  8
0
  6
CONTINUOUS
 10
4.403080
 20
1.497760
  0
VERTEX
  8
0
  6
CONTINUOUS
 10
4.357320
 20
1.439680
  0
VERTEX
  8
0
  6
CONTINUOUS
 10
3.710520
 20
1.819840
  0
VERTEX
  8
0
  6
CONTINUOUS
 10
3.756720
 20
1.877920
  0
SEQEND
  8
0
  0
SOLID
  8
0
 62
    15
 10
3.710520
 20
1.819840
 11
4.357320
 21
1.439680
 12
3.659040
 22
1.766600
 13
4.305400
 23
1.386440
  0
POLYLINE
  8
0
  6
CONTINUOUS
 66
     1
 40
0.000000
 41
0.000000
  0
VERTEX
  8
0
  6
CONTINUOUS
 10
3.710520
 20
1.819840
  0
VERTEX
  8
0
  6
CONTINUOUS
 10
4.357320
 20
1.439680
  0
VERTEX
  8
0
  6
CONTINUOUS
 10
4.305400
 20
1.386440
  0
VERTEX
  8
0
  6
CONTINUOUS
 10
3.659040
 20
1.766600
  0
VERTEX
  8
0
  6
CONTINUOUS
 10
3.710520
 20
1.819840
  0
SEQEND
  8
0
  0
SOLID
  8
0
 62
    15
 10
3.659040
 20
1.766600
 11
4.305400
 21
1.386440
 12
3.601840
 22
1.718200
 13
4.248200
 23
1.338040
  0
POLYLINE
  8
0
  6
CONTINUOUS
 66
     1
 40
0.000000
 41
0.000000
  0
VERTEX
  8
0
  6
CONTINUOUS
 10
3.659040
 20
1.766600
  0
VERTEX
  8
0
  6
CONTINUOUS
 10
4.305400
 20
1.386440
  0
VERTEX
  8
0
  6
CONTINUOUS
 10
4.248200
 20
1.338040
  0
VERTEX
  8
0
  6
CONTINUOUS
 10
3.601840
 20
1.718200
  0
VERTEX
  8
0
  6
CONTINUOUS
 10
3.659040
 20
1.766600
  0
SEQEND
  8
0
  0
SOLID
  8
0
 62
    15
 10
3.601840
 20
1.718200
 11
4.248200
 21
1.338040
 12
3.539360
 22
1.675080
 13
4.185720
 23
1.294920
  0
POLYLINE
  8
0
  6
CONTINUOUS
 66
     1
 40
0.000000
 41
0.000000
  0
VERTEX
  8
0
  6
CONTINUOUS
 10
3.601840
 20
1.718200
  0
VERTEX
  8
0
  6
CONTINUOUS
 10
4.248200
 20
1.338040
  0
VERTEX
  8
0
  6
CONTINUOUS
 10
4.185720
 20
1.294920
  0
VERTEX
  8
0
  6
CONTINUOUS
 10
3.539360
 20
1.675080
  0
VERTEX
  8
0
  6
CONTINUOUS
 10
3.601840
 20
1.718200
  0
SEQEND
  8
0
  0
SOLID
  8
0
 62
    15
 10
3.539360
 20
1.675080
 11
4.185720
 21
1.294920
 12
3.471600
 22
1.638120
 13
4.118400
 23
1.257960
  0
POLYLINE
  8
0
  6
CONTINUOUS
 66
     1
 40
0.000000
 41
0.000000
  0
VERTEX
  8
0
  6
CONTINUOUS
 10
3.539360
 20
1.675080
  0
VERTEX
  8
0
  6
CONTINUOUS
 10
4.185720
 20
1.294920
  0
VERTEX
  8
0
  6
CONTINUOUS
 10
4.118400
 20
1.257960
  0
VERTEX
  8
0
  6
CONTINUOUS
 10
3.471600
 20
1.638120
  0
VERTEX
  8
0
  6
CONTINUOUS
 10
3.539360
 20
1.675080
  0
SEQEND
  8
0
  0
SOLID
  8
0
 62
    15
 10
3.471600
 20
1.638120
 11
4.118400
 21
1.257960
 12
3.399440
 22
1.606880
 13
4.046240
 23
1.226720
  0
POLYLINE
  8
0
  6
CONTINUOUS
 66
     1
 40
0.000000
 41
0.000000
  0
VERTEX
  8
0
  6
CONTINUOUS
 10
3.471600
 20
1.638120
  0
VERTEX
  8
0
  6
CONTINUOUS
 10
4.118400
 20
1.257960
  0
VERTEX
  8
0
  6
CONTINUOUS
 10
4.046240
 20
1.226720
  0
VERTEX
  8
0
  6
CONTINUOUS
 10
3.399440
 20
1.606880
  0
VERTEX
  8
0
  6
CONTINUOUS
 10
3.471600
 20
1.638120
  0
SEQEND
  8
0
  0
SOLID
  8
0
 62
    15
 10
3.399440
 20
1.606880
 11
4.046240
 21
1.226720
 12
3.322880
 22
1.582680
 13
3.969240
 23
1.202520
  0
POLYLINE
  8
0
  6
CONTINUOUS
 66
     1
 40
0.000000
 41
0.000000
  0
VERTEX
  8
0
  6
CONTINUOUS
 10
3.399440
 20
1.606880
  0
VERTEX
  8
0
  6
CONTINUOUS
 10
4.046240
 20
1.226720
  0
VERTEX
  8
0
  6
CONTINUOUS
 10
3.969240
 20
1.202520
  0
VERTEX
  8
0
  6
CONTINUOUS
 10
3.322880
 20
1.582680
  0
VERTEX
  8
0
  6
CONTINUOUS
 10
3.399440
 20
1.606880
  0
SEQEND
  8
0
  0
SOLID
  8
0
 62
    15
 10
3.871120
 20
2.525600
 11
4.517480
 21
2.145440
 12
3.887840
 22
2.447720
 13
4.534640
 23
2.067560
  0
POLYLINE
  8
0
  6
CONTINUOUS
 66
     1
 40
0.000000
 41
0.000000
  0
VERTEX
  8
0
  6
CONTINUOUS
 10
3.871120
 20
2.525600
  0
VERTEX
  8
0
  6
CONTINUOUS
 10
4.517480
 20
2.145440
  0
VERTEX
  8
0
  6
CONTINUOUS
 10
4.534640
 20
2.067560
  0
VERTEX
  8
0
  6
CONTINUOUS
 10
3.887840
 20
2.447720
  0
VERTEX
  8
0
  6
CONTINUOUS
 10
3.871120
 20
2.525600
  0
SEQEND
  8
0
  0
SOLID
  8
0
 62
    15
 10
3.314080
 20
1.579600
 11
3.960880
 21
1.199440
 12
3.308800
 22
1.390400
 13
3.955160
 23
1.010240
  0
POLYLINE
  8
0
  6
CONTINUOUS
 66
     1
 40
0.000000
 41
0.000000
  0
VERTEX
  8
0
  6
CONTINUOUS
 10
3.314080
 20
1.579600
  0
VERTEX
  8
0
  6
CONTINUOUS
 10
3.960880
 20
1.199440
  0
VERTEX
  8
0
  6
CONTINUOUS
 10
3.955160
 20
1.010240
  0
VERTEX
  8
0
  6
CONTINUOUS
 10
3.308800
 20
1.390400
  0
VERTEX
  8
0
  6
CONTINUOUS
 10
3.314080
 20
1.579600
  0
SEQEND
  8
0
  0
SOLID
  8
0
 62
    15
 10
3.308800
 20
1.390400
 11
3.955160
 21
1.010240
 12
3.305720
 22
1.387320
 13
3.952520
 23
1.007160
  0
POLYLINE
  8
0
  6
CONTINUOUS
 66
     1
 40
0.000000
 41
0.000000
  0
VERTEX
  8
0
  6
CONTINUOUS
 10
3.308800
 20
1.390400
  0
VERTEX
  8
0
  6
CONTINUOUS
 10
3.955160
 20
1.010240
  0
VERTEX
  8
0
  6
CONTINUOUS
 10
3.952520
 20
1.007160
  0
VERTEX
  8
0
  6
CONTINUOUS
 10
3.305720
 20
1.387320
  0
VERTEX
  8
0
  6
CONTINUOUS
 10
3.308800
 20
1.390400
  0
SEQEND
  8
0
  0
SOLID
  8
0
 62
    15
 10
3.305720
 20
1.387320
 11
3.952520
 21
1.007160
 12
3.255560
 22
1.389520
 13
3.902360
 23
1.009360
  0
POLYLINE
  8
0
  6
CONTINUOUS
 66
     1
 40
0.000000
 41
0.000000
  0
VERTEX
  8
0
  6
CONTINUOUS
 10
3.305720
 20
1.387320
  0
VERTEX
  8
0
  6
CONTINUOUS
 10
3.952520
 20
1.007160
  0
VERTEX
  8
0
  6
CONTINUOUS
 10
3.902360
 20
1.009360
  0
VERTEX
  8
0
  6
CONTINUOUS
 10
3.255560
 20
1.389520
  0
VERTEX
  8
0
  6
CONTINUOUS
 10
3.305720
 20
1.387320
  0
SEQEND
  8
0
  0
SOLID
  8
0
 62
    15
 10
3.255560
 20
1.389520
 11
3.902360
 21
1.009360
 12
3.205400
 22
1.384240
 13
3.852200
 23
1.004080
  0
POLYLINE
  8
0
  6
CONTINUOUS
 66
     1
 40
0.000000
 41
0.000000
  0
VERTEX
  8
0
  6
CONTINUOUS
 10
3.255560
 20
1.389520
  0
VERTEX
  8
0
  6
CONTINUOUS
 10
3.902360
 20
1.009360
  0
VERTEX
  8
0
  6
CONTINUOUS
 10
3.852200
 20
1.004080
  0
VERTEX
  8
0
  6
CONTINUOUS
 10
3.205400
 20
1.384240
  0
VERTEX
  8
0
  6
CONTINUOUS
 10
3.255560
 20
1.389520
  0
SEQEND
  8
0
  0
SOLID
  8
0
 62
    15
 10
3.205400
 20
1.384240
 11
3.852200
 21
1.004080
 12
3.108160
 22
1.353880
 13
3.754960
 23
0.973720
  0
POLYLINE
  8
0
  6
CONTINUOUS
 66
     1
 40
0.000000
 41
0.000000
  0
VERTEX
  8
0
  6
CONTINUOUS
 10
3.205400
 20
1.384240
  0
VERTEX
  8
0
  6
CONTINUOUS
 10
3.852200
 20
1.004080
  0
VERTEX
  8
0
  6
CONTINUOUS
 10
3.754960
 20
0.973720
  0
VERTEX
  8
0
  6
CONTINUOUS
 10
3.108160
 20
1.353880
  0
VERTEX
  8
0
  6
CONTINUOUS
 10
3.205400
 20
1.384240
  0
SEQEND
  8
0
  0
SOLID
  8
0
 62
    15
 10
3.108160
 20
1.353880
 11
3.754960
 21
0.973720
 12
3.017960
 22
1.300640
 13
3.664760
 23
0.920480
  0
POLYLINE
  8
0
  6
CONTINUOUS
 66
     1
 40
0.000000
 41
0.000000
  0
VERTEX
  8
0
  6
CONTINUOUS
 10
3.108160
 20
1.353880
  0
VERTEX
  8
0
  6
CONTINUOUS
 10
3.754960
 20
0.973720
  0
VERTEX
  8
0
  6
CONTINUOUS
 10
3.664760
 20
0.920480
  0
VERTEX
  8
0
  6
CONTINUOUS
 10
3.017960
 20
1.300640
  0
VERTEX
  8
0
  6
CONTINUOUS
 10
3.108160
 20
1.353880
  0
SEQEND
  8
0
  0
SOLID
  8
0
 62
    15
 10
3.017960
 20
1.300640
 11
3.664760
 21
0.920480
 12
2.939640
 22
1.228480
 13
3.586440
 23
0.848320
  0
POLYLINE
  8
0
  6
CONTINUOUS
 66
     1
 40
0.000000
 41
0.000000
  0
VERTEX
  8
0
  6
CONTINUOUS
 10
3.017960
 20
1.300640
  0
VERTEX
  8
0
  6
CONTINUOUS
 10
3.664760
 20
0.920480
  0
VERTEX
  8
0
  6
CONTINUOUS
 10
3.586440
 20
0.848320
  0
VERTEX
  8
0
  6
CONTINUOUS
 10
2.939640
 20
1.228480
  0
VERTEX
  8
0
  6
CONTINUOUS
 10
3.017960
 20
1.300640
  0
SEQEND
  8
0
  0
SOLID
  8
0
 62
    15
 10
2.939640
 20
1.228480
 11
3.586440
 21
0.848320
 12
2.878040
 22
1.141360
 13
3.524400
 23
0.761200
  0
POLYLINE
  8
0
  6
CONTINUOUS
 66
     1
 40
0.000000
 41
0.000000
  0
VERTEX
  8
0
  6
CONTINUOUS
 10
2.939640
 20
1.228480
  0
VERTEX
  8
0
  6
CONTINUOUS
 10
3.586440
 20
0.848320
  0
VERTEX
  8
0
  6
CONTINUOUS
 10
3.524400
 20
0.761200
  0
VERTEX
  8
0
  6
CONTINUOUS
 10
2.878040
 20
1.141360
  0
VERTEX
  8
0
  6
CONTINUOUS
 10
2.939640
 20
1.228480
  0
SEQEND
  8
0
  0
SOLID
  8
0
 62
    15
 10
2.878040
 20
1.141360
 11
3.524400
 21
0.761200
 12
2.836680
 22
1.044120
 13
3.483480
 23
0.663960
  0
POLYLINE
  8
0
  6
CONTINUOUS
 66
     1
 40
0.000000
 41
0.000000
  0
VERTEX
  8
0
  6
CONTINUOUS
 10
2.878040
 20
1.141360
  0
VERTEX
  8
0
  6
CONTINUOUS
 10
3.524400
 20
0.761200
  0
VERTEX
  8
0
  6
CONTINUOUS
 10
3.483480
 20
0.663960
  0
VERTEX
  8
0
  6
CONTINUOUS
 10
2.836680
 20
1.044120
  0
VERTEX
  8
0
  6
CONTINUOUS
 10
2.878040
 20
1.141360
  0
SEQEND
  8
0
  0
SOLID
  8
0
 62
    15
 10
2.836680
 20
1.044120
 11
3.483480
 21
0.663960
 12
2.825240
 22
0.992640
 13
3.472040
 23
0.612480
  0
POLYLINE
  8
0
  6
CONTINUOUS
 66
     1
 40
0.000000
 41
0.000000
  0
VERTEX
  8
0
  6
CONTINUOUS
 10
2.836680
 20
1.044120
  0
VERTEX
  8
0
  6
CONTINUOUS
 10
3.483480
 20
0.663960
  0
VERTEX
  8
0
  6
CONTINUOUS
 10
3.472040
 20
0.612480
  0
VERTEX
  8
0
  6
CONTINUOUS
 10
2.825240
 20
0.992640
  0
VERTEX
  8
0
  6
CONTINUOUS
 10
2.836680
 20
1.044120
  0
SEQEND
  8
0
  0
SOLID
  8
0
 62
    15
 10
2.825240
 20
0.992640
 11
3.472040
 21
0.612480
 12
2.820840
 22
0.939840
 13
3.467200
 23
0.559680
  0
POLYLINE
  8
0
  6
CONTINUOUS
 66
     1
 40
0.000000
 41
0.000000
  0
VERTEX
  8
0
  6
CONTINUOUS
 10
2.825240
 20
0.992640
  0
VERTEX
  8
0
  6
CONTINUOUS
 10
3.472040
 20
0.612480
  0
VERTEX
  8
0
  6
CONTINUOUS
 10
3.467200
 20
0.559680
  0
VERTEX
  8
0
  6
CONTINUOUS
 10
2.820840
 20
0.939840
  0
VERTEX
  8
0
  6
CONTINUOUS
 10
2.825240
 20
0.992640
  0
SEQEND
  8
0
  0
SOLID
  8
0
 62
    15
 10
2.820840
 20
0.939840
 11
3.467200
 21
0.559680
 12
2.823480
 22
0.886600
 13
3.470280
 23
0.506440
  0
POLYLINE
  8
0
  6
CONTINUOUS
 66
     1
 40
0.000000
 41
0.000000
  0
VERTEX
  8
0
  6
CONTINUOUS
 10
2.820840
 20
0.939840
  0
VERTEX
  8
0
  6
CONTINUOUS
 10
3.467200
 20
0.559680
  0
VERTEX
  8
0
  6
CONTINUOUS
 10
3.470280
 20
0.506440
  0
VERTEX
  8
0
  6
CONTINUOUS
 10
2.823480
 20
0.886600
  0
VERTEX
  8
0
  6
CONTINUOUS
 10
2.820840
 20
0.939840
  0
SEQEND
  8
0
  0
SOLID
  8
0
 62
    15
 10
2.823480
 20
0.886600
 11
3.470280
 21
0.506440
 12
2.834480
 22
0.833360
 13
3.480840
 23
0.453200
  0
POLYLINE
  8
0
  6
CONTINUOUS
 66
     1
 40
0.000000
 41
0.000000
  0
VERTEX
  8
0
  6
CONTINUOUS
 10
2.823480
 20
0.886600
  0
VERTEX
  8
0
  6
CONTINUOUS
 10
3.470280
 20
0.506440
  0
VERTEX
  8
0
  6
CONTINUOUS
 10
3.480840
 20
0.453200
  0
VERTEX
  8
0
  6
CONTINUOUS
 10
2.834480
 20
0.833360
  0
VERTEX
  8
0
  6
CONTINUOUS
 10
2.823480
 20
0.886600
  0
SEQEND
  8
0
  0
SOLID
  8
0
 62
    15
 10
2.834480
 20
0.833360
 11
3.480840
 21
0.453200
 12
2.828320
 22
0.832920
 13
3.475120
 23
0.452760
  0
POLYLINE
  8
0
  6
CONTINUOUS
 66
     1
 40
0.000000
 41
0.000000
  0
VERTEX
  8
0
  6
CONTINUOUS
 10
2.834480
 20
0.833360
  0
VERTEX
  8
0
  6
CONTINUOUS
 10
3.480840
 20
0.453200
  0
VERTEX
  8
0
  6
CONTINUOUS
 10
3.475120
 20
0.452760
  0
VERTEX
  8
0
  6
CONTINUOUS
 10
2.828320
 20
0.832920
  0
VERTEX
  8
0
  6
CONTINUOUS
 10
2.834480
 20
0.833360
  0
SEQEND
  8
0
  0
SOLID
  8
0
 62
    15
 10
2.828320
 20
0.832920
 11
3.475120
 21
0.452760
 12
2.468840
 22
0.855360
 13
3.115640
 23
0.475200
  0
POLYLINE
  8
0
  6
CONTINUOUS
 66
     1
 40
0.000000
 41
0.000000
  0
VERTEX
  8
0
  6
CONTINUOUS
 10
2.828320
 20
0.832920
  0
VERTEX
  8
0
  6
CONTINUOUS
 10
3.475120
 20
0.452760
  0
VERTEX
  8
0
  6
CONTINUOUS
 10
3.115640
 20
0.475200
  0
VERTEX
  8
0
  6
CONTINUOUS
 10
2.468840
 20
0.855360
  0
VERTEX
  8
0
  6
CONTINUOUS
 10
2.828320
 20
0.832920
  0
SEQEND
  8
0
  0
SOLID
  8
0
 62
    15
 10
3.864960
 20
2.531320
 11
4.511320
 21
2.151160
 12
3.871120
 22
2.525600
 13
4.517480
 23
2.145440
  0
POLYLINE
  8
0
  6
CONTINUOUS
 66
     1
 40
0.000000
 41
0.000000
  0
VERTEX
  8
0
  6
CONTINUOUS
 10
3.864960
 20
2.531320
  0
VERTEX
  8
0
  6
CONTINUOUS
 10
4.511320
 20
2.151160
  0
VERTEX
  8
0
  6
CONTINUOUS
 10
4.517480
 20
2.145440
  0
VERTEX
  8
0
  6
CONTINUOUS
 10
3.871120
 20
2.525600
  0
VERTEX
  8
0
  6
CONTINUOUS
 10
3.864960
 20
2.531320
  0
SEQEND
  8
0
  0
POLYLINE
  8
0
  6
CONTINUOUS
 66
     1
 40
0.000000
 41
0.000000
  0
VERTEX
  8
0
  6
CONTINUOUS
 10
3.871120
 20
2.525600
  0
VERTEX
  8
0
  6
CONTINUOUS
 10
3.887840
 20
2.447720
  0
VERTEX
  8
0
  6
CONTINUOUS
 10
3.896640
 20
2.369840
  0
VERTEX
  8
0
  6
CONTINUOUS
 10
3.897960
 20
2.293280
  0
VERTEX
  8
0
  6
CONTINUOUS
 10
3.891800
 20
2.218040
  0
VERTEX
  8
0
  6
CONTINUOUS
 10
3.878160
 20
2.144560
  0
VERTEX
  8
0
  6
CONTINUOUS
 10
3.857480
 20
2.073280
  0
VERTEX
  8
0
  6
CONTINUOUS
 10
3.830200
 20
2.005080
  0
VERTEX
  8
0
  6
CONTINUOUS
 10
3.796760
 20
1.939520
  0
VERTEX
  8
0
  6
CONTINUOUS
 10
3.756720
 20
1.877920
  0
VERTEX
  8
0
  6
CONTINUOUS
 10
3.710520
 20
1.819840
  0
VERTEX
  8
0
  6
CONTINUOUS
 10
3.659040
 20
1.766600
  0
VERTEX
  8
0
  6
CONTINUOUS
 10
3.601840
 20
1.718200
  0
VERTEX
  8
0
  6
CONTINUOUS
 10
3.539360
 20
1.675080
  0
VERTEX
  8
0
  6
CONTINUOUS
 10
3.471600
 20
1.638120
  0
VERTEX
  8
0
  6
CONTINUOUS
 10
3.399440
 20
1.606880
  0
VERTEX
  8
0
  6
CONTINUOUS
 10
3.322880
 20
1.582680
  0
VERTEX
  8
0
  6
CONTINUOUS
 10
3.314080
 20
1.579600
  0
VERTEX
  8
0
  6
CONTINUOUS
 10
3.308800
 20
1.390400
  0
VERTEX
  8
0
  6
CONTINUOUS
 10
3.305720
 20
1.387320
  0
VERTEX
  8
0
  6
CONTINUOUS
 10
3.255560
 20
1.389520
  0
VERTEX
  8
0
  6
CONTINUOUS
 10
3.205400
 20
1.384240
  0
VERTEX
  8
0
  6
CONTINUOUS
 10
3.108160
 20
1.353880
  0
VERTEX
  8
0
  6
CONTINUOUS
 10
3.017960
 20
1.300640
  0
VERTEX
  8
0
  6
CONTINUOUS
 10
2.939640
 20
1.228480
  0
VERTEX
  8
0
  6
CONTINUOUS
 10
2.878040
 20
1.141360
  0
VERTEX
  8
0
  6
CONTINUOUS
 10
2.836680
 20
1.044120
  0
VERTEX
  8
0
  6
CONTINUOUS
 10
2.825240
 20
0.992640
  0
VERTEX
  8
0
  6
CONTINUOUS
 10
2.820840
 20
0.939840
  0
VERTEX
  8
0
  6
CONTINUOUS
 10
2.823480
 20
0.886600
  0
VERTEX
  8
0
  6
CONTINUOUS
 10
2.834480
 20
0.833360
  0
VERTEX
  8
0
  6
CONTINUOUS
 10
2.828320
 20
0.832920
  0
VERTEX
  8
0
  6
CONTINUOUS
 10
2.468840
 20
0.855360
  0
VERTEX
  8
0
  6
CONTINUOUS
 10
2.465760
 20
1.285680
  0
VERTEX
  8
0
  6
CONTINUOUS
 10
2.465320
 20
1.291840
  0
VERTEX
  8
0
  6
CONTINUOUS
 10
3.582040
 20
2.523400
  0
VERTEX
  8
0
  6
CONTINUOUS
 10
3.584680
 20
2.526480
  0
VERTEX
  8
0
  6
CONTINUOUS
 10
3.864960
 20
2.531320
  0
VERTEX
  8
0
  6
CONTINUOUS
 10
3.871120
 20
2.525600
  0
SEQEND
  8
0
  0
TEXT
  8
0
 10
3.824480
 20
0.634480
 40
0.138158
  1
BA  556
 41
1.000000
  7
SN0
 71
     0
 72
     5
 11
4.415319
 21
0.634480
  0
TEXT
  8
0
 10
3.622520
 20
0.442640
 40
0.138158
  1
5/8" x 2-3/16"
 41
1.000000
  7
SN0
 71
     0
 72
     5
 11
4.616279
 21
0.442640
  0
ENDSEC
  0
EOF
