  0
SECTION
  2
HEADER
  9
$ACADVER
  1
AC1006
  9
$EXTMIN
 10
3.664760
 20
0.595320
  9
$EXTMAX
 10
7.314120
 20
4.506480
  9
$LTSCALE
 40
0.044000
  9
$PDMODE
 70
    35
  9
$PDSIZE
 40
0.035200
  0
ENDSEC
  0
SECTION
  2
TABLES
  0
TABLE
  2
LTYPE
 70
     9
  0
LTYPE
  2
CONTINUOUS
 70
    64
  3
Solid line
 72
    65
 73
     0
 40
0.000000
  0
LTYPE
  2
DASHED
 70
    64
  3
__ __ __ __ __ __ __ __ __ __ __ __ __ __ __
 72
    65
 73
     2
 40
0.000330
 49
0.000220
 49
-0.000110
  0
LTYPE
  2
HIDDEN
 70
    64
  3
 _ _ _ _ _ _ _ _ _ _ _ _ _ _ _ _ _ _ _ _ _ _
 72
    65
 73
     2
 40
0.000165
 49
0.000110
 49
-0.000055
  0
LTYPE
  2
CENTER
 70
    64
  3
____ _ ____ _ ____ _ ____ _ ____ _ ____ _ ____
 72
    65
 73
     4
 40
0.000880
 49
0.000550
 49
-0.000110
 49
0.000110
 49
-0.000110
  0
LTYPE
  2
PHANTOM
 70
    64
  3
_____ _ _ _____ _ _ _____ _ _ _____ _ _ ____
 72
    65
 73
     6
 40
0.001100
 49
0.000550
 49
-0.000110
 49
0.000110
 49
-0.000110
 49
0.000110
 49
-0.000110
  0
LTYPE
  2
DOT
 70
    64
  3
...............................................
 72
    65
 73
     2
 40
0.000110
 49
0.000000
 49
-0.000110
  0
LTYPE
  2
DASHDOT
 70
    64
  3
__ . __ . __ . __ . __ . __ . __ . __ . __ . __
 72
    65
 73
     4
 40
0.000440
 49
0.000220
 49
-0.000110
 49
0.000000
 49
-0.000110
  0
LTYPE
  2
BORDER
 70
    64
  3
__ __ . __ __ . __ __ . __ __ . __ __ . __ __
 72
    65
 73
     6
 40
0.000770
 49
0.000220
 49
-0.000110
 49
0.000220
 49
-0.000110
 49
0.000000
 49
-0.000110
  0
LTYPE
  2
DIVIDE
 70
    64
  3
__ . . __ . . __ . . __ . . __ . . __ . . __
 72
    65
 73
     6
 40
0.000550
 49
0.000220
 49
-0.000110
 49
0.000000
 49
-0.000110
 49
0.000000
 49
-0.000110
  0
LTYPE
  2
DOTDOT
 70
    64
  3
 . .  . .  . .  . .  . .  . . 
 72
    65
 73
     5
 40
0.000242
 49
-0.000110
 49
0.000000
 49
-0.000110
 49
0.000000
 49
-0.000110
  0
ENDTAB
  0
TABLE
  2
STYLE
 70
     4
  0
STYLE
 70
     0
  2
SN0
 40
0.000000
 41
0.000440
 50
0.000000
 71
     0
 42
0.000000
  3
ROMAND
  0
STYLE
 70
    68
  2
SV0
 40
0.000000
 41
0.000440
 50
0.000000
 71
     0
 42
0.000000
  3
ROMAND
  0
STYLE
 70
     0
  2
SN1
 40
0.000000
 41
0.000440
 50
0.000000
 71
     0
 42
0.000000
  3
SCRIPTS
  0
STYLE
 70
    68
  2
SV1
 40
0.000000
 41
0.000440
 50
0.000000
 71
     0
 42
0.000000
  3
SCRIPTS
  0
ENDTAB
  0
TABLE
  2
LAYER
 70
     3
  0
LAYER
  2
FOREGROUND
 70
    64
 62
     7
  6
CONTINUOUS
  0
LAYER
  2
BACKGROUND
 70
    65
 62
    -7
  6
CONTINUOUS
  0
LAYER
  2
0
 70
    64
 62
     7
  6
CONTINUOUS
  0
ENDTAB
  0
ENDSEC
  0
SECTION
  2
ENTITIES
  0
POLYLINE
  8
FOREGROUND
  6
CONTINUOUS
 66
     1
 40
0.000000
 41
0.000000
  0
VERTEX
  8
FOREGROUND
  6
CONTINUOUS
 10
0.000000
 20
5.101800
  0
VERTEX
  8
FOREGROUND
  6
CONTINUOUS
 10
8.499920
 20
5.101800
  0
VERTEX
  8
FOREGROUND
  6
CONTINUOUS
 10
8.499920
 20
-5.898200
  0
VERTEX
  8
FOREGROUND
  6
CONTINUOUS
 10
0.000000
 20
-5.898200
  0
VERTEX
  8
FOREGROUND
  6
CONTINUOUS
 10
0.000000
 20
5.101800
  0
SEQEND
  8
0
  0
POLYLINE
  8
FOREGROUND
  6
CONTINUOUS
 66
     1
 40
0.000000
 41
0.000000
  0
VERTEX
  8
FOREGROUND
  6
CONTINUOUS
 10
0.000000
 20
5.101800
  0
VERTEX
  8
FOREGROUND
  6
CONTINUOUS
 10
8.499920
 20
5.101800
  0
VERTEX
  8
FOREGROUND
  6
CONTINUOUS
 10
8.499920
 20
-5.898200
  0
VERTEX
  8
FOREGROUND
  6
CONTINUOUS
 10
0.000000
 20
-5.898200
  0
VERTEX
  8
FOREGROUND
  6
CONTINUOUS
 10
0.000000
 20
5.101800
  0
SEQEND
  8
0
  0
POLYLINE
  8
0
  6
CONTINUOUS
 66
     1
 40
0.014080
 41
0.014080
  0
VERTEX
  8
0
  6
CONTINUOUS
 10
3.681480
 20
4.489760
  0
VERTEX
  8
0
  6
CONTINUOUS
 10
4.682480
 20
4.489760
  0
VERTEX
  8
0
  6
CONTINUOUS
 10
5.118960
 20
4.062080
  0
VERTEX
  8
0
  6
CONTINUOUS
 10
5.118960
 20
3.871120
  0
VERTEX
  8
0
  6
CONTINUOUS
 10
4.300120
 20
3.871120
  0
VERTEX
  8
0
  6
CONTINUOUS
 10
4.300120
 20
3.416160
  0
VERTEX
  8
0
  6
CONTINUOUS
 10
3.672240
 20
3.416160
  0
VERTEX
  8
0
  6
CONTINUOUS
 10
3.672240
 20
4.489760
  0
VERTEX
  8
0
  6
CONTINUOUS
 10
3.681480
 20
4.489760
  0
SEQEND
  8
0
  0
POLYLINE
  8
0
  6
CONTINUOUS
 66
     1
 40
0.014080
 41
0.014080
  0
VERTEX
  8
0
  6
CONTINUOUS
 10
6.574920
 20
4.495480
  0
VERTEX
  8
0
  6
CONTINUOUS
 10
6.574920
 20
3.414840
  0
VERTEX
  8
0
  6
CONTINUOUS
 10
4.536400
 20
3.414840
  0
VERTEX
  8
0
  6
CONTINUOUS
 10
4.536400
 20
3.831960
  0
VERTEX
  8
0
  6
CONTINUOUS
 10
5.120720
 20
3.871560
  0
VERTEX
  8
0
  6
CONTINUOUS
 10
5.120720
 20
4.067800
  0
VERTEX
  8
0
  6
CONTINUOUS
 10
5.573920
 20
4.499000
  0
VERTEX
  8
0
  6
CONTINUOUS
 10
6.574920
 20
4.499000
  0
VERTEX
  8
0
  6
CONTINUOUS
 10
6.574920
 20
4.495480
  0
SEQEND
  8
0
  0
SOLID
  8
0
 62
    15
 10
5.275160
 20
0.890120
 11
5.272520
 21
1.639440
 12
5.275160
 22
1.307680
 13
5.272520
 23
2.057000
  0
POLYLINE
  8
0
  6
CONTINUOUS
 66
     1
 40
0.000000
 41
0.000000
  0
VERTEX
  8
0
  6
CONTINUOUS
 10
5.275160
 20
0.890120
  0
VERTEX
  8
0
  6
CONTINUOUS
 10
5.272520
 20
1.639440
  0
VERTEX
  8
0
  6
CONTINUOUS
 10
5.272520
 20
2.057000
  0
VERTEX
  8
0
  6
CONTINUOUS
 10
5.275160
 20
1.307680
  0
VERTEX
  8
0
  6
CONTINUOUS
 10
5.275160
 20
0.890120
  0
SEQEND
  8
0
  0
SOLID
  8
0
 62
    15
 10
5.275160
 20
1.307680
 11
5.272520
 21
2.057000
 12
5.859480
 22
1.346840
 13
5.857280
 23
2.096160
  0
POLYLINE
  8
0
  6
CONTINUOUS
 66
     1
 40
0.000000
 41
0.000000
  0
VERTEX
  8
0
  6
CONTINUOUS
 10
5.275160
 20
1.307680
  0
VERTEX
  8
0
  6
CONTINUOUS
 10
5.272520
 20
2.057000
  0
VERTEX
  8
0
  6
CONTINUOUS
 10
5.857280
 20
2.096160
  0
VERTEX
  8
0
  6
CONTINUOUS
 10
5.859480
 20
1.346840
  0
VERTEX
  8
0
  6
CONTINUOUS
 10
5.275160
 20
1.307680
  0
SEQEND
  8
0
  0
SOLID
  8
0
 62
    15
 10
5.859480
 20
1.346840
 11
5.857280
 21
2.096160
 12
5.859480
 22
1.543520
 13
5.857280
 23
2.292840
  0
POLYLINE
  8
0
  6
CONTINUOUS
 66
     1
 40
0.000000
 41
0.000000
  0
VERTEX
  8
0
  6
CONTINUOUS
 10
5.859480
 20
1.346840
  0
VERTEX
  8
0
  6
CONTINUOUS
 10
5.857280
 20
2.096160
  0
VERTEX
  8
0
  6
CONTINUOUS
 10
5.857280
 20
2.292840
  0
VERTEX
  8
0
  6
CONTINUOUS
 10
5.859480
 20
1.543520
  0
VERTEX
  8
0
  6
CONTINUOUS
 10
5.859480
 20
1.346840
  0
SEQEND
  8
0
  0
SOLID
  8
0
 62
    15
 10
6.312680
 20
1.974280
 11
6.310480
 21
2.723600
 12
7.313680
 22
1.974280
 13
7.311480
 23
2.723600
  0
POLYLINE
  8
0
  6
CONTINUOUS
 66
     1
 40
0.000000
 41
0.000000
  0
VERTEX
  8
0
  6
CONTINUOUS
 10
6.312680
 20
1.974280
  0
VERTEX
  8
0
  6
CONTINUOUS
 10
6.310480
 20
2.723600
  0
VERTEX
  8
0
  6
CONTINUOUS
 10
7.311480
 20
2.723600
  0
VERTEX
  8
0
  6
CONTINUOUS
 10
7.313680
 20
1.974280
  0
VERTEX
  8
0
  6
CONTINUOUS
 10
6.312680
 20
1.974280
  0
SEQEND
  8
0
  0
SOLID
  8
0
 62
    15
 10
5.859480
 20
1.543520
 11
5.857280
 21
2.292840
 12
6.312680
 22
1.974280
 13
6.310480
 23
2.723600
  0
POLYLINE
  8
0
  6
CONTINUOUS
 66
     1
 40
0.000000
 41
0.000000
  0
VERTEX
  8
0
  6
CONTINUOUS
 10
5.859480
 20
1.543520
  0
VERTEX
  8
0
  6
CONTINUOUS
 10
5.857280
 20
2.292840
  0
VERTEX
  8
0
  6
CONTINUOUS
 10
6.310480
 20
2.723600
  0
VERTEX
  8
0
  6
CONTINUOUS
 10
6.312680
 20
1.974280
  0
VERTEX
  8
0
  6
CONTINUOUS
 10
5.859480
 20
1.543520
  0
SEQEND
  8
0
  0
POLYLINE
  8
0
  6
CONTINUOUS
 66
     1
 40
0.000000
 41
0.000000
  0
VERTEX
  8
0
  6
CONTINUOUS
 10
7.313240
 20
1.970760
  0
VERTEX
  8
0
  6
CONTINUOUS
 10
7.313240
 20
0.890120
  0
VERTEX
  8
0
  6
CONTINUOUS
 10
5.275160
 20
0.890120
  0
VERTEX
  8
0
  6
CONTINUOUS
 10
5.275160
 20
1.307680
  0
VERTEX
  8
0
  6
CONTINUOUS
 10
5.859480
 20
1.346840
  0
VERTEX
  8
0
  6
CONTINUOUS
 10
5.859480
 20
1.543520
  0
VERTEX
  8
0
  6
CONTINUOUS
 10
6.312680
 20
1.974280
  0
VERTEX
  8
0
  6
CONTINUOUS
 10
7.313680
 20
1.974280
  0
VERTEX
  8
0
  6
CONTINUOUS
 10
7.313240
 20
1.970760
  0
SEQEND
  8
0
  0
SOLID
  8
0
 62
    15
 10
5.857720
 20
1.548800
 11
5.859480
 21
2.313080
 12
5.857720
 22
1.357840
 13
5.859480
 23
2.122120
  0
POLYLINE
  8
0
  6
CONTINUOUS
 66
     1
 40
0.000000
 41
0.000000
  0
VERTEX
  8
0
  6
CONTINUOUS
 10
5.857720
 20
1.548800
  0
VERTEX
  8
0
  6
CONTINUOUS
 10
5.859480
 20
2.313080
  0
VERTEX
  8
0
  6
CONTINUOUS
 10
5.859480
 20
2.122120
  0
VERTEX
  8
0
  6
CONTINUOUS
 10
5.857720
 20
1.357840
  0
VERTEX
  8
0
  6
CONTINUOUS
 10
5.857720
 20
1.548800
  0
SEQEND
  8
0
  0
SOLID
  8
0
 62
    15
 10
5.420800
 20
1.976480
 11
5.422560
 21
2.740760
 12
5.857720
 22
1.548800
 13
5.859480
 23
2.313080
  0
POLYLINE
  8
0
  6
CONTINUOUS
 66
     1
 40
0.000000
 41
0.000000
  0
VERTEX
  8
0
  6
CONTINUOUS
 10
5.420800
 20
1.976480
  0
VERTEX
  8
0
  6
CONTINUOUS
 10
5.422560
 20
2.740760
  0
VERTEX
  8
0
  6
CONTINUOUS
 10
5.859480
 20
2.313080
  0
VERTEX
  8
0
  6
CONTINUOUS
 10
5.857720
 20
1.548800
  0
VERTEX
  8
0
  6
CONTINUOUS
 10
5.420800
 20
1.976480
  0
SEQEND
  8
0
  0
SOLID
  8
0
 62
    15
 10
5.038880
 20
1.357840
 11
5.040640
 21
2.122120
 12
5.038880
 22
0.902880
 13
5.040640
 23
1.666720
  0
POLYLINE
  8
0
  6
CONTINUOUS
 66
     1
 40
0.000000
 41
0.000000
  0
VERTEX
  8
0
  6
CONTINUOUS
 10
5.038880
 20
1.357840
  0
VERTEX
  8
0
  6
CONTINUOUS
 10
5.040640
 20
2.122120
  0
VERTEX
  8
0
  6
CONTINUOUS
 10
5.040640
 20
1.666720
  0
VERTEX
  8
0
  6
CONTINUOUS
 10
5.038880
 20
0.902880
  0
VERTEX
  8
0
  6
CONTINUOUS
 10
5.038880
 20
1.357840
  0
SEQEND
  8
0
  0
SOLID
  8
0
 62
    15
 10
4.411000
 20
1.976480
 11
4.412760
 21
2.740760
 12
4.419800
 22
1.976480
 13
4.421560
 23
2.740760
  0
POLYLINE
  8
0
  6
CONTINUOUS
 66
     1
 40
0.000000
 41
0.000000
  0
VERTEX
  8
0
  6
CONTINUOUS
 10
4.411000
 20
1.976480
  0
VERTEX
  8
0
  6
CONTINUOUS
 10
4.412760
 20
2.740760
  0
VERTEX
  8
0
  6
CONTINUOUS
 10
4.421560
 20
2.740760
  0
VERTEX
  8
0
  6
CONTINUOUS
 10
4.419800
 20
1.976480
  0
VERTEX
  8
0
  6
CONTINUOUS
 10
4.411000
 20
1.976480
  0
SEQEND
  8
0
  0
SOLID
  8
0
 62
    15
 10
4.419800
 20
1.976480
 11
4.421560
 21
2.740760
 12
5.420800
 22
1.976480
 13
5.422560
 23
2.740760
  0
POLYLINE
  8
0
  6
CONTINUOUS
 66
     1
 40
0.000000
 41
0.000000
  0
VERTEX
  8
0
  6
CONTINUOUS
 10
4.419800
 20
1.976480
  0
VERTEX
  8
0
  6
CONTINUOUS
 10
4.421560
 20
2.740760
  0
VERTEX
  8
0
  6
CONTINUOUS
 10
5.422560
 20
2.740760
  0
VERTEX
  8
0
  6
CONTINUOUS
 10
5.420800
 20
1.976480
  0
VERTEX
  8
0
  6
CONTINUOUS
 10
4.419800
 20
1.976480
  0
SEQEND
  8
0
  0
POLYLINE
  8
0
  6
CONTINUOUS
 66
     1
 40
0.000000
 41
0.000000
  0
VERTEX
  8
0
  6
CONTINUOUS
 10
4.419800
 20
1.976480
  0
VERTEX
  8
0
  6
CONTINUOUS
 10
5.420800
 20
1.976480
  0
VERTEX
  8
0
  6
CONTINUOUS
 10
5.857720
 20
1.548800
  0
VERTEX
  8
0
  6
CONTINUOUS
 10
5.857720
 20
1.357840
  0
VERTEX
  8
0
  6
CONTINUOUS
 10
5.038880
 20
1.357840
  0
VERTEX
  8
0
  6
CONTINUOUS
 10
5.038880
 20
0.902880
  0
VERTEX
  8
0
  6
CONTINUOUS
 10
4.411000
 20
0.902880
  0
VERTEX
  8
0
  6
CONTINUOUS
 10
4.411000
 20
1.976480
  0
VERTEX
  8
0
  6
CONTINUOUS
 10
4.419800
 20
1.976480
  0
SEQEND
  8
0
  0
TEXT
  8
0
 10
5.068800
 20
0.636680
 40
0.138036
  1
BA  555A & B 1-1/16"
 41
1.000000
  7
SN0
 71
     0
 72
     5
 11
6.655558
 21
0.636680
  0
TEXT
  8
0
 10
4.495040
 20
0.981200
 40
0.126563
  1
B
 41
1.000000
  7
SN1
 71
     0
 72
     5
 11
4.597121
 21
0.981200
  0
TEXT
  8
0
 10
7.156160
 20
0.981200
 40
0.126563
  1
A
 41
1.000000
  7
SN1
 71
     0
 72
     5
 11
7.257850
 21
0.981200
  0
ENDSEC
  0
EOF
