  0
SECTION
  2
HEADER
  9
$ACADVER
  1
AC1006
  9
$EXTMIN
 10
1.320440
 20
0.471240
  9
$EXTMAX
 10
6.805040
 20
4.163280
  9
$LTSCALE
 40
0.044000
  9
$PDMODE
 70
    35
  9
$PDSIZE
 40
0.035200
  0
ENDSEC
  0
SECTION
  2
TABLES
  0
TABLE
  2
LTYPE
 70
     9
  0
LTYPE
  2
CONTINUOUS
 70
    64
  3
Solid line
 72
    65
 73
     0
 40
0.000000
  0
LTYPE
  2
DASHED
 70
    64
  3
__ __ __ __ __ __ __ __ __ __ __ __ __ __ __
 72
    65
 73
     2
 40
0.000330
 49
0.000220
 49
-0.000110
  0
LTYPE
  2
HIDDEN
 70
    64
  3
 _ _ _ _ _ _ _ _ _ _ _ _ _ _ _ _ _ _ _ _ _ _
 72
    65
 73
     2
 40
0.000165
 49
0.000110
 49
-0.000055
  0
LTYPE
  2
CENTER
 70
    64
  3
____ _ ____ _ ____ _ ____ _ ____ _ ____ _ ____
 72
    65
 73
     4
 40
0.000880
 49
0.000550
 49
-0.000110
 49
0.000110
 49
-0.000110
  0
LTYPE
  2
PHANTOM
 70
    64
  3
_____ _ _ _____ _ _ _____ _ _ _____ _ _ ____
 72
    65
 73
     6
 40
0.001100
 49
0.000550
 49
-0.000110
 49
0.000110
 49
-0.000110
 49
0.000110
 49
-0.000110
  0
LTYPE
  2
DOT
 70
    64
  3
...............................................
 72
    65
 73
     2
 40
0.000110
 49
0.000000
 49
-0.000110
  0
LTYPE
  2
DASHDOT
 70
    64
  3
__ . __ . __ . __ . __ . __ . __ . __ . __ . __
 72
    65
 73
     4
 40
0.000440
 49
0.000220
 49
-0.000110
 49
0.000000
 49
-0.000110
  0
LTYPE
  2
BORDER
 70
    64
  3
__ __ . __ __ . __ __ . __ __ . __ __ . __ __
 72
    65
 73
     6
 40
0.000770
 49
0.000220
 49
-0.000110
 49
0.000220
 49
-0.000110
 49
0.000000
 49
-0.000110
  0
LTYPE
  2
DIVIDE
 70
    64
  3
__ . . __ . . __ . . __ . . __ . . __ . . __
 72
    65
 73
     6
 40
0.000550
 49
0.000220
 49
-0.000110
 49
0.000000
 49
-0.000110
 49
0.000000
 49
-0.000110
  0
LTYPE
  2
DOTDOT
 70
    64
  3
 . .  . .  . .  . .  . .  . . 
 72
    65
 73
     5
 40
0.000242
 49
-0.000110
 49
0.000000
 49
-0.000110
 49
0.000000
 49
-0.000110
  0
ENDTAB
  0
TABLE
  2
STYLE
 70
     2
  0
STYLE
 70
     0
  2
SN0
 40
0.000000
 41
0.000440
 50
0.000000
 71
     0
 42
0.000000
  3
ROMAND
  0
STYLE
 70
    68
  2
SV0
 40
0.000000
 41
0.000440
 50
0.000000
 71
     0
 42
0.000000
  3
ROMAND
  0
ENDTAB
  0
TABLE
  2
LAYER
 70
     3
  0
LAYER
  2
FOREGROUND
 70
    64
 62
     7
  6
CONTINUOUS
  0
LAYER
  2
BACKGROUND
 70
    65
 62
    -7
  6
CONTINUOUS
  0
LAYER
  2
0
 70
    64
 62
     7
  6
CONTINUOUS
  0
ENDTAB
  0
ENDSEC
  0
SECTION
  2
ENTITIES
  0
POLYLINE
  8
FOREGROUND
  6
CONTINUOUS
 66
     1
 40
0.000000
 41
0.000000
  0
VERTEX
  8
FOREGROUND
  6
CONTINUOUS
 10
0.000000
 20
4.634520
  0
VERTEX
  8
FOREGROUND
  6
CONTINUOUS
 10
8.499920
 20
4.634520
  0
VERTEX
  8
FOREGROUND
  6
CONTINUOUS
 10
8.499920
 20
-6.365480
  0
VERTEX
  8
FOREGROUND
  6
CONTINUOUS
 10
0.000000
 20
-6.365480
  0
VERTEX
  8
FOREGROUND
  6
CONTINUOUS
 10
0.000000
 20
4.634520
  0
SEQEND
  8
0
  0
POLYLINE
  8
FOREGROUND
  6
CONTINUOUS
 66
     1
 40
0.000000
 41
0.000000
  0
VERTEX
  8
FOREGROUND
  6
CONTINUOUS
 10
0.000000
 20
4.634520
  0
VERTEX
  8
FOREGROUND
  6
CONTINUOUS
 10
8.499920
 20
4.634520
  0
VERTEX
  8
FOREGROUND
  6
CONTINUOUS
 10
8.499920
 20
-6.365480
  0
VERTEX
  8
FOREGROUND
  6
CONTINUOUS
 10
0.000000
 20
-6.365480
  0
VERTEX
  8
FOREGROUND
  6
CONTINUOUS
 10
0.000000
 20
4.634520
  0
SEQEND
  8
0
  0
POLYLINE
  8
0
  6
CONTINUOUS
 66
     1
 40
0.014080
 41
0.014080
  0
VERTEX
  8
0
  6
CONTINUOUS
 10
5.541360
 20
4.134680
  0
VERTEX
  8
0
  6
CONTINUOUS
 10
5.541360
 20
0.482680
  0
VERTEX
  8
0
  6
CONTINUOUS
 10
5.549720
 20
0.478280
  0
VERTEX
  8
0
  6
CONTINUOUS
 10
5.601640
 20
0.479160
  0
VERTEX
  8
0
  6
CONTINUOUS
 10
5.647400
 20
0.484440
  0
VERTEX
  8
0
  6
CONTINUOUS
 10
5.687000
 20
0.493680
  0
VERTEX
  8
0
  6
CONTINUOUS
 10
5.721320
 20
0.506880
  0
VERTEX
  8
0
  6
CONTINUOUS
 10
5.749920
 20
0.523600
  0
VERTEX
  8
0
  6
CONTINUOUS
 10
5.773680
 20
0.544280
  0
VERTEX
  8
0
  6
CONTINUOUS
 10
5.792600
 20
0.568920
  0
VERTEX
  8
0
  6
CONTINUOUS
 10
5.806680
 20
0.596640
  0
VERTEX
  8
0
  6
CONTINUOUS
 10
5.813720
 20
0.616880
  0
VERTEX
  8
0
  6
CONTINUOUS
 10
5.822960
 20
0.662200
  0
VERTEX
  8
0
  6
CONTINUOUS
 10
5.824720
 20
0.689040
  0
VERTEX
  8
0
  6
CONTINUOUS
 10
5.850240
 20
0.688160
  0
VERTEX
  8
0
  6
CONTINUOUS
 10
5.874440
 20
0.689920
  0
VERTEX
  8
0
  6
CONTINUOUS
 10
5.908760
 20
0.696960
  0
VERTEX
  8
0
  6
CONTINUOUS
 10
5.940000
 20
0.709280
  0
VERTEX
  8
0
  6
CONTINUOUS
 10
5.958920
 20
0.719840
  0
VERTEX
  8
0
  6
CONTINUOUS
 10
5.993680
 20
0.745800
  0
VERTEX
  8
0
  6
CONTINUOUS
 10
6.022280
 20
0.778360
  0
VERTEX
  8
0
  6
CONTINUOUS
 10
6.045600
 20
0.815760
  0
VERTEX
  8
0
  6
CONTINUOUS
 10
6.062760
 20
0.857120
  0
VERTEX
  8
0
  6
CONTINUOUS
 10
6.073760
 20
0.900680
  0
VERTEX
  8
0
  6
CONTINUOUS
 10
6.077280
 20
0.923120
  0
VERTEX
  8
0
  6
CONTINUOUS
 10
6.079040
 20
0.968440
  0
VERTEX
  8
0
  6
CONTINUOUS
 10
6.074200
 20
1.013320
  0
VERTEX
  8
0
  6
CONTINUOUS
 10
6.069360
 20
1.035320
  0
VERTEX
  8
0
  6
CONTINUOUS
 10
6.062760
 20
1.056880
  0
VERTEX
  8
0
  6
CONTINUOUS
 10
6.044720
 20
1.097800
  0
VERTEX
  8
0
  6
CONTINUOUS
 10
6.019640
 20
1.134320
  0
VERTEX
  8
0
  6
CONTINUOUS
 10
6.004240
 20
1.151040
  0
VERTEX
  8
0
  6
CONTINUOUS
 10
5.987080
 20
1.166000
  0
VERTEX
  8
0
  6
CONTINUOUS
 10
5.958040
 20
1.185800
  0
VERTEX
  8
0
  6
CONTINUOUS
 10
5.924600
 20
1.201200
  0
VERTEX
  8
0
  6
CONTINUOUS
 10
5.916240
 20
1.207800
  0
VERTEX
  8
0
  6
CONTINUOUS
 10
5.914920
 20
1.345080
  0
VERTEX
  8
0
  6
CONTINUOUS
 10
5.918000
 20
1.471360
  0
VERTEX
  8
0
  6
CONTINUOUS
 10
5.925920
 20
1.587080
  0
VERTEX
  8
0
  6
CONTINUOUS
 10
5.932960
 20
1.658360
  0
VERTEX
  8
0
  6
CONTINUOUS
 10
5.947040
 20
1.757800
  0
VERTEX
  8
0
  6
CONTINUOUS
 10
5.964200
 20
1.848000
  0
VERTEX
  8
0
  6
CONTINUOUS
 10
5.984000
 20
1.929400
  0
VERTEX
  8
0
  6
CONTINUOUS
 10
6.006880
 20
2.002440
  0
VERTEX
  8
0
  6
CONTINUOUS
 10
6.031520
 20
2.068000
  0
VERTEX
  8
0
  6
CONTINUOUS
 10
6.058360
 20
2.126080
  0
VERTEX
  8
0
  6
CONTINUOUS
 10
6.086520
 20
2.178000
  0
VERTEX
  8
0
  6
CONTINUOUS
 10
6.125680
 20
2.237400
  0
VERTEX
  8
0
  6
CONTINUOUS
 10
6.166160
 20
2.286680
  0
VERTEX
  8
0
  6
CONTINUOUS
 10
6.206640
 20
2.327600
  0
VERTEX
  8
0
  6
CONTINUOUS
 10
6.246680
 20
2.361480
  0
VERTEX
  8
0
  6
CONTINUOUS
 10
6.284960
 20
2.388760
  0
VERTEX
  8
0
  6
CONTINUOUS
 10
6.369000
 20
2.437600
  0
VERTEX
  8
0
  6
CONTINUOUS
 10
6.383080
 20
2.445080
  0
VERTEX
  8
0
  6
CONTINUOUS
 10
6.383080
 20
2.632520
  0
VERTEX
  8
0
  6
CONTINUOUS
 10
6.389240
 20
2.635600
  0
VERTEX
  8
0
  6
CONTINUOUS
 10
6.431040
 20
2.643960
  0
VERTEX
  8
0
  6
CONTINUOUS
 10
6.471520
 20
2.655840
  0
VERTEX
  8
0
  6
CONTINUOUS
 10
6.509800
 20
2.671680
  0
VERTEX
  8
0
  6
CONTINUOUS
 10
6.546320
 20
2.690600
  0
VERTEX
  8
0
  6
CONTINUOUS
 10
6.580640
 20
2.713040
  0
VERTEX
  8
0
  6
CONTINUOUS
 10
6.628160
 20
2.751760
  0
VERTEX
  8
0
  6
CONTINUOUS
 10
6.670400
 20
2.796200
  0
VERTEX
  8
0
  6
CONTINUOUS
 10
6.707360
 20
2.845480
  0
VERTEX
  8
0
  6
CONTINUOUS
 10
6.738160
 20
2.899160
  0
VERTEX
  8
0
  6
CONTINUOUS
 10
6.755760
 20
2.936560
  0
VERTEX
  8
0
  6
CONTINUOUS
 10
6.776000
 20
2.995080
  0
VERTEX
  8
0
  6
CONTINUOUS
 10
6.786120
 20
3.035120
  0
VERTEX
  8
0
  6
CONTINUOUS
 10
6.793160
 20
3.075600
  0
VERTEX
  8
0
  6
CONTINUOUS
 10
6.797120
 20
3.116960
  0
VERTEX
  8
0
  6
CONTINUOUS
 10
6.797560
 20
3.157880
  0
VERTEX
  8
0
  6
CONTINUOUS
 10
6.794920
 20
3.198800
  0
VERTEX
  8
0
  6
CONTINUOUS
 10
6.788760
 20
3.239720
  0
VERTEX
  8
0
  6
CONTINUOUS
 10
6.772480
 20
3.299560
  0
VERTEX
  8
0
  6
CONTINUOUS
 10
6.757080
 20
3.338280
  0
VERTEX
  8
0
  6
CONTINUOUS
 10
6.738160
 20
3.375680
  0
VERTEX
  8
0
  6
CONTINUOUS
 10
6.702520
 20
3.429360
  0
VERTEX
  8
0
  6
CONTINUOUS
 10
6.673480
 20
3.462800
  0
VERTEX
  8
0
  6
CONTINUOUS
 10
6.640480
 20
3.494040
  0
VERTEX
  8
0
  6
CONTINUOUS
 10
6.603080
 20
3.523080
  0
VERTEX
  8
0
  6
CONTINUOUS
 10
6.561280
 20
3.549480
  0
VERTEX
  8
0
  6
CONTINUOUS
 10
6.515520
 20
3.573240
  0
VERTEX
  8
0
  6
CONTINUOUS
 10
6.464920
 20
3.593920
  0
VERTEX
  8
0
  6
CONTINUOUS
 10
6.409920
 20
3.611520
  0
VERTEX
  8
0
  6
CONTINUOUS
 10
6.380440
 20
3.619000
  0
VERTEX
  8
0
  6
CONTINUOUS
 10
6.378680
 20
3.626480
  0
VERTEX
  8
0
  6
CONTINUOUS
 10
6.378680
 20
3.786640
  0
VERTEX
  8
0
  6
CONTINUOUS
 10
6.328080
 20
3.788400
  0
VERTEX
  8
0
  6
CONTINUOUS
 10
6.268680
 20
3.794560
  0
VERTEX
  8
0
  6
CONTINUOUS
 10
6.217200
 20
3.804680
  0
VERTEX
  8
0
  6
CONTINUOUS
 10
6.172760
 20
3.817880
  0
VERTEX
  8
0
  6
CONTINUOUS
 10
6.134480
 20
3.834160
  0
VERTEX
  8
0
  6
CONTINUOUS
 10
6.112040
 20
3.846480
  0
VERTEX
  8
0
  6
CONTINUOUS
 10
6.072440
 20
3.874200
  0
VERTEX
  8
0
  6
CONTINUOUS
 10
6.039440
 20
3.904560
  0
VERTEX
  8
0
  6
CONTINUOUS
 10
5.937800
 20
4.021160
  0
VERTEX
  8
0
  6
CONTINUOUS
 10
5.903480
 20
4.052840
  0
VERTEX
  8
0
  6
CONTINUOUS
 10
5.884560
 20
4.067800
  0
VERTEX
  8
0
  6
CONTINUOUS
 10
5.840120
 20
4.095520
  0
VERTEX
  8
0
  6
CONTINUOUS
 10
5.800960
 20
4.113560
  0
VERTEX
  8
0
  6
CONTINUOUS
 10
5.755640
 20
4.128960
  0
VERTEX
  8
0
  6
CONTINUOUS
 10
5.702400
 20
4.141280
  0
VERTEX
  8
0
  6
CONTINUOUS
 10
5.641680
 20
4.150080
  0
VERTEX
  8
0
  6
CONTINUOUS
 10
5.571280
 20
4.154920
  0
VERTEX
  8
0
  6
CONTINUOUS
 10
5.545760
 20
4.155360
  0
VERTEX
  8
0
  6
CONTINUOUS
 10
5.541360
 20
4.134680
  0
SEQEND
  8
0
  0
SOLID
  8
0
 62
    15
 10
3.065920
 20
2.463560
 11
3.069880
 21
3.225640
 12
3.115200
 22
2.388760
 13
3.119160
 23
3.150840
  0
POLYLINE
  8
0
  6
CONTINUOUS
 66
     1
 40
0.000000
 41
0.000000
  0
VERTEX
  8
0
  6
CONTINUOUS
 10
3.065920
 20
2.463560
  0
VERTEX
  8
0
  6
CONTINUOUS
 10
3.069880
 20
3.225640
  0
VERTEX
  8
0
  6
CONTINUOUS
 10
3.119160
 20
3.150840
  0
VERTEX
  8
0
  6
CONTINUOUS
 10
3.115200
 20
2.388760
  0
VERTEX
  8
0
  6
CONTINUOUS
 10
3.065920
 20
2.463560
  0
SEQEND
  8
0
  0
SOLID
  8
0
 62
    15
 10
1.326600
 20
1.783760
 11
1.330560
 21
2.545840
 12
1.338920
 22
1.863400
 13
1.342880
 23
2.625480
  0
POLYLINE
  8
0
  6
CONTINUOUS
 66
     1
 40
0.000000
 41
0.000000
  0
VERTEX
  8
0
  6
CONTINUOUS
 10
1.326600
 20
1.783760
  0
VERTEX
  8
0
  6
CONTINUOUS
 10
1.330560
 20
2.545840
  0
VERTEX
  8
0
  6
CONTINUOUS
 10
1.342880
 20
2.625480
  0
VERTEX
  8
0
  6
CONTINUOUS
 10
1.338920
 20
1.863400
  0
VERTEX
  8
0
  6
CONTINUOUS
 10
1.326600
 20
1.783760
  0
SEQEND
  8
0
  0
SOLID
  8
0
 62
    15
 10
1.338920
 20
1.863400
 11
1.342880
 21
2.625480
 12
1.357400
 22
1.928960
 13
1.361360
 23
2.691040
  0
POLYLINE
  8
0
  6
CONTINUOUS
 66
     1
 40
0.000000
 41
0.000000
  0
VERTEX
  8
0
  6
CONTINUOUS
 10
1.338920
 20
1.863400
  0
VERTEX
  8
0
  6
CONTINUOUS
 10
1.342880
 20
2.625480
  0
VERTEX
  8
0
  6
CONTINUOUS
 10
1.361360
 20
2.691040
  0
VERTEX
  8
0
  6
CONTINUOUS
 10
1.357400
 20
1.928960
  0
VERTEX
  8
0
  6
CONTINUOUS
 10
1.338920
 20
1.863400
  0
SEQEND
  8
0
  0
SOLID
  8
0
 62
    15
 10
1.357400
 20
1.928960
 11
1.361360
 21
2.691040
 12
1.381160
 22
1.982640
 13
1.385120
 23
2.744720
  0
POLYLINE
  8
0
  6
CONTINUOUS
 66
     1
 40
0.000000
 41
0.000000
  0
VERTEX
  8
0
  6
CONTINUOUS
 10
1.357400
 20
1.928960
  0
VERTEX
  8
0
  6
CONTINUOUS
 10
1.361360
 20
2.691040
  0
VERTEX
  8
0
  6
CONTINUOUS
 10
1.385120
 20
2.744720
  0
VERTEX
  8
0
  6
CONTINUOUS
 10
1.381160
 20
1.982640
  0
VERTEX
  8
0
  6
CONTINUOUS
 10
1.357400
 20
1.928960
  0
SEQEND
  8
0
  0
SOLID
  8
0
 62
    15
 10
1.381160
 20
1.982640
 11
1.385120
 21
2.744720
 12
1.408440
 22
2.026640
 13
1.412400
 23
2.789160
  0
POLYLINE
  8
0
  6
CONTINUOUS
 66
     1
 40
0.000000
 41
0.000000
  0
VERTEX
  8
0
  6
CONTINUOUS
 10
1.381160
 20
1.982640
  0
VERTEX
  8
0
  6
CONTINUOUS
 10
1.385120
 20
2.744720
  0
VERTEX
  8
0
  6
CONTINUOUS
 10
1.412400
 20
2.789160
  0
VERTEX
  8
0
  6
CONTINUOUS
 10
1.408440
 20
2.026640
  0
VERTEX
  8
0
  6
CONTINUOUS
 10
1.381160
 20
1.982640
  0
SEQEND
  8
0
  0
SOLID
  8
0
 62
    15
 10
1.408440
 20
2.026640
 11
1.412400
 21
2.789160
 12
1.439240
 22
2.063600
 13
1.443200
 23
2.825680
  0
POLYLINE
  8
0
  6
CONTINUOUS
 66
     1
 40
0.000000
 41
0.000000
  0
VERTEX
  8
0
  6
CONTINUOUS
 10
1.408440
 20
2.026640
  0
VERTEX
  8
0
  6
CONTINUOUS
 10
1.412400
 20
2.789160
  0
VERTEX
  8
0
  6
CONTINUOUS
 10
1.443200
 20
2.825680
  0
VERTEX
  8
0
  6
CONTINUOUS
 10
1.439240
 20
2.063600
  0
VERTEX
  8
0
  6
CONTINUOUS
 10
1.408440
 20
2.026640
  0
SEQEND
  8
0
  0
SOLID
  8
0
 62
    15
 10
1.439240
 20
2.063600
 11
1.443200
 21
2.825680
 12
1.505680
 22
2.123880
 13
1.509200
 23
2.886400
  0
POLYLINE
  8
0
  6
CONTINUOUS
 66
     1
 40
0.000000
 41
0.000000
  0
VERTEX
  8
0
  6
CONTINUOUS
 10
1.439240
 20
2.063600
  0
VERTEX
  8
0
  6
CONTINUOUS
 10
1.443200
 20
2.825680
  0
VERTEX
  8
0
  6
CONTINUOUS
 10
1.509200
 20
2.886400
  0
VERTEX
  8
0
  6
CONTINUOUS
 10
1.505680
 20
2.123880
  0
VERTEX
  8
0
  6
CONTINUOUS
 10
1.439240
 20
2.063600
  0
SEQEND
  8
0
  0
SOLID
  8
0
 62
    15
 10
1.505680
 20
2.123880
 11
1.509200
 21
2.886400
 12
1.571680
 22
2.181520
 13
1.575640
 23
2.944040
  0
POLYLINE
  8
0
  6
CONTINUOUS
 66
     1
 40
0.000000
 41
0.000000
  0
VERTEX
  8
0
  6
CONTINUOUS
 10
1.505680
 20
2.123880
  0
VERTEX
  8
0
  6
CONTINUOUS
 10
1.509200
 20
2.886400
  0
VERTEX
  8
0
  6
CONTINUOUS
 10
1.575640
 20
2.944040
  0
VERTEX
  8
0
  6
CONTINUOUS
 10
1.571680
 20
2.181520
  0
VERTEX
  8
0
  6
CONTINUOUS
 10
1.505680
 20
2.123880
  0
SEQEND
  8
0
  0
SOLID
  8
0
 62
    15
 10
1.571680
 20
2.181520
 11
1.575640
 21
2.944040
 12
1.602480
 22
2.214960
 13
1.606440
 23
2.977040
  0
POLYLINE
  8
0
  6
CONTINUOUS
 66
     1
 40
0.000000
 41
0.000000
  0
VERTEX
  8
0
  6
CONTINUOUS
 10
1.571680
 20
2.181520
  0
VERTEX
  8
0
  6
CONTINUOUS
 10
1.575640
 20
2.944040
  0
VERTEX
  8
0
  6
CONTINUOUS
 10
1.606440
 20
2.977040
  0
VERTEX
  8
0
  6
CONTINUOUS
 10
1.602480
 20
2.214960
  0
VERTEX
  8
0
  6
CONTINUOUS
 10
1.571680
 20
2.181520
  0
SEQEND
  8
0
  0
SOLID
  8
0
 62
    15
 10
1.602480
 20
2.214960
 11
1.606440
 21
2.977040
 12
1.629760
 22
2.254120
 13
1.633720
 23
3.016200
  0
POLYLINE
  8
0
  6
CONTINUOUS
 66
     1
 40
0.000000
 41
0.000000
  0
VERTEX
  8
0
  6
CONTINUOUS
 10
1.602480
 20
2.214960
  0
VERTEX
  8
0
  6
CONTINUOUS
 10
1.606440
 20
2.977040
  0
VERTEX
  8
0
  6
CONTINUOUS
 10
1.633720
 20
3.016200
  0
VERTEX
  8
0
  6
CONTINUOUS
 10
1.629760
 20
2.254120
  0
VERTEX
  8
0
  6
CONTINUOUS
 10
1.602480
 20
2.214960
  0
SEQEND
  8
0
  0
SOLID
  8
0
 62
    15
 10
1.629760
 20
2.254120
 11
1.633720
 21
3.016200
 12
1.653520
 22
2.301640
 13
1.657480
 23
3.063720
  0
POLYLINE
  8
0
  6
CONTINUOUS
 66
     1
 40
0.000000
 41
0.000000
  0
VERTEX
  8
0
  6
CONTINUOUS
 10
1.629760
 20
2.254120
  0
VERTEX
  8
0
  6
CONTINUOUS
 10
1.633720
 20
3.016200
  0
VERTEX
  8
0
  6
CONTINUOUS
 10
1.657480
 20
3.063720
  0
VERTEX
  8
0
  6
CONTINUOUS
 10
1.653520
 20
2.301640
  0
VERTEX
  8
0
  6
CONTINUOUS
 10
1.629760
 20
2.254120
  0
SEQEND
  8
0
  0
SOLID
  8
0
 62
    15
 10
1.653520
 20
2.301640
 11
1.657480
 21
3.063720
 12
1.672000
 22
2.359280
 13
1.675960
 23
3.121360
  0
POLYLINE
  8
0
  6
CONTINUOUS
 66
     1
 40
0.000000
 41
0.000000
  0
VERTEX
  8
0
  6
CONTINUOUS
 10
1.653520
 20
2.301640
  0
VERTEX
  8
0
  6
CONTINUOUS
 10
1.657480
 20
3.063720
  0
VERTEX
  8
0
  6
CONTINUOUS
 10
1.675960
 20
3.121360
  0
VERTEX
  8
0
  6
CONTINUOUS
 10
1.672000
 20
2.359280
  0
VERTEX
  8
0
  6
CONTINUOUS
 10
1.653520
 20
2.301640
  0
SEQEND
  8
0
  0
SOLID
  8
0
 62
    15
 10
1.672000
 20
2.359280
 11
1.675960
 21
3.121360
 12
1.684320
 22
2.429680
 13
1.688280
 23
3.191760
  0
POLYLINE
  8
0
  6
CONTINUOUS
 66
     1
 40
0.000000
 41
0.000000
  0
VERTEX
  8
0
  6
CONTINUOUS
 10
1.672000
 20
2.359280
  0
VERTEX
  8
0
  6
CONTINUOUS
 10
1.675960
 20
3.121360
  0
VERTEX
  8
0
  6
CONTINUOUS
 10
1.688280
 20
3.191760
  0
VERTEX
  8
0
  6
CONTINUOUS
 10
1.684320
 20
2.429680
  0
VERTEX
  8
0
  6
CONTINUOUS
 10
1.672000
 20
2.359280
  0
SEQEND
  8
0
  0
SOLID
  8
0
 62
    15
 10
1.684320
 20
2.429680
 11
1.688280
 21
3.191760
 12
1.690040
 22
2.515040
 13
1.694000
 23
3.277120
  0
POLYLINE
  8
0
  6
CONTINUOUS
 66
     1
 40
0.000000
 41
0.000000
  0
VERTEX
  8
0
  6
CONTINUOUS
 10
1.684320
 20
2.429680
  0
VERTEX
  8
0
  6
CONTINUOUS
 10
1.688280
 20
3.191760
  0
VERTEX
  8
0
  6
CONTINUOUS
 10
1.694000
 20
3.277120
  0
VERTEX
  8
0
  6
CONTINUOUS
 10
1.690040
 20
2.515040
  0
VERTEX
  8
0
  6
CONTINUOUS
 10
1.684320
 20
2.429680
  0
SEQEND
  8
0
  0
SOLID
  8
0
 62
    15
 10
1.690040
 20
2.515040
 11
1.694000
 21
3.277120
 12
1.690040
 22
2.521200
 13
1.694000
 23
3.283280
  0
POLYLINE
  8
0
  6
CONTINUOUS
 66
     1
 40
0.000000
 41
0.000000
  0
VERTEX
  8
0
  6
CONTINUOUS
 10
1.690040
 20
2.515040
  0
VERTEX
  8
0
  6
CONTINUOUS
 10
1.694000
 20
3.277120
  0
VERTEX
  8
0
  6
CONTINUOUS
 10
1.694000
 20
3.283280
  0
VERTEX
  8
0
  6
CONTINUOUS
 10
1.690040
 20
2.521200
  0
VERTEX
  8
0
  6
CONTINUOUS
 10
1.690040
 20
2.515040
  0
SEQEND
  8
0
  0
SOLID
  8
0
 62
    15
 10
1.690040
 20
2.521200
 11
1.694000
 21
3.283280
 12
1.850200
 22
2.521200
 13
1.854160
 23
3.283280
  0
POLYLINE
  8
0
  6
CONTINUOUS
 66
     1
 40
0.000000
 41
0.000000
  0
VERTEX
  8
0
  6
CONTINUOUS
 10
1.690040
 20
2.521200
  0
VERTEX
  8
0
  6
CONTINUOUS
 10
1.694000
 20
3.283280
  0
VERTEX
  8
0
  6
CONTINUOUS
 10
1.854160
 20
3.283280
  0
VERTEX
  8
0
  6
CONTINUOUS
 10
1.850200
 20
2.521200
  0
VERTEX
  8
0
  6
CONTINUOUS
 10
1.690040
 20
2.521200
  0
SEQEND
  8
0
  0
SOLID
  8
0
 62
    15
 10
1.850200
 20
2.521200
 11
1.854160
 21
3.283280
 12
1.857680
 22
2.522960
 13
1.861640
 23
3.285040
  0
POLYLINE
  8
0
  6
CONTINUOUS
 66
     1
 40
0.000000
 41
0.000000
  0
VERTEX
  8
0
  6
CONTINUOUS
 10
1.850200
 20
2.521200
  0
VERTEX
  8
0
  6
CONTINUOUS
 10
1.854160
 20
3.283280
  0
VERTEX
  8
0
  6
CONTINUOUS
 10
1.861640
 20
3.285040
  0
VERTEX
  8
0
  6
CONTINUOUS
 10
1.857680
 20
2.522960
  0
VERTEX
  8
0
  6
CONTINUOUS
 10
1.850200
 20
2.521200
  0
SEQEND
  8
0
  0
SOLID
  8
0
 62
    15
 10
1.857680
 20
2.522960
 11
1.861640
 21
3.285040
 12
1.892440
 22
2.632960
 13
1.896400
 23
3.395480
  0
POLYLINE
  8
0
  6
CONTINUOUS
 66
     1
 40
0.000000
 41
0.000000
  0
VERTEX
  8
0
  6
CONTINUOUS
 10
1.857680
 20
2.522960
  0
VERTEX
  8
0
  6
CONTINUOUS
 10
1.861640
 20
3.285040
  0
VERTEX
  8
0
  6
CONTINUOUS
 10
1.896400
 20
3.395480
  0
VERTEX
  8
0
  6
CONTINUOUS
 10
1.892440
 20
2.632960
  0
VERTEX
  8
0
  6
CONTINUOUS
 10
1.857680
 20
2.522960
  0
SEQEND
  8
0
  0
SOLID
  8
0
 62
    15
 10
1.892440
 20
2.632960
 11
1.896400
 21
3.395480
 12
1.939960
 22
2.725360
 13
1.943920
 23
3.487440
  0
POLYLINE
  8
0
  6
CONTINUOUS
 66
     1
 40
0.000000
 41
0.000000
  0
VERTEX
  8
0
  6
CONTINUOUS
 10
1.892440
 20
2.632960
  0
VERTEX
  8
0
  6
CONTINUOUS
 10
1.896400
 20
3.395480
  0
VERTEX
  8
0
  6
CONTINUOUS
 10
1.943920
 20
3.487440
  0
VERTEX
  8
0
  6
CONTINUOUS
 10
1.939960
 20
2.725360
  0
VERTEX
  8
0
  6
CONTINUOUS
 10
1.892440
 20
2.632960
  0
SEQEND
  8
0
  0
SOLID
  8
0
 62
    15
 10
1.939960
 20
2.725360
 11
1.943920
 21
3.487440
 12
1.998040
 22
2.799720
 13
2.002000
 23
3.561800
  0
POLYLINE
  8
0
  6
CONTINUOUS
 66
     1
 40
0.000000
 41
0.000000
  0
VERTEX
  8
0
  6
CONTINUOUS
 10
1.939960
 20
2.725360
  0
VERTEX
  8
0
  6
CONTINUOUS
 10
1.943920
 20
3.487440
  0
VERTEX
  8
0
  6
CONTINUOUS
 10
2.002000
 20
3.561800
  0
VERTEX
  8
0
  6
CONTINUOUS
 10
1.998040
 20
2.799720
  0
VERTEX
  8
0
  6
CONTINUOUS
 10
1.939960
 20
2.725360
  0
SEQEND
  8
0
  0
SOLID
  8
0
 62
    15
 10
1.998040
 20
2.799720
 11
2.002000
 21
3.561800
 12
2.064920
 22
2.857800
 13
2.068880
 23
3.619880
  0
POLYLINE
  8
0
  6
CONTINUOUS
 66
     1
 40
0.000000
 41
0.000000
  0
VERTEX
  8
0
  6
CONTINUOUS
 10
1.998040
 20
2.799720
  0
VERTEX
  8
0
  6
CONTINUOUS
 10
2.002000
 20
3.561800
  0
VERTEX
  8
0
  6
CONTINUOUS
 10
2.068880
 20
3.619880
  0
VERTEX
  8
0
  6
CONTINUOUS
 10
2.064920
 20
2.857800
  0
VERTEX
  8
0
  6
CONTINUOUS
 10
1.998040
 20
2.799720
  0
SEQEND
  8
0
  0
SOLID
  8
0
 62
    15
 10
2.064920
 20
2.857800
 11
2.068880
 21
3.619880
 12
2.138400
 22
2.899600
 13
2.142360
 23
3.662120
  0
POLYLINE
  8
0
  6
CONTINUOUS
 66
     1
 40
0.000000
 41
0.000000
  0
VERTEX
  8
0
  6
CONTINUOUS
 10
2.064920
 20
2.857800
  0
VERTEX
  8
0
  6
CONTINUOUS
 10
2.068880
 20
3.619880
  0
VERTEX
  8
0
  6
CONTINUOUS
 10
2.142360
 20
3.662120
  0
VERTEX
  8
0
  6
CONTINUOUS
 10
2.138400
 20
2.899600
  0
VERTEX
  8
0
  6
CONTINUOUS
 10
2.064920
 20
2.857800
  0
SEQEND
  8
0
  0
SOLID
  8
0
 62
    15
 10
2.138400
 20
2.899600
 11
2.142360
 21
3.662120
 12
2.216720
 22
2.926440
 13
2.220680
 23
3.688960
  0
POLYLINE
  8
0
  6
CONTINUOUS
 66
     1
 40
0.000000
 41
0.000000
  0
VERTEX
  8
0
  6
CONTINUOUS
 10
2.138400
 20
2.899600
  0
VERTEX
  8
0
  6
CONTINUOUS
 10
2.142360
 20
3.662120
  0
VERTEX
  8
0
  6
CONTINUOUS
 10
2.220680
 20
3.688960
  0
VERTEX
  8
0
  6
CONTINUOUS
 10
2.216720
 20
2.926440
  0
VERTEX
  8
0
  6
CONTINUOUS
 10
2.138400
 20
2.899600
  0
SEQEND
  8
0
  0
SOLID
  8
0
 62
    15
 10
2.216720
 20
2.926440
 11
2.220680
 21
3.688960
 12
2.298120
 22
2.939200
 13
2.302080
 23
3.701280
  0
POLYLINE
  8
0
  6
CONTINUOUS
 66
     1
 40
0.000000
 41
0.000000
  0
VERTEX
  8
0
  6
CONTINUOUS
 10
2.216720
 20
2.926440
  0
VERTEX
  8
0
  6
CONTINUOUS
 10
2.220680
 20
3.688960
  0
VERTEX
  8
0
  6
CONTINUOUS
 10
2.302080
 20
3.701280
  0
VERTEX
  8
0
  6
CONTINUOUS
 10
2.298120
 20
2.939200
  0
VERTEX
  8
0
  6
CONTINUOUS
 10
2.216720
 20
2.926440
  0
SEQEND
  8
0
  0
SOLID
  8
0
 62
    15
 10
2.298120
 20
2.939200
 11
2.302080
 21
3.701280
 12
2.380400
 22
2.937880
 13
2.384360
 23
3.700400
  0
POLYLINE
  8
0
  6
CONTINUOUS
 66
     1
 40
0.000000
 41
0.000000
  0
VERTEX
  8
0
  6
CONTINUOUS
 10
2.298120
 20
2.939200
  0
VERTEX
  8
0
  6
CONTINUOUS
 10
2.302080
 20
3.701280
  0
VERTEX
  8
0
  6
CONTINUOUS
 10
2.384360
 20
3.700400
  0
VERTEX
  8
0
  6
CONTINUOUS
 10
2.380400
 20
2.937880
  0
VERTEX
  8
0
  6
CONTINUOUS
 10
2.298120
 20
2.939200
  0
SEQEND
  8
0
  0
SOLID
  8
0
 62
    15
 10
2.380400
 20
2.937880
 11
2.384360
 21
3.700400
 12
2.461800
 22
2.924240
 13
2.465760
 23
3.686320
  0
POLYLINE
  8
0
  6
CONTINUOUS
 66
     1
 40
0.000000
 41
0.000000
  0
VERTEX
  8
0
  6
CONTINUOUS
 10
2.380400
 20
2.937880
  0
VERTEX
  8
0
  6
CONTINUOUS
 10
2.384360
 20
3.700400
  0
VERTEX
  8
0
  6
CONTINUOUS
 10
2.465760
 20
3.686320
  0
VERTEX
  8
0
  6
CONTINUOUS
 10
2.461800
 20
2.924240
  0
VERTEX
  8
0
  6
CONTINUOUS
 10
2.380400
 20
2.937880
  0
SEQEND
  8
0
  0
SOLID
  8
0
 62
    15
 10
2.461800
 20
2.924240
 11
2.465760
 21
3.686320
 12
2.540120
 22
2.898280
 13
2.544080
 23
3.660360
  0
POLYLINE
  8
0
  6
CONTINUOUS
 66
     1
 40
0.000000
 41
0.000000
  0
VERTEX
  8
0
  6
CONTINUOUS
 10
2.461800
 20
2.924240
  0
VERTEX
  8
0
  6
CONTINUOUS
 10
2.465760
 20
3.686320
  0
VERTEX
  8
0
  6
CONTINUOUS
 10
2.544080
 20
3.660360
  0
VERTEX
  8
0
  6
CONTINUOUS
 10
2.540120
 20
2.898280
  0
VERTEX
  8
0
  6
CONTINUOUS
 10
2.461800
 20
2.924240
  0
SEQEND
  8
0
  0
SOLID
  8
0
 62
    15
 10
2.540120
 20
2.898280
 11
2.544080
 21
3.660360
 12
2.613600
 22
2.860880
 13
2.617560
 23
3.622960
  0
POLYLINE
  8
0
  6
CONTINUOUS
 66
     1
 40
0.000000
 41
0.000000
  0
VERTEX
  8
0
  6
CONTINUOUS
 10
2.540120
 20
2.898280
  0
VERTEX
  8
0
  6
CONTINUOUS
 10
2.544080
 20
3.660360
  0
VERTEX
  8
0
  6
CONTINUOUS
 10
2.617560
 20
3.622960
  0
VERTEX
  8
0
  6
CONTINUOUS
 10
2.613600
 20
2.860880
  0
VERTEX
  8
0
  6
CONTINUOUS
 10
2.540120
 20
2.898280
  0
SEQEND
  8
0
  0
SOLID
  8
0
 62
    15
 10
2.613600
 20
2.860880
 11
2.617560
 21
3.622960
 12
2.680480
 22
2.812920
 13
2.684440
 23
3.575000
  0
POLYLINE
  8
0
  6
CONTINUOUS
 66
     1
 40
0.000000
 41
0.000000
  0
VERTEX
  8
0
  6
CONTINUOUS
 10
2.613600
 20
2.860880
  0
VERTEX
  8
0
  6
CONTINUOUS
 10
2.617560
 20
3.622960
  0
VERTEX
  8
0
  6
CONTINUOUS
 10
2.684440
 20
3.575000
  0
VERTEX
  8
0
  6
CONTINUOUS
 10
2.680480
 20
2.812920
  0
VERTEX
  8
0
  6
CONTINUOUS
 10
2.613600
 20
2.860880
  0
SEQEND
  8
0
  0
SOLID
  8
0
 62
    15
 10
2.680480
 20
2.812920
 11
2.684440
 21
3.575000
 12
2.738560
 22
2.755280
 13
2.742080
 23
3.517360
  0
POLYLINE
  8
0
  6
CONTINUOUS
 66
     1
 40
0.000000
 41
0.000000
  0
VERTEX
  8
0
  6
CONTINUOUS
 10
2.680480
 20
2.812920
  0
VERTEX
  8
0
  6
CONTINUOUS
 10
2.684440
 20
3.575000
  0
VERTEX
  8
0
  6
CONTINUOUS
 10
2.742080
 20
3.517360
  0
VERTEX
  8
0
  6
CONTINUOUS
 10
2.738560
 20
2.755280
  0
VERTEX
  8
0
  6
CONTINUOUS
 10
2.680480
 20
2.812920
  0
SEQEND
  8
0
  0
SOLID
  8
0
 62
    15
 10
2.738560
 20
2.755280
 11
2.742080
 21
3.517360
 12
2.785640
 22
2.688840
 13
2.789600
 23
3.450920
  0
POLYLINE
  8
0
  6
CONTINUOUS
 66
     1
 40
0.000000
 41
0.000000
  0
VERTEX
  8
0
  6
CONTINUOUS
 10
2.738560
 20
2.755280
  0
VERTEX
  8
0
  6
CONTINUOUS
 10
2.742080
 20
3.517360
  0
VERTEX
  8
0
  6
CONTINUOUS
 10
2.789600
 20
3.450920
  0
VERTEX
  8
0
  6
CONTINUOUS
 10
2.785640
 20
2.688840
  0
VERTEX
  8
0
  6
CONTINUOUS
 10
2.738560
 20
2.755280
  0
SEQEND
  8
0
  0
SOLID
  8
0
 62
    15
 10
2.785640
 20
2.688840
 11
2.789600
 21
3.450920
 12
2.820400
 22
2.614040
 13
2.824360
 23
3.376120
  0
POLYLINE
  8
0
  6
CONTINUOUS
 66
     1
 40
0.000000
 41
0.000000
  0
VERTEX
  8
0
  6
CONTINUOUS
 10
2.785640
 20
2.688840
  0
VERTEX
  8
0
  6
CONTINUOUS
 10
2.789600
 20
3.450920
  0
VERTEX
  8
0
  6
CONTINUOUS
 10
2.824360
 20
3.376120
  0
VERTEX
  8
0
  6
CONTINUOUS
 10
2.820400
 20
2.614040
  0
VERTEX
  8
0
  6
CONTINUOUS
 10
2.785640
 20
2.688840
  0
SEQEND
  8
0
  0
SOLID
  8
0
 62
    15
 10
2.820400
 20
2.614040
 11
2.824360
 21
3.376120
 12
2.841080
 22
2.531760
 13
2.845040
 23
3.293840
  0
POLYLINE
  8
0
  6
CONTINUOUS
 66
     1
 40
0.000000
 41
0.000000
  0
VERTEX
  8
0
  6
CONTINUOUS
 10
2.820400
 20
2.614040
  0
VERTEX
  8
0
  6
CONTINUOUS
 10
2.824360
 20
3.376120
  0
VERTEX
  8
0
  6
CONTINUOUS
 10
2.845040
 20
3.293840
  0
VERTEX
  8
0
  6
CONTINUOUS
 10
2.841080
 20
2.531760
  0
VERTEX
  8
0
  6
CONTINUOUS
 10
2.820400
 20
2.614040
  0
SEQEND
  8
0
  0
SOLID
  8
0
 62
    15
 10
2.841080
 20
2.531760
 11
2.845040
 21
3.293840
 12
2.844160
 22
2.525160
 13
2.848120
 23
3.287680
  0
POLYLINE
  8
0
  6
CONTINUOUS
 66
     1
 40
0.000000
 41
0.000000
  0
VERTEX
  8
0
  6
CONTINUOUS
 10
2.841080
 20
2.531760
  0
VERTEX
  8
0
  6
CONTINUOUS
 10
2.845040
 20
3.293840
  0
VERTEX
  8
0
  6
CONTINUOUS
 10
2.848120
 20
3.287680
  0
VERTEX
  8
0
  6
CONTINUOUS
 10
2.844160
 20
2.525160
  0
VERTEX
  8
0
  6
CONTINUOUS
 10
2.841080
 20
2.531760
  0
SEQEND
  8
0
  0
SOLID
  8
0
 62
    15
 10
2.844160
 20
2.525160
 11
2.848120
 21
3.287680
 12
3.031600
 22
2.525160
 13
3.035560
 23
3.287680
  0
POLYLINE
  8
0
  6
CONTINUOUS
 66
     1
 40
0.000000
 41
0.000000
  0
VERTEX
  8
0
  6
CONTINUOUS
 10
2.844160
 20
2.525160
  0
VERTEX
  8
0
  6
CONTINUOUS
 10
2.848120
 20
3.287680
  0
VERTEX
  8
0
  6
CONTINUOUS
 10
3.035560
 20
3.287680
  0
VERTEX
  8
0
  6
CONTINUOUS
 10
3.031600
 20
2.525160
  0
VERTEX
  8
0
  6
CONTINUOUS
 10
2.844160
 20
2.525160
  0
SEQEND
  8
0
  0
SOLID
  8
0
 62
    15
 10
3.031600
 20
2.525160
 11
3.035560
 21
3.287680
 12
3.035560
 22
2.518560
 13
3.039080
 23
3.280640
  0
POLYLINE
  8
0
  6
CONTINUOUS
 66
     1
 40
0.000000
 41
0.000000
  0
VERTEX
  8
0
  6
CONTINUOUS
 10
3.031600
 20
2.525160
  0
VERTEX
  8
0
  6
CONTINUOUS
 10
3.035560
 20
3.287680
  0
VERTEX
  8
0
  6
CONTINUOUS
 10
3.039080
 20
3.280640
  0
VERTEX
  8
0
  6
CONTINUOUS
 10
3.035560
 20
2.518560
  0
VERTEX
  8
0
  6
CONTINUOUS
 10
3.031600
 20
2.525160
  0
SEQEND
  8
0
  0
SOLID
  8
0
 62
    15
 10
3.035560
 20
2.518560
 11
3.039080
 21
3.280640
 12
3.047440
 22
2.496560
 13
3.051400
 23
3.258640
  0
POLYLINE
  8
0
  6
CONTINUOUS
 66
     1
 40
0.000000
 41
0.000000
  0
VERTEX
  8
0
  6
CONTINUOUS
 10
3.035560
 20
2.518560
  0
VERTEX
  8
0
  6
CONTINUOUS
 10
3.039080
 20
3.280640
  0
VERTEX
  8
0
  6
CONTINUOUS
 10
3.051400
 20
3.258640
  0
VERTEX
  8
0
  6
CONTINUOUS
 10
3.047440
 20
2.496560
  0
VERTEX
  8
0
  6
CONTINUOUS
 10
3.035560
 20
2.518560
  0
SEQEND
  8
0
  0
SOLID
  8
0
 62
    15
 10
3.047440
 20
2.496560
 11
3.051400
 21
3.258640
 12
3.065920
 22
2.463560
 13
3.069880
 23
3.225640
  0
POLYLINE
  8
0
  6
CONTINUOUS
 66
     1
 40
0.000000
 41
0.000000
  0
VERTEX
  8
0
  6
CONTINUOUS
 10
3.047440
 20
2.496560
  0
VERTEX
  8
0
  6
CONTINUOUS
 10
3.051400
 20
3.258640
  0
VERTEX
  8
0
  6
CONTINUOUS
 10
3.069880
 20
3.225640
  0
VERTEX
  8
0
  6
CONTINUOUS
 10
3.065920
 20
2.463560
  0
VERTEX
  8
0
  6
CONTINUOUS
 10
3.047440
 20
2.496560
  0
SEQEND
  8
0
  0
SOLID
  8
0
 62
    15
 10
1.321320
 20
1.687840
 11
1.325280
 21
2.449920
 12
1.326600
 22
1.783760
 13
1.330560
 23
2.545840
  0
POLYLINE
  8
0
  6
CONTINUOUS
 66
     1
 40
0.000000
 41
0.000000
  0
VERTEX
  8
0
  6
CONTINUOUS
 10
1.321320
 20
1.687840
  0
VERTEX
  8
0
  6
CONTINUOUS
 10
1.325280
 20
2.449920
  0
VERTEX
  8
0
  6
CONTINUOUS
 10
1.330560
 20
2.545840
  0
VERTEX
  8
0
  6
CONTINUOUS
 10
1.326600
 20
1.783760
  0
VERTEX
  8
0
  6
CONTINUOUS
 10
1.321320
 20
1.687840
  0
SEQEND
  8
0
  0
SOLID
  8
0
 62
    15
 10
3.115200
 20
2.388760
 11
3.119160
 21
3.150840
 12
3.149080
 22
2.348720
 13
3.153040
 23
3.111240
  0
POLYLINE
  8
0
  6
CONTINUOUS
 66
     1
 40
0.000000
 41
0.000000
  0
VERTEX
  8
0
  6
CONTINUOUS
 10
3.115200
 20
2.388760
  0
VERTEX
  8
0
  6
CONTINUOUS
 10
3.119160
 20
3.150840
  0
VERTEX
  8
0
  6
CONTINUOUS
 10
3.153040
 20
3.111240
  0
VERTEX
  8
0
  6
CONTINUOUS
 10
3.149080
 20
2.348720
  0
VERTEX
  8
0
  6
CONTINUOUS
 10
3.115200
 20
2.388760
  0
SEQEND
  8
0
  0
SOLID
  8
0
 62
    15
 10
3.149080
 20
2.348720
 11
3.153040
 21
3.111240
 12
3.190000
 22
2.308240
 13
3.193960
 23
3.070320
  0
POLYLINE
  8
0
  6
CONTINUOUS
 66
     1
 40
0.000000
 41
0.000000
  0
VERTEX
  8
0
  6
CONTINUOUS
 10
3.149080
 20
2.348720
  0
VERTEX
  8
0
  6
CONTINUOUS
 10
3.153040
 20
3.111240
  0
VERTEX
  8
0
  6
CONTINUOUS
 10
3.193960
 20
3.070320
  0
VERTEX
  8
0
  6
CONTINUOUS
 10
3.190000
 20
2.308240
  0
VERTEX
  8
0
  6
CONTINUOUS
 10
3.149080
 20
2.348720
  0
SEQEND
  8
0
  0
SOLID
  8
0
 62
    15
 10
3.190000
 20
2.308240
 11
3.193960
 21
3.070320
 12
3.239280
 22
2.267760
 13
3.243240
 23
3.030280
  0
POLYLINE
  8
0
  6
CONTINUOUS
 66
     1
 40
0.000000
 41
0.000000
  0
VERTEX
  8
0
  6
CONTINUOUS
 10
3.190000
 20
2.308240
  0
VERTEX
  8
0
  6
CONTINUOUS
 10
3.193960
 20
3.070320
  0
VERTEX
  8
0
  6
CONTINUOUS
 10
3.243240
 20
3.030280
  0
VERTEX
  8
0
  6
CONTINUOUS
 10
3.239280
 20
2.267760
  0
VERTEX
  8
0
  6
CONTINUOUS
 10
3.190000
 20
2.308240
  0
SEQEND
  8
0
  0
SOLID
  8
0
 62
    15
 10
3.239280
 20
2.267760
 11
3.243240
 21
3.030280
 12
3.298680
 22
2.228600
 13
3.302640
 23
2.991120
  0
POLYLINE
  8
0
  6
CONTINUOUS
 66
     1
 40
0.000000
 41
0.000000
  0
VERTEX
  8
0
  6
CONTINUOUS
 10
3.239280
 20
2.267760
  0
VERTEX
  8
0
  6
CONTINUOUS
 10
3.243240
 20
3.030280
  0
VERTEX
  8
0
  6
CONTINUOUS
 10
3.302640
 20
2.991120
  0
VERTEX
  8
0
  6
CONTINUOUS
 10
3.298680
 20
2.228600
  0
VERTEX
  8
0
  6
CONTINUOUS
 10
3.239280
 20
2.267760
  0
SEQEND
  8
0
  0
SOLID
  8
0
 62
    15
 10
3.298680
 20
2.228600
 11
3.302640
 21
2.991120
 12
3.369080
 22
2.191640
 13
3.373040
 23
2.953720
  0
POLYLINE
  8
0
  6
CONTINUOUS
 66
     1
 40
0.000000
 41
0.000000
  0
VERTEX
  8
0
  6
CONTINUOUS
 10
3.298680
 20
2.228600
  0
VERTEX
  8
0
  6
CONTINUOUS
 10
3.302640
 20
2.991120
  0
VERTEX
  8
0
  6
CONTINUOUS
 10
3.373040
 20
2.953720
  0
VERTEX
  8
0
  6
CONTINUOUS
 10
3.369080
 20
2.191640
  0
VERTEX
  8
0
  6
CONTINUOUS
 10
3.298680
 20
2.228600
  0
SEQEND
  8
0
  0
SOLID
  8
0
 62
    15
 10
3.369080
 20
2.191640
 11
3.373040
 21
2.953720
 12
3.451800
 22
2.156880
 13
3.455760
 23
2.919400
  0
POLYLINE
  8
0
  6
CONTINUOUS
 66
     1
 40
0.000000
 41
0.000000
  0
VERTEX
  8
0
  6
CONTINUOUS
 10
3.369080
 20
2.191640
  0
VERTEX
  8
0
  6
CONTINUOUS
 10
3.373040
 20
2.953720
  0
VERTEX
  8
0
  6
CONTINUOUS
 10
3.455760
 20
2.919400
  0
VERTEX
  8
0
  6
CONTINUOUS
 10
3.451800
 20
2.156880
  0
VERTEX
  8
0
  6
CONTINUOUS
 10
3.369080
 20
2.191640
  0
SEQEND
  8
0
  0
SOLID
  8
0
 62
    15
 10
3.451800
 20
2.156880
 11
3.455760
 21
2.919400
 12
3.547280
 22
2.126520
 13
3.551240
 23
2.888600
  0
POLYLINE
  8
0
  6
CONTINUOUS
 66
     1
 40
0.000000
 41
0.000000
  0
VERTEX
  8
0
  6
CONTINUOUS
 10
3.451800
 20
2.156880
  0
VERTEX
  8
0
  6
CONTINUOUS
 10
3.455760
 20
2.919400
  0
VERTEX
  8
0
  6
CONTINUOUS
 10
3.551240
 20
2.888600
  0
VERTEX
  8
0
  6
CONTINUOUS
 10
3.547280
 20
2.126520
  0
VERTEX
  8
0
  6
CONTINUOUS
 10
3.451800
 20
2.156880
  0
SEQEND
  8
0
  0
SOLID
  8
0
 62
    15
 10
3.547280
 20
2.126520
 11
3.551240
 21
2.888600
 12
3.657720
 22
2.100120
 13
3.661680
 23
2.862640
  0
POLYLINE
  8
0
  6
CONTINUOUS
 66
     1
 40
0.000000
 41
0.000000
  0
VERTEX
  8
0
  6
CONTINUOUS
 10
3.547280
 20
2.126520
  0
VERTEX
  8
0
  6
CONTINUOUS
 10
3.551240
 20
2.888600
  0
VERTEX
  8
0
  6
CONTINUOUS
 10
3.661680
 20
2.862640
  0
VERTEX
  8
0
  6
CONTINUOUS
 10
3.657720
 20
2.100120
  0
VERTEX
  8
0
  6
CONTINUOUS
 10
3.547280
 20
2.126520
  0
SEQEND
  8
0
  0
SOLID
  8
0
 62
    15
 10
3.657720
 20
2.100120
 11
3.661680
 21
2.862640
 12
3.784000
 22
2.079440
 13
3.787960
 23
2.841960
  0
POLYLINE
  8
0
  6
CONTINUOUS
 66
     1
 40
0.000000
 41
0.000000
  0
VERTEX
  8
0
  6
CONTINUOUS
 10
3.657720
 20
2.100120
  0
VERTEX
  8
0
  6
CONTINUOUS
 10
3.661680
 20
2.862640
  0
VERTEX
  8
0
  6
CONTINUOUS
 10
3.787960
 20
2.841960
  0
VERTEX
  8
0
  6
CONTINUOUS
 10
3.784000
 20
2.079440
  0
VERTEX
  8
0
  6
CONTINUOUS
 10
3.657720
 20
2.100120
  0
SEQEND
  8
0
  0
SOLID
  8
0
 62
    15
 10
3.784000
 20
2.079440
 11
3.787960
 21
2.841960
 12
3.927440
 22
2.065360
 13
3.931400
 23
2.827440
  0
POLYLINE
  8
0
  6
CONTINUOUS
 66
     1
 40
0.000000
 41
0.000000
  0
VERTEX
  8
0
  6
CONTINUOUS
 10
3.784000
 20
2.079440
  0
VERTEX
  8
0
  6
CONTINUOUS
 10
3.787960
 20
2.841960
  0
VERTEX
  8
0
  6
CONTINUOUS
 10
3.931400
 20
2.827440
  0
VERTEX
  8
0
  6
CONTINUOUS
 10
3.927440
 20
2.065360
  0
VERTEX
  8
0
  6
CONTINUOUS
 10
3.784000
 20
2.079440
  0
SEQEND
  8
0
  0
SOLID
  8
0
 62
    15
 10
3.927440
 20
2.065360
 11
3.931400
 21
2.827440
 12
4.088480
 22
2.057880
 13
4.092440
 23
2.819960
  0
POLYLINE
  8
0
  6
CONTINUOUS
 66
     1
 40
0.000000
 41
0.000000
  0
VERTEX
  8
0
  6
CONTINUOUS
 10
3.927440
 20
2.065360
  0
VERTEX
  8
0
  6
CONTINUOUS
 10
3.931400
 20
2.827440
  0
VERTEX
  8
0
  6
CONTINUOUS
 10
4.092440
 20
2.819960
  0
VERTEX
  8
0
  6
CONTINUOUS
 10
4.088480
 20
2.057880
  0
VERTEX
  8
0
  6
CONTINUOUS
 10
3.927440
 20
2.065360
  0
SEQEND
  8
0
  0
SOLID
  8
0
 62
    15
 10
4.088480
 20
2.057880
 11
4.092440
 21
2.819960
 12
4.268880
 22
2.058760
 13
4.272840
 23
2.820840
  0
POLYLINE
  8
0
  6
CONTINUOUS
 66
     1
 40
0.000000
 41
0.000000
  0
VERTEX
  8
0
  6
CONTINUOUS
 10
4.088480
 20
2.057880
  0
VERTEX
  8
0
  6
CONTINUOUS
 10
4.092440
 20
2.819960
  0
VERTEX
  8
0
  6
CONTINUOUS
 10
4.272840
 20
2.820840
  0
VERTEX
  8
0
  6
CONTINUOUS
 10
4.268880
 20
2.058760
  0
VERTEX
  8
0
  6
CONTINUOUS
 10
4.088480
 20
2.057880
  0
SEQEND
  8
0
  0
SOLID
  8
0
 62
    15
 10
4.268880
 20
2.058760
 11
4.272840
 21
2.820840
 12
4.275480
 22
2.067120
 13
4.279440
 23
2.829200
  0
POLYLINE
  8
0
  6
CONTINUOUS
 66
     1
 40
0.000000
 41
0.000000
  0
VERTEX
  8
0
  6
CONTINUOUS
 10
4.268880
 20
2.058760
  0
VERTEX
  8
0
  6
CONTINUOUS
 10
4.272840
 20
2.820840
  0
VERTEX
  8
0
  6
CONTINUOUS
 10
4.279440
 20
2.829200
  0
VERTEX
  8
0
  6
CONTINUOUS
 10
4.275480
 20
2.067120
  0
VERTEX
  8
0
  6
CONTINUOUS
 10
4.268880
 20
2.058760
  0
SEQEND
  8
0
  0
SOLID
  8
0
 62
    15
 10
4.275480
 20
2.067120
 11
4.279440
 21
2.829200
 12
4.297040
 22
2.110680
 13
4.301000
 23
2.872760
  0
POLYLINE
  8
0
  6
CONTINUOUS
 66
     1
 40
0.000000
 41
0.000000
  0
VERTEX
  8
0
  6
CONTINUOUS
 10
4.275480
 20
2.067120
  0
VERTEX
  8
0
  6
CONTINUOUS
 10
4.279440
 20
2.829200
  0
VERTEX
  8
0
  6
CONTINUOUS
 10
4.301000
 20
2.872760
  0
VERTEX
  8
0
  6
CONTINUOUS
 10
4.297040
 20
2.110680
  0
VERTEX
  8
0
  6
CONTINUOUS
 10
4.275480
 20
2.067120
  0
SEQEND
  8
0
  0
SOLID
  8
0
 62
    15
 10
4.297040
 20
2.110680
 11
4.301000
 21
2.872760
 12
4.325640
 22
2.146760
 13
4.329600
 23
2.908840
  0
POLYLINE
  8
0
  6
CONTINUOUS
 66
     1
 40
0.000000
 41
0.000000
  0
VERTEX
  8
0
  6
CONTINUOUS
 10
4.297040
 20
2.110680
  0
VERTEX
  8
0
  6
CONTINUOUS
 10
4.301000
 20
2.872760
  0
VERTEX
  8
0
  6
CONTINUOUS
 10
4.329600
 20
2.908840
  0
VERTEX
  8
0
  6
CONTINUOUS
 10
4.325640
 20
2.146760
  0
VERTEX
  8
0
  6
CONTINUOUS
 10
4.297040
 20
2.110680
  0
SEQEND
  8
0
  0
SOLID
  8
0
 62
    15
 10
4.325640
 20
2.146760
 11
4.329600
 21
2.908840
 12
4.359960
 22
2.175360
 13
4.363920
 23
2.937440
  0
POLYLINE
  8
0
  6
CONTINUOUS
 66
     1
 40
0.000000
 41
0.000000
  0
VERTEX
  8
0
  6
CONTINUOUS
 10
4.325640
 20
2.146760
  0
VERTEX
  8
0
  6
CONTINUOUS
 10
4.329600
 20
2.908840
  0
VERTEX
  8
0
  6
CONTINUOUS
 10
4.363920
 20
2.937440
  0
VERTEX
  8
0
  6
CONTINUOUS
 10
4.359960
 20
2.175360
  0
VERTEX
  8
0
  6
CONTINUOUS
 10
4.325640
 20
2.146760
  0
SEQEND
  8
0
  0
SOLID
  8
0
 62
    15
 10
4.359960
 20
2.175360
 11
4.363920
 21
2.937440
 12
4.399120
 22
2.196920
 13
4.403080
 23
2.959440
  0
POLYLINE
  8
0
  6
CONTINUOUS
 66
     1
 40
0.000000
 41
0.000000
  0
VERTEX
  8
0
  6
CONTINUOUS
 10
4.359960
 20
2.175360
  0
VERTEX
  8
0
  6
CONTINUOUS
 10
4.363920
 20
2.937440
  0
VERTEX
  8
0
  6
CONTINUOUS
 10
4.403080
 20
2.959440
  0
VERTEX
  8
0
  6
CONTINUOUS
 10
4.399120
 20
2.196920
  0
VERTEX
  8
0
  6
CONTINUOUS
 10
4.359960
 20
2.175360
  0
SEQEND
  8
0
  0
SOLID
  8
0
 62
    15
 10
4.399120
 20
2.196920
 11
4.403080
 21
2.959440
 12
4.441360
 22
2.211880
 13
4.445320
 23
2.973960
  0
POLYLINE
  8
0
  6
CONTINUOUS
 66
     1
 40
0.000000
 41
0.000000
  0
VERTEX
  8
0
  6
CONTINUOUS
 10
4.399120
 20
2.196920
  0
VERTEX
  8
0
  6
CONTINUOUS
 10
4.403080
 20
2.959440
  0
VERTEX
  8
0
  6
CONTINUOUS
 10
4.445320
 20
2.973960
  0
VERTEX
  8
0
  6
CONTINUOUS
 10
4.441360
 20
2.211880
  0
VERTEX
  8
0
  6
CONTINUOUS
 10
4.399120
 20
2.196920
  0
SEQEND
  8
0
  0
SOLID
  8
0
 62
    15
 10
4.441360
 20
2.211880
 11
4.445320
 21
2.973960
 12
4.485360
 22
2.219800
 13
4.489320
 23
2.981880
  0
POLYLINE
  8
0
  6
CONTINUOUS
 66
     1
 40
0.000000
 41
0.000000
  0
VERTEX
  8
0
  6
CONTINUOUS
 10
4.441360
 20
2.211880
  0
VERTEX
  8
0
  6
CONTINUOUS
 10
4.445320
 20
2.973960
  0
VERTEX
  8
0
  6
CONTINUOUS
 10
4.489320
 20
2.981880
  0
VERTEX
  8
0
  6
CONTINUOUS
 10
4.485360
 20
2.219800
  0
VERTEX
  8
0
  6
CONTINUOUS
 10
4.441360
 20
2.211880
  0
SEQEND
  8
0
  0
SOLID
  8
0
 62
    15
 10
4.485360
 20
2.219800
 11
4.489320
 21
2.981880
 12
4.531120
 22
2.221120
 13
4.534640
 23
2.983640
  0
POLYLINE
  8
0
  6
CONTINUOUS
 66
     1
 40
0.000000
 41
0.000000
  0
VERTEX
  8
0
  6
CONTINUOUS
 10
4.485360
 20
2.219800
  0
VERTEX
  8
0
  6
CONTINUOUS
 10
4.489320
 20
2.981880
  0
VERTEX
  8
0
  6
CONTINUOUS
 10
4.534640
 20
2.983640
  0
VERTEX
  8
0
  6
CONTINUOUS
 10
4.531120
 20
2.221120
  0
VERTEX
  8
0
  6
CONTINUOUS
 10
4.485360
 20
2.219800
  0
SEQEND
  8
0
  0
SOLID
  8
0
 62
    15
 10
4.531120
 20
2.221120
 11
4.534640
 21
2.983640
 12
4.576000
 22
2.216280
 13
4.579960
 23
2.978360
  0
POLYLINE
  8
0
  6
CONTINUOUS
 66
     1
 40
0.000000
 41
0.000000
  0
VERTEX
  8
0
  6
CONTINUOUS
 10
4.531120
 20
2.221120
  0
VERTEX
  8
0
  6
CONTINUOUS
 10
4.534640
 20
2.983640
  0
VERTEX
  8
0
  6
CONTINUOUS
 10
4.579960
 20
2.978360
  0
VERTEX
  8
0
  6
CONTINUOUS
 10
4.576000
 20
2.216280
  0
VERTEX
  8
0
  6
CONTINUOUS
 10
4.531120
 20
2.221120
  0
SEQEND
  8
0
  0
SOLID
  8
0
 62
    15
 10
4.576000
 20
2.216280
 11
4.579960
 21
2.978360
 12
4.619560
 22
2.205280
 13
4.623520
 23
2.967360
  0
POLYLINE
  8
0
  6
CONTINUOUS
 66
     1
 40
0.000000
 41
0.000000
  0
VERTEX
  8
0
  6
CONTINUOUS
 10
4.576000
 20
2.216280
  0
VERTEX
  8
0
  6
CONTINUOUS
 10
4.579960
 20
2.978360
  0
VERTEX
  8
0
  6
CONTINUOUS
 10
4.623520
 20
2.967360
  0
VERTEX
  8
0
  6
CONTINUOUS
 10
4.619560
 20
2.205280
  0
VERTEX
  8
0
  6
CONTINUOUS
 10
4.576000
 20
2.216280
  0
SEQEND
  8
0
  0
SOLID
  8
0
 62
    15
 10
4.619560
 20
2.205280
 11
4.623520
 21
2.967360
 12
4.660920
 22
2.187680
 13
4.664880
 23
2.950200
  0
POLYLINE
  8
0
  6
CONTINUOUS
 66
     1
 40
0.000000
 41
0.000000
  0
VERTEX
  8
0
  6
CONTINUOUS
 10
4.619560
 20
2.205280
  0
VERTEX
  8
0
  6
CONTINUOUS
 10
4.623520
 20
2.967360
  0
VERTEX
  8
0
  6
CONTINUOUS
 10
4.664880
 20
2.950200
  0
VERTEX
  8
0
  6
CONTINUOUS
 10
4.660920
 20
2.187680
  0
VERTEX
  8
0
  6
CONTINUOUS
 10
4.619560
 20
2.205280
  0
SEQEND
  8
0
  0
SOLID
  8
0
 62
    15
 10
4.660920
 20
2.187680
 11
4.664880
 21
2.950200
 12
4.698320
 22
2.164800
 13
4.702280
 23
2.926880
  0
POLYLINE
  8
0
  6
CONTINUOUS
 66
     1
 40
0.000000
 41
0.000000
  0
VERTEX
  8
0
  6
CONTINUOUS
 10
4.660920
 20
2.187680
  0
VERTEX
  8
0
  6
CONTINUOUS
 10
4.664880
 20
2.950200
  0
VERTEX
  8
0
  6
CONTINUOUS
 10
4.702280
 20
2.926880
  0
VERTEX
  8
0
  6
CONTINUOUS
 10
4.698320
 20
2.164800
  0
VERTEX
  8
0
  6
CONTINUOUS
 10
4.660920
 20
2.187680
  0
SEQEND
  8
0
  0
SOLID
  8
0
 62
    15
 10
4.698320
 20
2.164800
 11
4.702280
 21
2.926880
 12
4.730880
 22
2.135760
 13
4.734840
 23
2.898280
  0
POLYLINE
  8
0
  6
CONTINUOUS
 66
     1
 40
0.000000
 41
0.000000
  0
VERTEX
  8
0
  6
CONTINUOUS
 10
4.698320
 20
2.164800
  0
VERTEX
  8
0
  6
CONTINUOUS
 10
4.702280
 20
2.926880
  0
VERTEX
  8
0
  6
CONTINUOUS
 10
4.734840
 20
2.898280
  0
VERTEX
  8
0
  6
CONTINUOUS
 10
4.730880
 20
2.135760
  0
VERTEX
  8
0
  6
CONTINUOUS
 10
4.698320
 20
2.164800
  0
SEQEND
  8
0
  0
SOLID
  8
0
 62
    15
 10
4.730880
 20
2.135760
 11
4.734840
 21
2.898280
 12
4.757280
 22
2.101440
 13
4.761240
 23
2.863960
  0
POLYLINE
  8
0
  6
CONTINUOUS
 66
     1
 40
0.000000
 41
0.000000
  0
VERTEX
  8
0
  6
CONTINUOUS
 10
4.730880
 20
2.135760
  0
VERTEX
  8
0
  6
CONTINUOUS
 10
4.734840
 20
2.898280
  0
VERTEX
  8
0
  6
CONTINUOUS
 10
4.761240
 20
2.863960
  0
VERTEX
  8
0
  6
CONTINUOUS
 10
4.757280
 20
2.101440
  0
VERTEX
  8
0
  6
CONTINUOUS
 10
4.730880
 20
2.135760
  0
SEQEND
  8
0
  0
SOLID
  8
0
 62
    15
 10
4.757280
 20
2.101440
 11
4.761240
 21
2.863960
 12
4.776200
 22
2.061840
 13
4.780160
 23
2.823920
  0
POLYLINE
  8
0
  6
CONTINUOUS
 66
     1
 40
0.000000
 41
0.000000
  0
VERTEX
  8
0
  6
CONTINUOUS
 10
4.757280
 20
2.101440
  0
VERTEX
  8
0
  6
CONTINUOUS
 10
4.761240
 20
2.863960
  0
VERTEX
  8
0
  6
CONTINUOUS
 10
4.780160
 20
2.823920
  0
VERTEX
  8
0
  6
CONTINUOUS
 10
4.776200
 20
2.061840
  0
VERTEX
  8
0
  6
CONTINUOUS
 10
4.757280
 20
2.101440
  0
SEQEND
  8
0
  0
SOLID
  8
0
 62
    15
 10
4.787640
 20
1.967240
 11
4.791600
 21
2.729320
 12
4.789840
 22
1.966800
 13
4.793800
 23
2.729320
  0
POLYLINE
  8
0
  6
CONTINUOUS
 66
     1
 40
0.000000
 41
0.000000
  0
VERTEX
  8
0
  6
CONTINUOUS
 10
4.787640
 20
1.967240
  0
VERTEX
  8
0
  6
CONTINUOUS
 10
4.791600
 20
2.729320
  0
VERTEX
  8
0
  6
CONTINUOUS
 10
4.793800
 20
2.729320
  0
VERTEX
  8
0
  6
CONTINUOUS
 10
4.789840
 20
1.966800
  0
VERTEX
  8
0
  6
CONTINUOUS
 10
4.787640
 20
1.967240
  0
SEQEND
  8
0
  0
SOLID
  8
0
 62
    15
 10
4.786760
 20
2.016960
 11
4.790720
 21
2.779040
 12
4.787640
 22
1.967240
 13
4.791600
 23
2.729320
  0
POLYLINE
  8
0
  6
CONTINUOUS
 66
     1
 40
0.000000
 41
0.000000
  0
VERTEX
  8
0
  6
CONTINUOUS
 10
4.786760
 20
2.016960
  0
VERTEX
  8
0
  6
CONTINUOUS
 10
4.790720
 20
2.779040
  0
VERTEX
  8
0
  6
CONTINUOUS
 10
4.791600
 20
2.729320
  0
VERTEX
  8
0
  6
CONTINUOUS
 10
4.787640
 20
1.967240
  0
VERTEX
  8
0
  6
CONTINUOUS
 10
4.786760
 20
2.016960
  0
SEQEND
  8
0
  0
SOLID
  8
0
 62
    15
 10
4.776200
 20
2.061840
 11
4.780160
 21
2.823920
 12
4.786760
 22
2.016960
 13
4.790720
 23
2.779040
  0
POLYLINE
  8
0
  6
CONTINUOUS
 66
     1
 40
0.000000
 41
0.000000
  0
VERTEX
  8
0
  6
CONTINUOUS
 10
4.776200
 20
2.061840
  0
VERTEX
  8
0
  6
CONTINUOUS
 10
4.780160
 20
2.823920
  0
VERTEX
  8
0
  6
CONTINUOUS
 10
4.790720
 20
2.779040
  0
VERTEX
  8
0
  6
CONTINUOUS
 10
4.786760
 20
2.016960
  0
VERTEX
  8
0
  6
CONTINUOUS
 10
4.776200
 20
2.061840
  0
SEQEND
  8
0
  0
SOLID
  8
0
 62
    15
 10
4.789840
 20
1.966800
 11
4.793800
 21
2.729320
 12
4.837800
 22
1.961520
 13
4.841760
 23
2.723600
  0
POLYLINE
  8
0
  6
CONTINUOUS
 66
     1
 40
0.000000
 41
0.000000
  0
VERTEX
  8
0
  6
CONTINUOUS
 10
4.789840
 20
1.966800
  0
VERTEX
  8
0
  6
CONTINUOUS
 10
4.793800
 20
2.729320
  0
VERTEX
  8
0
  6
CONTINUOUS
 10
4.841760
 20
2.723600
  0
VERTEX
  8
0
  6
CONTINUOUS
 10
4.837800
 20
1.961520
  0
VERTEX
  8
0
  6
CONTINUOUS
 10
4.789840
 20
1.966800
  0
SEQEND
  8
0
  0
SOLID
  8
0
 62
    15
 10
4.837800
 20
1.961520
 11
4.841760
 21
2.723600
 12
4.880040
 22
1.949200
 13
4.884000
 23
2.711280
  0
POLYLINE
  8
0
  6
CONTINUOUS
 66
     1
 40
0.000000
 41
0.000000
  0
VERTEX
  8
0
  6
CONTINUOUS
 10
4.837800
 20
1.961520
  0
VERTEX
  8
0
  6
CONTINUOUS
 10
4.841760
 20
2.723600
  0
VERTEX
  8
0
  6
CONTINUOUS
 10
4.884000
 20
2.711280
  0
VERTEX
  8
0
  6
CONTINUOUS
 10
4.880040
 20
1.949200
  0
VERTEX
  8
0
  6
CONTINUOUS
 10
4.837800
 20
1.961520
  0
SEQEND
  8
0
  0
SOLID
  8
0
 62
    15
 10
4.880040
 20
1.949200
 11
4.884000
 21
2.711280
 12
4.916560
 22
1.928960
 13
4.920520
 23
2.691040
  0
POLYLINE
  8
0
  6
CONTINUOUS
 66
     1
 40
0.000000
 41
0.000000
  0
VERTEX
  8
0
  6
CONTINUOUS
 10
4.880040
 20
1.949200
  0
VERTEX
  8
0
  6
CONTINUOUS
 10
4.884000
 20
2.711280
  0
VERTEX
  8
0
  6
CONTINUOUS
 10
4.920520
 20
2.691040
  0
VERTEX
  8
0
  6
CONTINUOUS
 10
4.916560
 20
1.928960
  0
VERTEX
  8
0
  6
CONTINUOUS
 10
4.880040
 20
1.949200
  0
SEQEND
  8
0
  0
SOLID
  8
0
 62
    15
 10
4.916560
 20
1.928960
 11
4.920520
 21
2.691040
 12
4.946480
 22
1.900800
 13
4.950440
 23
2.662880
  0
POLYLINE
  8
0
  6
CONTINUOUS
 66
     1
 40
0.000000
 41
0.000000
  0
VERTEX
  8
0
  6
CONTINUOUS
 10
4.916560
 20
1.928960
  0
VERTEX
  8
0
  6
CONTINUOUS
 10
4.920520
 20
2.691040
  0
VERTEX
  8
0
  6
CONTINUOUS
 10
4.950440
 20
2.662880
  0
VERTEX
  8
0
  6
CONTINUOUS
 10
4.946480
 20
1.900800
  0
VERTEX
  8
0
  6
CONTINUOUS
 10
4.916560
 20
1.928960
  0
SEQEND
  8
0
  0
SOLID
  8
0
 62
    15
 10
4.946480
 20
1.900800
 11
4.950440
 21
2.662880
 12
4.969800
 22
1.863400
 13
4.973760
 23
2.625920
  0
POLYLINE
  8
0
  6
CONTINUOUS
 66
     1
 40
0.000000
 41
0.000000
  0
VERTEX
  8
0
  6
CONTINUOUS
 10
4.946480
 20
1.900800
  0
VERTEX
  8
0
  6
CONTINUOUS
 10
4.950440
 20
2.662880
  0
VERTEX
  8
0
  6
CONTINUOUS
 10
4.973760
 20
2.625920
  0
VERTEX
  8
0
  6
CONTINUOUS
 10
4.969800
 20
1.863400
  0
VERTEX
  8
0
  6
CONTINUOUS
 10
4.946480
 20
1.900800
  0
SEQEND
  8
0
  0
SOLID
  8
0
 62
    15
 10
4.986520
 20
1.816760
 11
4.990480
 21
2.578840
 12
4.995760
 22
1.760000
 13
4.999720
 23
2.522080
  0
POLYLINE
  8
0
  6
CONTINUOUS
 66
     1
 40
0.000000
 41
0.000000
  0
VERTEX
  8
0
  6
CONTINUOUS
 10
4.986520
 20
1.816760
  0
VERTEX
  8
0
  6
CONTINUOUS
 10
4.990480
 20
2.578840
  0
VERTEX
  8
0
  6
CONTINUOUS
 10
4.999720
 20
2.522080
  0
VERTEX
  8
0
  6
CONTINUOUS
 10
4.995760
 20
1.760000
  0
VERTEX
  8
0
  6
CONTINUOUS
 10
4.986520
 20
1.816760
  0
SEQEND
  8
0
  0
SOLID
  8
0
 62
    15
 10
4.969800
 20
1.863400
 11
4.973760
 21
2.625920
 12
4.986520
 22
1.816760
 13
4.990480
 23
2.578840
  0
POLYLINE
  8
0
  6
CONTINUOUS
 66
     1
 40
0.000000
 41
0.000000
  0
VERTEX
  8
0
  6
CONTINUOUS
 10
4.969800
 20
1.863400
  0
VERTEX
  8
0
  6
CONTINUOUS
 10
4.973760
 20
2.625920
  0
VERTEX
  8
0
  6
CONTINUOUS
 10
4.990480
 20
2.578840
  0
VERTEX
  8
0
  6
CONTINUOUS
 10
4.986520
 20
1.816760
  0
VERTEX
  8
0
  6
CONTINUOUS
 10
4.969800
 20
1.863400
  0
SEQEND
  8
0
  0
SOLID
  8
0
 62
    15
 10
4.995760
 20
1.760000
 11
4.999720
 21
2.522080
 12
4.998400
 22
1.691800
 13
5.002360
 23
2.454320
  0
POLYLINE
  8
0
  6
CONTINUOUS
 66
     1
 40
0.000000
 41
0.000000
  0
VERTEX
  8
0
  6
CONTINUOUS
 10
4.995760
 20
1.760000
  0
VERTEX
  8
0
  6
CONTINUOUS
 10
4.999720
 20
2.522080
  0
VERTEX
  8
0
  6
CONTINUOUS
 10
5.002360
 20
2.454320
  0
VERTEX
  8
0
  6
CONTINUOUS
 10
4.998400
 20
1.691800
  0
VERTEX
  8
0
  6
CONTINUOUS
 10
4.995760
 20
1.760000
  0
SEQEND
  8
0
  0
POLYLINE
  8
0
  6
CONTINUOUS
 66
     1
 40
0.000000
 41
0.000000
  0
VERTEX
  8
0
  6
CONTINUOUS
 10
1.321320
 20
1.687840
  0
VERTEX
  8
0
  6
CONTINUOUS
 10
1.326600
 20
1.783760
  0
VERTEX
  8
0
  6
CONTINUOUS
 10
1.338920
 20
1.863400
  0
VERTEX
  8
0
  6
CONTINUOUS
 10
1.357400
 20
1.928960
  0
VERTEX
  8
0
  6
CONTINUOUS
 10
1.381160
 20
1.982640
  0
VERTEX
  8
0
  6
CONTINUOUS
 10
1.408440
 20
2.026640
  0
VERTEX
  8
0
  6
CONTINUOUS
 10
1.439240
 20
2.063600
  0
VERTEX
  8
0
  6
CONTINUOUS
 10
1.571680
 20
2.181520
  0
VERTEX
  8
0
  6
CONTINUOUS
 10
1.602480
 20
2.214960
  0
VERTEX
  8
0
  6
CONTINUOUS
 10
1.629760
 20
2.254120
  0
VERTEX
  8
0
  6
CONTINUOUS
 10
1.653520
 20
2.301640
  0
VERTEX
  8
0
  6
CONTINUOUS
 10
1.672000
 20
2.359280
  0
VERTEX
  8
0
  6
CONTINUOUS
 10
1.684320
 20
2.429680
  0
VERTEX
  8
0
  6
CONTINUOUS
 10
1.690040
 20
2.521200
  0
VERTEX
  8
0
  6
CONTINUOUS
 10
1.850200
 20
2.521200
  0
VERTEX
  8
0
  6
CONTINUOUS
 10
1.857680
 20
2.522960
  0
VERTEX
  8
0
  6
CONTINUOUS
 10
1.892440
 20
2.632960
  0
VERTEX
  8
0
  6
CONTINUOUS
 10
1.939960
 20
2.725360
  0
VERTEX
  8
0
  6
CONTINUOUS
 10
1.998040
 20
2.799720
  0
VERTEX
  8
0
  6
CONTINUOUS
 10
2.064920
 20
2.857800
  0
VERTEX
  8
0
  6
CONTINUOUS
 10
2.138400
 20
2.899600
  0
VERTEX
  8
0
  6
CONTINUOUS
 10
2.216720
 20
2.926440
  0
VERTEX
  8
0
  6
CONTINUOUS
 10
2.298120
 20
2.939200
  0
VERTEX
  8
0
  6
CONTINUOUS
 10
2.380400
 20
2.937880
  0
VERTEX
  8
0
  6
CONTINUOUS
 10
2.461800
 20
2.924240
  0
VERTEX
  8
0
  6
CONTINUOUS
 10
2.540120
 20
2.898280
  0
VERTEX
  8
0
  6
CONTINUOUS
 10
2.613600
 20
2.860880
  0
VERTEX
  8
0
  6
CONTINUOUS
 10
2.680480
 20
2.812920
  0
VERTEX
  8
0
  6
CONTINUOUS
 10
2.738560
 20
2.755280
  0
VERTEX
  8
0
  6
CONTINUOUS
 10
2.785640
 20
2.688840
  0
VERTEX
  8
0
  6
CONTINUOUS
 10
2.820400
 20
2.614040
  0
VERTEX
  8
0
  6
CONTINUOUS
 10
2.841080
 20
2.531760
  0
VERTEX
  8
0
  6
CONTINUOUS
 10
2.844160
 20
2.525160
  0
VERTEX
  8
0
  6
CONTINUOUS
 10
3.031600
 20
2.525160
  0
VERTEX
  8
0
  6
CONTINUOUS
 10
3.065920
 20
2.463560
  0
VERTEX
  8
0
  6
CONTINUOUS
 10
3.115200
 20
2.388760
  0
VERTEX
  8
0
  6
CONTINUOUS
 10
3.149080
 20
2.348720
  0
VERTEX
  8
0
  6
CONTINUOUS
 10
3.190000
 20
2.308240
  0
VERTEX
  8
0
  6
CONTINUOUS
 10
3.239280
 20
2.267760
  0
VERTEX
  8
0
  6
CONTINUOUS
 10
3.298680
 20
2.228600
  0
VERTEX
  8
0
  6
CONTINUOUS
 10
3.369080
 20
2.191640
  0
VERTEX
  8
0
  6
CONTINUOUS
 10
3.451800
 20
2.156880
  0
VERTEX
  8
0
  6
CONTINUOUS
 10
3.547280
 20
2.126520
  0
VERTEX
  8
0
  6
CONTINUOUS
 10
3.657720
 20
2.100120
  0
VERTEX
  8
0
  6
CONTINUOUS
 10
3.784000
 20
2.079440
  0
VERTEX
  8
0
  6
CONTINUOUS
 10
3.927440
 20
2.065360
  0
VERTEX
  8
0
  6
CONTINUOUS
 10
4.088480
 20
2.057880
  0
VERTEX
  8
0
  6
CONTINUOUS
 10
4.268880
 20
2.058760
  0
VERTEX
  8
0
  6
CONTINUOUS
 10
4.275480
 20
2.067120
  0
VERTEX
  8
0
  6
CONTINUOUS
 10
4.297040
 20
2.110680
  0
VERTEX
  8
0
  6
CONTINUOUS
 10
4.325640
 20
2.146760
  0
VERTEX
  8
0
  6
CONTINUOUS
 10
4.359960
 20
2.175360
  0
VERTEX
  8
0
  6
CONTINUOUS
 10
4.399120
 20
2.196920
  0
VERTEX
  8
0
  6
CONTINUOUS
 10
4.441360
 20
2.211880
  0
VERTEX
  8
0
  6
CONTINUOUS
 10
4.485360
 20
2.219800
  0
VERTEX
  8
0
  6
CONTINUOUS
 10
4.531120
 20
2.221120
  0
VERTEX
  8
0
  6
CONTINUOUS
 10
4.576000
 20
2.216280
  0
VERTEX
  8
0
  6
CONTINUOUS
 10
4.619560
 20
2.205280
  0
VERTEX
  8
0
  6
CONTINUOUS
 10
4.660920
 20
2.187680
  0
VERTEX
  8
0
  6
CONTINUOUS
 10
4.698320
 20
2.164800
  0
VERTEX
  8
0
  6
CONTINUOUS
 10
4.730880
 20
2.135760
  0
VERTEX
  8
0
  6
CONTINUOUS
 10
4.757280
 20
2.101440
  0
VERTEX
  8
0
  6
CONTINUOUS
 10
4.776200
 20
2.061840
  0
VERTEX
  8
0
  6
CONTINUOUS
 10
4.786760
 20
2.016960
  0
VERTEX
  8
0
  6
CONTINUOUS
 10
4.787640
 20
1.967240
  0
VERTEX
  8
0
  6
CONTINUOUS
 10
4.837800
 20
1.961520
  0
VERTEX
  8
0
  6
CONTINUOUS
 10
4.880040
 20
1.949200
  0
VERTEX
  8
0
  6
CONTINUOUS
 10
4.916560
 20
1.928960
  0
VERTEX
  8
0
  6
CONTINUOUS
 10
4.946480
 20
1.900800
  0
VERTEX
  8
0
  6
CONTINUOUS
 10
4.969800
 20
1.863400
  0
VERTEX
  8
0
  6
CONTINUOUS
 10
4.986520
 20
1.816760
  0
VERTEX
  8
0
  6
CONTINUOUS
 10
4.995760
 20
1.760000
  0
VERTEX
  8
0
  6
CONTINUOUS
 10
4.998400
 20
1.691800
  0
VERTEX
  8
0
  6
CONTINUOUS
 10
4.994000
 20
1.683440
  0
VERTEX
  8
0
  6
CONTINUOUS
 10
1.342000
 20
1.683440
  0
VERTEX
  8
0
  6
CONTINUOUS
 10
1.321320
 20
1.687840
  0
SEQEND
  8
0
  0
TEXT
  8
0
 10
2.865280
 20
1.391280
 40
0.138263
  1
BA  553
 41
1.000000
  7
SN0
 71
     0
 72
     5
 11
3.456520
 21
1.391280
  0
TEXT
  8
0
 10
2.635600
 20
1.199440
 40
0.138263
  1
1-1/4" x 3-5/8"
 41
1.000000
  7
SN0
 71
     0
 72
     5
 11
3.685352
 21
1.199440
  0
ENDSEC
  0
EOF
