  0
SECTION
  2
HEADER
  9
$ACADVER
  1
AC1006
  9
$EXTMIN
 10
2.002000
 20
0.555720
  9
$EXTMAX
 10
7.093680
 20
3.666520
  9
$LTSCALE
 40
0.044000
  9
$PDMODE
 70
    35
  9
$PDSIZE
 40
0.035200
  0
ENDSEC
  0
SECTION
  2
TABLES
  0
TABLE
  2
LTYPE
 70
     9
  0
LTYPE
  2
CONTINUOUS
 70
    64
  3
Solid line
 72
    65
 73
     0
 40
0.000000
  0
LTYPE
  2
DASHED
 70
    64
  3
__ __ __ __ __ __ __ __ __ __ __ __ __ __ __
 72
    65
 73
     2
 40
0.000330
 49
0.000220
 49
-0.000110
  0
LTYPE
  2
HIDDEN
 70
    64
  3
 _ _ _ _ _ _ _ _ _ _ _ _ _ _ _ _ _ _ _ _ _ _
 72
    65
 73
     2
 40
0.000165
 49
0.000110
 49
-0.000055
  0
LTYPE
  2
CENTER
 70
    64
  3
____ _ ____ _ ____ _ ____ _ ____ _ ____ _ ____
 72
    65
 73
     4
 40
0.000880
 49
0.000550
 49
-0.000110
 49
0.000110
 49
-0.000110
  0
LTYPE
  2
PHANTOM
 70
    64
  3
_____ _ _ _____ _ _ _____ _ _ _____ _ _ ____
 72
    65
 73
     6
 40
0.001100
 49
0.000550
 49
-0.000110
 49
0.000110
 49
-0.000110
 49
0.000110
 49
-0.000110
  0
LTYPE
  2
DOT
 70
    64
  3
...............................................
 72
    65
 73
     2
 40
0.000110
 49
0.000000
 49
-0.000110
  0
LTYPE
  2
DASHDOT
 70
    64
  3
__ . __ . __ . __ . __ . __ . __ . __ . __ . __
 72
    65
 73
     4
 40
0.000440
 49
0.000220
 49
-0.000110
 49
0.000000
 49
-0.000110
  0
LTYPE
  2
BORDER
 70
    64
  3
__ __ . __ __ . __ __ . __ __ . __ __ . __ __
 72
    65
 73
     6
 40
0.000770
 49
0.000220
 49
-0.000110
 49
0.000220
 49
-0.000110
 49
0.000000
 49
-0.000110
  0
LTYPE
  2
DIVIDE
 70
    64
  3
__ . . __ . . __ . . __ . . __ . . __ . . __
 72
    65
 73
     6
 40
0.000550
 49
0.000220
 49
-0.000110
 49
0.000000
 49
-0.000110
 49
0.000000
 49
-0.000110
  0
LTYPE
  2
DOTDOT
 70
    64
  3
 . .  . .  . .  . .  . .  . . 
 72
    65
 73
     5
 40
0.000242
 49
-0.000110
 49
0.000000
 49
-0.000110
 49
0.000000
 49
-0.000110
  0
ENDTAB
  0
TABLE
  2
STYLE
 70
     2
  0
STYLE
 70
     0
  2
SN0
 40
0.000000
 41
0.000440
 50
0.000000
 71
     0
 42
0.000000
  3
ROMAND
  0
STYLE
 70
    68
  2
SV0
 40
0.000000
 41
0.000440
 50
0.000000
 71
     0
 42
0.000000
  3
ROMAND
  0
ENDTAB
  0
TABLE
  2
LAYER
 70
     3
  0
LAYER
  2
FOREGROUND
 70
    64
 62
     7
  6
CONTINUOUS
  0
LAYER
  2
BACKGROUND
 70
    65
 62
    -7
  6
CONTINUOUS
  0
LAYER
  2
0
 70
    64
 62
     7
  6
CONTINUOUS
  0
ENDTAB
  0
ENDSEC
  0
SECTION
  2
ENTITIES
  0
POLYLINE
  8
FOREGROUND
  6
CONTINUOUS
 66
     1
 40
0.000000
 41
0.000000
  0
VERTEX
  8
FOREGROUND
  6
CONTINUOUS
 10
0.000000
 20
4.222240
  0
VERTEX
  8
FOREGROUND
  6
CONTINUOUS
 10
8.499920
 20
4.222240
  0
VERTEX
  8
FOREGROUND
  6
CONTINUOUS
 10
8.499920
 20
-6.777760
  0
VERTEX
  8
FOREGROUND
  6
CONTINUOUS
 10
0.000000
 20
-6.777760
  0
VERTEX
  8
FOREGROUND
  6
CONTINUOUS
 10
0.000000
 20
4.222240
  0
SEQEND
  8
0
  0
POLYLINE
  8
FOREGROUND
  6
CONTINUOUS
 66
     1
 40
0.000000
 41
0.000000
  0
VERTEX
  8
FOREGROUND
  6
CONTINUOUS
 10
0.000000
 20
4.222240
  0
VERTEX
  8
FOREGROUND
  6
CONTINUOUS
 10
8.499920
 20
4.222240
  0
VERTEX
  8
FOREGROUND
  6
CONTINUOUS
 10
8.499920
 20
-6.777760
  0
VERTEX
  8
FOREGROUND
  6
CONTINUOUS
 10
0.000000
 20
-6.777760
  0
VERTEX
  8
FOREGROUND
  6
CONTINUOUS
 10
0.000000
 20
4.222240
  0
SEQEND
  8
0
  0
POLYLINE
  8
0
  6
CONTINUOUS
 66
     1
 40
0.014080
 41
0.014080
  0
VERTEX
  8
0
  6
CONTINUOUS
 10
5.711640
 20
3.416160
  0
VERTEX
  8
0
  6
CONTINUOUS
 10
5.789080
 20
3.415720
  0
VERTEX
  8
0
  6
CONTINUOUS
 10
5.825160
 20
3.412200
  0
VERTEX
  8
0
  6
CONTINUOUS
 10
5.842320
 20
3.409120
  0
VERTEX
  8
0
  6
CONTINUOUS
 10
5.874000
 20
3.398120
  0
VERTEX
  8
0
  6
CONTINUOUS
 10
5.901720
 20
3.379640
  0
VERTEX
  8
0
  6
CONTINUOUS
 10
5.919320
 20
3.359840
  0
VERTEX
  8
0
  6
CONTINUOUS
 10
5.934280
 20
3.333880
  0
VERTEX
  8
0
  6
CONTINUOUS
 10
5.946160
 20
3.301320
  0
VERTEX
  8
0
  6
CONTINUOUS
 10
5.949240
 20
3.285040
  0
VERTEX
  8
0
  6
CONTINUOUS
 10
6.321480
 20
3.246320
  0
VERTEX
  8
0
  6
CONTINUOUS
 10
6.403320
 20
3.236200
  0
VERTEX
  8
0
  6
CONTINUOUS
 10
6.493960
 20
3.219920
  0
VERTEX
  8
0
  6
CONTINUOUS
 10
6.531800
 20
3.210240
  0
VERTEX
  8
0
  6
CONTINUOUS
 10
6.565240
 20
3.198800
  0
VERTEX
  8
0
  6
CONTINUOUS
 10
6.594280
 20
3.185600
  0
VERTEX
  8
0
  6
CONTINUOUS
 10
6.619360
 20
3.169760
  0
VERTEX
  8
0
  6
CONTINUOUS
 10
6.640920
 20
3.151720
  0
VERTEX
  8
0
  6
CONTINUOUS
 10
6.658960
 20
3.130600
  0
VERTEX
  8
0
  6
CONTINUOUS
 10
6.673920
 20
3.106400
  0
VERTEX
  8
0
  6
CONTINUOUS
 10
6.680080
 20
3.093200
  0
VERTEX
  8
0
  6
CONTINUOUS
 10
6.684480
 20
3.089240
  0
VERTEX
  8
0
  6
CONTINUOUS
 10
6.769840
 20
3.089240
  0
VERTEX
  8
0
  6
CONTINUOUS
 10
6.779520
 20
3.125760
  0
VERTEX
  8
0
  6
CONTINUOUS
 10
6.786120
 20
3.142480
  0
VERTEX
  8
0
  6
CONTINUOUS
 10
6.802840
 20
3.171080
  0
VERTEX
  8
0
  6
CONTINUOUS
 10
6.823080
 20
3.194400
  0
VERTEX
  8
0
  6
CONTINUOUS
 10
6.846400
 20
3.212880
  0
VERTEX
  8
0
  6
CONTINUOUS
 10
6.871920
 20
3.226080
  0
VERTEX
  8
0
  6
CONTINUOUS
 10
6.899200
 20
3.234440
  0
VERTEX
  8
0
  6
CONTINUOUS
 10
6.926920
 20
3.237520
  0
VERTEX
  8
0
  6
CONTINUOUS
 10
6.954640
 20
3.236200
  0
VERTEX
  8
0
  6
CONTINUOUS
 10
6.981480
 20
3.229600
  0
VERTEX
  8
0
  6
CONTINUOUS
 10
7.007000
 20
3.218600
  0
VERTEX
  8
0
  6
CONTINUOUS
 10
7.029880
 20
3.202760
  0
VERTEX
  8
0
  6
CONTINUOUS
 10
7.050120
 20
3.182520
  0
VERTEX
  8
0
  6
CONTINUOUS
 10
7.066840
 20
3.157880
  0
VERTEX
  8
0
  6
CONTINUOUS
 10
7.073440
 20
3.143800
  0
VERTEX
  8
0
  6
CONTINUOUS
 10
7.082680
 20
3.112120
  0
VERTEX
  8
0
  6
CONTINUOUS
 10
7.085320
 20
3.094960
  0
VERTEX
  8
0
  6
CONTINUOUS
 10
7.086640
 20
3.072520
  0
VERTEX
  8
0
  6
CONTINUOUS
 10
7.086640
 20
2.628560
  0
VERTEX
  8
0
  6
CONTINUOUS
 10
4.574240
 20
2.628560
  0
VERTEX
  8
0
  6
CONTINUOUS
 10
4.574240
 20
2.626360
  0
VERTEX
  8
0
  6
CONTINUOUS
 10
4.587880
 20
2.866600
  0
VERTEX
  8
0
  6
CONTINUOUS
 10
4.594040
 20
2.936120
  0
VERTEX
  8
0
  6
CONTINUOUS
 10
4.602840
 20
2.999920
  0
VERTEX
  8
0
  6
CONTINUOUS
 10
4.608560
 20
3.029840
  0
VERTEX
  8
0
  6
CONTINUOUS
 10
4.615600
 20
3.058440
  0
VERTEX
  8
0
  6
CONTINUOUS
 10
4.623960
 20
3.085720
  0
VERTEX
  8
0
  6
CONTINUOUS
 10
4.633640
 20
3.111240
  0
VERTEX
  8
0
  6
CONTINUOUS
 10
4.644640
 20
3.135440
  0
VERTEX
  8
0
  6
CONTINUOUS
 10
4.661360
 20
3.165800
  0
VERTEX
  8
0
  6
CONTINUOUS
 10
4.697440
 20
3.255120
  0
VERTEX
  8
0
  6
CONTINUOUS
 10
4.755520
 20
3.413960
  0
VERTEX
  8
0
  6
CONTINUOUS
 10
4.834280
 20
3.413960
  0
VERTEX
  8
0
  6
CONTINUOUS
 10
4.838680
 20
3.416160
  0
VERTEX
  8
0
  6
CONTINUOUS
 10
4.850560
 20
3.439920
  0
VERTEX
  8
0
  6
CONTINUOUS
 10
4.864640
 20
3.462800
  0
VERTEX
  8
0
  6
CONTINUOUS
 10
4.880480
 20
3.484800
  0
VERTEX
  8
0
  6
CONTINUOUS
 10
4.898080
 20
3.505920
  0
VERTEX
  8
0
  6
CONTINUOUS
 10
4.939000
 20
3.544640
  0
VERTEX
  8
0
  6
CONTINUOUS
 10
4.986080
 20
3.578960
  0
VERTEX
  8
0
  6
CONTINUOUS
 10
5.011600
 20
3.593920
  0
VERTEX
  8
0
  6
CONTINUOUS
 10
5.066160
 20
3.619880
  0
VERTEX
  8
0
  6
CONTINUOUS
 10
5.124680
 20
3.639680
  0
VERTEX
  8
0
  6
CONTINUOUS
 10
5.155040
 20
3.647160
  0
VERTEX
  8
0
  6
CONTINUOUS
 10
5.186280
 20
3.652880
  0
VERTEX
  8
0
  6
CONTINUOUS
 10
5.217960
 20
3.656840
  0
VERTEX
  8
0
  6
CONTINUOUS
 10
5.282640
 20
3.659040
  0
VERTEX
  8
0
  6
CONTINUOUS
 10
5.315200
 20
3.657280
  0
VERTEX
  8
0
  6
CONTINUOUS
 10
5.347760
 20
3.653320
  0
VERTEX
  8
0
  6
CONTINUOUS
 10
5.380320
 20
3.647160
  0
VERTEX
  8
0
  6
CONTINUOUS
 10
5.412880
 20
3.639240
  0
VERTEX
  8
0
  6
CONTINUOUS
 10
5.445000
 20
3.628680
  0
VERTEX
  8
0
  6
CONTINUOUS
 10
5.492960
 20
3.608440
  0
VERTEX
  8
0
  6
CONTINUOUS
 10
5.539160
 20
3.582920
  0
VERTEX
  8
0
  6
CONTINUOUS
 10
5.584040
 20
3.552120
  0
VERTEX
  8
0
  6
CONTINUOUS
 10
5.627160
 20
3.514720
  0
VERTEX
  8
0
  6
CONTINUOUS
 10
5.667640
 20
3.471600
  0
VERTEX
  8
0
  6
CONTINUOUS
 10
5.705480
 20
3.422320
  0
VERTEX
  8
0
  6
CONTINUOUS
 10
5.711640
 20
3.416160
  0
SEQEND
  8
0
  0
SOLID
  8
0
 62
    15
 10
2.546720
 20
1.054240
 11
3.292080
 21
1.050280
 12
2.519880
 22
1.040160
 13
3.264800
 23
1.036200
  0
POLYLINE
  8
0
  6
CONTINUOUS
 66
     1
 40
0.000000
 41
0.000000
  0
VERTEX
  8
0
  6
CONTINUOUS
 10
2.546720
 20
1.054240
  0
VERTEX
  8
0
  6
CONTINUOUS
 10
3.292080
 20
1.050280
  0
VERTEX
  8
0
  6
CONTINUOUS
 10
3.264800
 20
1.036200
  0
VERTEX
  8
0
  6
CONTINUOUS
 10
2.519880
 20
1.040160
  0
VERTEX
  8
0
  6
CONTINUOUS
 10
2.546720
 20
1.054240
  0
SEQEND
  8
0
  0
SOLID
  8
0
 62
    15
 10
2.792680
 20
2.362360
 11
3.537600
 21
2.358400
 12
2.791800
 22
2.324080
 13
3.536720
 23
2.320120
  0
POLYLINE
  8
0
  6
CONTINUOUS
 66
     1
 40
0.000000
 41
0.000000
  0
VERTEX
  8
0
  6
CONTINUOUS
 10
2.792680
 20
2.362360
  0
VERTEX
  8
0
  6
CONTINUOUS
 10
3.537600
 20
2.358400
  0
VERTEX
  8
0
  6
CONTINUOUS
 10
3.536720
 20
2.320120
  0
VERTEX
  8
0
  6
CONTINUOUS
 10
2.791800
 20
2.324080
  0
VERTEX
  8
0
  6
CONTINUOUS
 10
2.792680
 20
2.362360
  0
SEQEND
  8
0
  0
SOLID
  8
0
 62
    15
 10
2.791800
 20
2.324080
 11
3.536720
 21
2.320120
 12
2.788280
 22
2.288000
 13
3.533200
 23
2.284040
  0
POLYLINE
  8
0
  6
CONTINUOUS
 66
     1
 40
0.000000
 41
0.000000
  0
VERTEX
  8
0
  6
CONTINUOUS
 10
2.791800
 20
2.324080
  0
VERTEX
  8
0
  6
CONTINUOUS
 10
3.536720
 20
2.320120
  0
VERTEX
  8
0
  6
CONTINUOUS
 10
3.533200
 20
2.284040
  0
VERTEX
  8
0
  6
CONTINUOUS
 10
2.788280
 20
2.288000
  0
VERTEX
  8
0
  6
CONTINUOUS
 10
2.791800
 20
2.324080
  0
SEQEND
  8
0
  0
SOLID
  8
0
 62
    15
 10
2.788280
 20
2.288000
 11
3.533200
 21
2.284040
 12
2.780360
 22
2.255000
 13
3.525280
 23
2.251040
  0
POLYLINE
  8
0
  6
CONTINUOUS
 66
     1
 40
0.000000
 41
0.000000
  0
VERTEX
  8
0
  6
CONTINUOUS
 10
2.788280
 20
2.288000
  0
VERTEX
  8
0
  6
CONTINUOUS
 10
3.533200
 20
2.284040
  0
VERTEX
  8
0
  6
CONTINUOUS
 10
3.525280
 20
2.251040
  0
VERTEX
  8
0
  6
CONTINUOUS
 10
2.780360
 20
2.255000
  0
VERTEX
  8
0
  6
CONTINUOUS
 10
2.788280
 20
2.288000
  0
SEQEND
  8
0
  0
SOLID
  8
0
 62
    15
 10
2.780360
 20
2.255000
 11
3.525280
 21
2.251040
 12
2.765840
 22
2.225080
 13
3.510760
 23
2.221120
  0
POLYLINE
  8
0
  6
CONTINUOUS
 66
     1
 40
0.000000
 41
0.000000
  0
VERTEX
  8
0
  6
CONTINUOUS
 10
2.780360
 20
2.255000
  0
VERTEX
  8
0
  6
CONTINUOUS
 10
3.525280
 20
2.251040
  0
VERTEX
  8
0
  6
CONTINUOUS
 10
3.510760
 20
2.221120
  0
VERTEX
  8
0
  6
CONTINUOUS
 10
2.765840
 20
2.225080
  0
VERTEX
  8
0
  6
CONTINUOUS
 10
2.780360
 20
2.255000
  0
SEQEND
  8
0
  0
SOLID
  8
0
 62
    15
 10
2.765840
 20
2.225080
 11
3.510760
 21
2.221120
 12
2.742960
 22
2.199560
 13
3.487880
 23
2.195600
  0
POLYLINE
  8
0
  6
CONTINUOUS
 66
     1
 40
0.000000
 41
0.000000
  0
VERTEX
  8
0
  6
CONTINUOUS
 10
2.765840
 20
2.225080
  0
VERTEX
  8
0
  6
CONTINUOUS
 10
3.510760
 20
2.221120
  0
VERTEX
  8
0
  6
CONTINUOUS
 10
3.487880
 20
2.195600
  0
VERTEX
  8
0
  6
CONTINUOUS
 10
2.742960
 20
2.199560
  0
VERTEX
  8
0
  6
CONTINUOUS
 10
2.765840
 20
2.225080
  0
SEQEND
  8
0
  0
SOLID
  8
0
 62
    15
 10
2.742960
 20
2.199560
 11
3.487880
 21
2.195600
 12
2.709960
 22
2.178880
 13
3.455320
 23
2.175360
  0
POLYLINE
  8
0
  6
CONTINUOUS
 66
     1
 40
0.000000
 41
0.000000
  0
VERTEX
  8
0
  6
CONTINUOUS
 10
2.742960
 20
2.199560
  0
VERTEX
  8
0
  6
CONTINUOUS
 10
3.487880
 20
2.195600
  0
VERTEX
  8
0
  6
CONTINUOUS
 10
3.455320
 20
2.175360
  0
VERTEX
  8
0
  6
CONTINUOUS
 10
2.709960
 20
2.178880
  0
VERTEX
  8
0
  6
CONTINUOUS
 10
2.742960
 20
2.199560
  0
SEQEND
  8
0
  0
SOLID
  8
0
 62
    15
 10
2.661120
 20
2.164360
 11
3.406040
 21
2.160400
 12
2.651440
 22
2.076360
 13
3.396360
 23
2.072400
  0
POLYLINE
  8
0
  6
CONTINUOUS
 66
     1
 40
0.000000
 41
0.000000
  0
VERTEX
  8
0
  6
CONTINUOUS
 10
2.661120
 20
2.164360
  0
VERTEX
  8
0
  6
CONTINUOUS
 10
3.406040
 20
2.160400
  0
VERTEX
  8
0
  6
CONTINUOUS
 10
3.396360
 20
2.072400
  0
VERTEX
  8
0
  6
CONTINUOUS
 10
2.651440
 20
2.076360
  0
VERTEX
  8
0
  6
CONTINUOUS
 10
2.661120
 20
2.164360
  0
SEQEND
  8
0
  0
SOLID
  8
0
 62
    15
 10
2.665080
 20
2.164360
 11
3.410000
 21
2.160400
 12
2.661120
 22
2.164360
 13
3.406040
 23
2.160400
  0
POLYLINE
  8
0
  6
CONTINUOUS
 66
     1
 40
0.000000
 41
0.000000
  0
VERTEX
  8
0
  6
CONTINUOUS
 10
2.665080
 20
2.164360
  0
VERTEX
  8
0
  6
CONTINUOUS
 10
3.410000
 20
2.160400
  0
VERTEX
  8
0
  6
CONTINUOUS
 10
3.406040
 20
2.160400
  0
VERTEX
  8
0
  6
CONTINUOUS
 10
2.661120
 20
2.164360
  0
VERTEX
  8
0
  6
CONTINUOUS
 10
2.665080
 20
2.164360
  0
SEQEND
  8
0
  0
SOLID
  8
0
 62
    15
 10
2.709960
 20
2.178880
 11
3.455320
 21
2.175360
 12
2.665080
 22
2.164360
 13
3.410000
 23
2.160400
  0
POLYLINE
  8
0
  6
CONTINUOUS
 66
     1
 40
0.000000
 41
0.000000
  0
VERTEX
  8
0
  6
CONTINUOUS
 10
2.709960
 20
2.178880
  0
VERTEX
  8
0
  6
CONTINUOUS
 10
3.455320
 20
2.175360
  0
VERTEX
  8
0
  6
CONTINUOUS
 10
3.410000
 20
2.160400
  0
VERTEX
  8
0
  6
CONTINUOUS
 10
2.665080
 20
2.164360
  0
VERTEX
  8
0
  6
CONTINUOUS
 10
2.709960
 20
2.178880
  0
SEQEND
  8
0
  0
SOLID
  8
0
 62
    15
 10
2.651440
 20
2.076360
 11
3.396360
 21
2.072400
 12
2.643520
 22
1.995400
 13
3.388440
 23
1.991440
  0
POLYLINE
  8
0
  6
CONTINUOUS
 66
     1
 40
0.000000
 41
0.000000
  0
VERTEX
  8
0
  6
CONTINUOUS
 10
2.651440
 20
2.076360
  0
VERTEX
  8
0
  6
CONTINUOUS
 10
3.396360
 20
2.072400
  0
VERTEX
  8
0
  6
CONTINUOUS
 10
3.388440
 20
1.991440
  0
VERTEX
  8
0
  6
CONTINUOUS
 10
2.643520
 20
1.995400
  0
VERTEX
  8
0
  6
CONTINUOUS
 10
2.651440
 20
2.076360
  0
SEQEND
  8
0
  0
SOLID
  8
0
 62
    15
 10
2.643520
 20
1.995400
 11
3.388440
 21
1.991440
 12
2.636040
 22
1.921480
 13
3.380960
 23
1.917520
  0
POLYLINE
  8
0
  6
CONTINUOUS
 66
     1
 40
0.000000
 41
0.000000
  0
VERTEX
  8
0
  6
CONTINUOUS
 10
2.643520
 20
1.995400
  0
VERTEX
  8
0
  6
CONTINUOUS
 10
3.388440
 20
1.991440
  0
VERTEX
  8
0
  6
CONTINUOUS
 10
3.380960
 20
1.917520
  0
VERTEX
  8
0
  6
CONTINUOUS
 10
2.636040
 20
1.921480
  0
VERTEX
  8
0
  6
CONTINUOUS
 10
2.643520
 20
1.995400
  0
SEQEND
  8
0
  0
SOLID
  8
0
 62
    15
 10
2.636040
 20
1.921480
 11
3.380960
 21
1.917520
 12
2.629000
 22
1.853280
 13
3.373920
 23
1.849320
  0
POLYLINE
  8
0
  6
CONTINUOUS
 66
     1
 40
0.000000
 41
0.000000
  0
VERTEX
  8
0
  6
CONTINUOUS
 10
2.636040
 20
1.921480
  0
VERTEX
  8
0
  6
CONTINUOUS
 10
3.380960
 20
1.917520
  0
VERTEX
  8
0
  6
CONTINUOUS
 10
3.373920
 20
1.849320
  0
VERTEX
  8
0
  6
CONTINUOUS
 10
2.629000
 20
1.853280
  0
VERTEX
  8
0
  6
CONTINUOUS
 10
2.636040
 20
1.921480
  0
SEQEND
  8
0
  0
SOLID
  8
0
 62
    15
 10
2.629000
 20
1.853280
 11
3.373920
 21
1.849320
 12
2.622400
 22
1.791680
 13
3.367320
 23
1.787720
  0
POLYLINE
  8
0
  6
CONTINUOUS
 66
     1
 40
0.000000
 41
0.000000
  0
VERTEX
  8
0
  6
CONTINUOUS
 10
2.629000
 20
1.853280
  0
VERTEX
  8
0
  6
CONTINUOUS
 10
3.373920
 20
1.849320
  0
VERTEX
  8
0
  6
CONTINUOUS
 10
3.367320
 20
1.787720
  0
VERTEX
  8
0
  6
CONTINUOUS
 10
2.622400
 20
1.791680
  0
VERTEX
  8
0
  6
CONTINUOUS
 10
2.629000
 20
1.853280
  0
SEQEND
  8
0
  0
SOLID
  8
0
 62
    15
 10
2.622400
 20
1.791680
 11
3.367320
 21
1.787720
 12
2.615800
 22
1.735800
 13
3.360720
 23
1.731840
  0
POLYLINE
  8
0
  6
CONTINUOUS
 66
     1
 40
0.000000
 41
0.000000
  0
VERTEX
  8
0
  6
CONTINUOUS
 10
2.622400
 20
1.791680
  0
VERTEX
  8
0
  6
CONTINUOUS
 10
3.367320
 20
1.787720
  0
VERTEX
  8
0
  6
CONTINUOUS
 10
3.360720
 20
1.731840
  0
VERTEX
  8
0
  6
CONTINUOUS
 10
2.615800
 20
1.735800
  0
VERTEX
  8
0
  6
CONTINUOUS
 10
2.622400
 20
1.791680
  0
SEQEND
  8
0
  0
SOLID
  8
0
 62
    15
 10
2.615800
 20
1.735800
 11
3.360720
 21
1.731840
 12
2.608320
 22
1.685200
 13
3.353240
 23
1.681240
  0
POLYLINE
  8
0
  6
CONTINUOUS
 66
     1
 40
0.000000
 41
0.000000
  0
VERTEX
  8
0
  6
CONTINUOUS
 10
2.615800
 20
1.735800
  0
VERTEX
  8
0
  6
CONTINUOUS
 10
3.360720
 20
1.731840
  0
VERTEX
  8
0
  6
CONTINUOUS
 10
3.353240
 20
1.681240
  0
VERTEX
  8
0
  6
CONTINUOUS
 10
2.608320
 20
1.685200
  0
VERTEX
  8
0
  6
CONTINUOUS
 10
2.615800
 20
1.735800
  0
SEQEND
  8
0
  0
SOLID
  8
0
 62
    15
 10
2.608320
 20
1.685200
 11
3.353240
 21
1.681240
 12
2.600400
 22
1.639880
 13
3.345320
 23
1.635920
  0
POLYLINE
  8
0
  6
CONTINUOUS
 66
     1
 40
0.000000
 41
0.000000
  0
VERTEX
  8
0
  6
CONTINUOUS
 10
2.608320
 20
1.685200
  0
VERTEX
  8
0
  6
CONTINUOUS
 10
3.353240
 20
1.681240
  0
VERTEX
  8
0
  6
CONTINUOUS
 10
3.345320
 20
1.635920
  0
VERTEX
  8
0
  6
CONTINUOUS
 10
2.600400
 20
1.639880
  0
VERTEX
  8
0
  6
CONTINUOUS
 10
2.608320
 20
1.685200
  0
SEQEND
  8
0
  0
SOLID
  8
0
 62
    15
 10
2.600400
 20
1.639880
 11
3.345320
 21
1.635920
 12
2.591160
 22
1.599840
 13
3.336080
 23
1.595880
  0
POLYLINE
  8
0
  6
CONTINUOUS
 66
     1
 40
0.000000
 41
0.000000
  0
VERTEX
  8
0
  6
CONTINUOUS
 10
2.600400
 20
1.639880
  0
VERTEX
  8
0
  6
CONTINUOUS
 10
3.345320
 20
1.635920
  0
VERTEX
  8
0
  6
CONTINUOUS
 10
3.336080
 20
1.595880
  0
VERTEX
  8
0
  6
CONTINUOUS
 10
2.591160
 20
1.599840
  0
VERTEX
  8
0
  6
CONTINUOUS
 10
2.600400
 20
1.639880
  0
SEQEND
  8
0
  0
SOLID
  8
0
 62
    15
 10
2.591160
 20
1.599840
 11
3.336080
 21
1.595880
 12
2.580600
 22
1.564200
 13
3.325520
 23
1.560240
  0
POLYLINE
  8
0
  6
CONTINUOUS
 66
     1
 40
0.000000
 41
0.000000
  0
VERTEX
  8
0
  6
CONTINUOUS
 10
2.591160
 20
1.599840
  0
VERTEX
  8
0
  6
CONTINUOUS
 10
3.336080
 20
1.595880
  0
VERTEX
  8
0
  6
CONTINUOUS
 10
3.325520
 20
1.560240
  0
VERTEX
  8
0
  6
CONTINUOUS
 10
2.580600
 20
1.564200
  0
VERTEX
  8
0
  6
CONTINUOUS
 10
2.591160
 20
1.599840
  0
SEQEND
  8
0
  0
SOLID
  8
0
 62
    15
 10
2.580600
 20
1.564200
 11
3.325520
 21
1.560240
 12
2.554200
 22
1.506120
 13
3.299120
 23
1.502160
  0
POLYLINE
  8
0
  6
CONTINUOUS
 66
     1
 40
0.000000
 41
0.000000
  0
VERTEX
  8
0
  6
CONTINUOUS
 10
2.580600
 20
1.564200
  0
VERTEX
  8
0
  6
CONTINUOUS
 10
3.325520
 20
1.560240
  0
VERTEX
  8
0
  6
CONTINUOUS
 10
3.299120
 20
1.502160
  0
VERTEX
  8
0
  6
CONTINUOUS
 10
2.554200
 20
1.506120
  0
VERTEX
  8
0
  6
CONTINUOUS
 10
2.580600
 20
1.564200
  0
SEQEND
  8
0
  0
SOLID
  8
0
 62
    15
 10
2.554200
 20
1.506120
 11
3.299120
 21
1.502160
 12
2.517680
 22
1.463000
 13
3.262600
 23
1.459040
  0
POLYLINE
  8
0
  6
CONTINUOUS
 66
     1
 40
0.000000
 41
0.000000
  0
VERTEX
  8
0
  6
CONTINUOUS
 10
2.554200
 20
1.506120
  0
VERTEX
  8
0
  6
CONTINUOUS
 10
3.299120
 20
1.502160
  0
VERTEX
  8
0
  6
CONTINUOUS
 10
3.262600
 20
1.459040
  0
VERTEX
  8
0
  6
CONTINUOUS
 10
2.517680
 20
1.463000
  0
VERTEX
  8
0
  6
CONTINUOUS
 10
2.554200
 20
1.506120
  0
SEQEND
  8
0
  0
SOLID
  8
0
 62
    15
 10
2.517680
 20
1.463000
 11
3.262600
 21
1.459040
 12
2.469280
 22
1.433080
 13
3.214200
 23
1.429120
  0
POLYLINE
  8
0
  6
CONTINUOUS
 66
     1
 40
0.000000
 41
0.000000
  0
VERTEX
  8
0
  6
CONTINUOUS
 10
2.517680
 20
1.463000
  0
VERTEX
  8
0
  6
CONTINUOUS
 10
3.262600
 20
1.459040
  0
VERTEX
  8
0
  6
CONTINUOUS
 10
3.214200
 20
1.429120
  0
VERTEX
  8
0
  6
CONTINUOUS
 10
2.469280
 20
1.433080
  0
VERTEX
  8
0
  6
CONTINUOUS
 10
2.517680
 20
1.463000
  0
SEQEND
  8
0
  0
SOLID
  8
0
 62
    15
 10
2.469280
 20
1.433080
 11
3.214200
 21
1.429120
 12
2.465320
 22
1.428680
 13
3.210240
 23
1.424720
  0
POLYLINE
  8
0
  6
CONTINUOUS
 66
     1
 40
0.000000
 41
0.000000
  0
VERTEX
  8
0
  6
CONTINUOUS
 10
2.469280
 20
1.433080
  0
VERTEX
  8
0
  6
CONTINUOUS
 10
3.214200
 20
1.429120
  0
VERTEX
  8
0
  6
CONTINUOUS
 10
3.210240
 20
1.424720
  0
VERTEX
  8
0
  6
CONTINUOUS
 10
2.465320
 20
1.428680
  0
VERTEX
  8
0
  6
CONTINUOUS
 10
2.469280
 20
1.433080
  0
SEQEND
  8
0
  0
SOLID
  8
0
 62
    15
 10
2.465320
 20
1.428680
 11
3.210240
 21
1.424720
 12
2.465320
 22
1.343320
 13
3.210240
 23
1.339360
  0
POLYLINE
  8
0
  6
CONTINUOUS
 66
     1
 40
0.000000
 41
0.000000
  0
VERTEX
  8
0
  6
CONTINUOUS
 10
2.465320
 20
1.428680
  0
VERTEX
  8
0
  6
CONTINUOUS
 10
3.210240
 20
1.424720
  0
VERTEX
  8
0
  6
CONTINUOUS
 10
3.210240
 20
1.339360
  0
VERTEX
  8
0
  6
CONTINUOUS
 10
2.465320
 20
1.343320
  0
VERTEX
  8
0
  6
CONTINUOUS
 10
2.465320
 20
1.428680
  0
SEQEND
  8
0
  0
SOLID
  8
0
 62
    15
 10
2.465320
 20
1.343320
 11
3.210240
 21
1.339360
 12
2.501840
 22
1.333640
 13
3.246760
 23
1.329680
  0
POLYLINE
  8
0
  6
CONTINUOUS
 66
     1
 40
0.000000
 41
0.000000
  0
VERTEX
  8
0
  6
CONTINUOUS
 10
2.465320
 20
1.343320
  0
VERTEX
  8
0
  6
CONTINUOUS
 10
3.210240
 20
1.339360
  0
VERTEX
  8
0
  6
CONTINUOUS
 10
3.246760
 20
1.329680
  0
VERTEX
  8
0
  6
CONTINUOUS
 10
2.501840
 20
1.333640
  0
VERTEX
  8
0
  6
CONTINUOUS
 10
2.465320
 20
1.343320
  0
SEQEND
  8
0
  0
SOLID
  8
0
 62
    15
 10
2.501840
 20
1.333640
 11
3.246760
 21
1.329680
 12
2.533520
 22
1.319120
 13
3.278440
 23
1.315160
  0
POLYLINE
  8
0
  6
CONTINUOUS
 66
     1
 40
0.000000
 41
0.000000
  0
VERTEX
  8
0
  6
CONTINUOUS
 10
2.501840
 20
1.333640
  0
VERTEX
  8
0
  6
CONTINUOUS
 10
3.246760
 20
1.329680
  0
VERTEX
  8
0
  6
CONTINUOUS
 10
3.278440
 20
1.315160
  0
VERTEX
  8
0
  6
CONTINUOUS
 10
2.533520
 20
1.319120
  0
VERTEX
  8
0
  6
CONTINUOUS
 10
2.501840
 20
1.333640
  0
SEQEND
  8
0
  0
SOLID
  8
0
 62
    15
 10
2.533520
 20
1.319120
 11
3.278440
 21
1.315160
 12
2.559480
 22
1.300640
 13
3.304400
 23
1.296680
  0
POLYLINE
  8
0
  6
CONTINUOUS
 66
     1
 40
0.000000
 41
0.000000
  0
VERTEX
  8
0
  6
CONTINUOUS
 10
2.533520
 20
1.319120
  0
VERTEX
  8
0
  6
CONTINUOUS
 10
3.278440
 20
1.315160
  0
VERTEX
  8
0
  6
CONTINUOUS
 10
3.304400
 20
1.296680
  0
VERTEX
  8
0
  6
CONTINUOUS
 10
2.559480
 20
1.300640
  0
VERTEX
  8
0
  6
CONTINUOUS
 10
2.533520
 20
1.319120
  0
SEQEND
  8
0
  0
SOLID
  8
0
 62
    15
 10
2.559480
 20
1.300640
 11
3.304400
 21
1.296680
 12
2.580600
 22
1.278640
 13
3.325520
 23
1.274680
  0
POLYLINE
  8
0
  6
CONTINUOUS
 66
     1
 40
0.000000
 41
0.000000
  0
VERTEX
  8
0
  6
CONTINUOUS
 10
2.559480
 20
1.300640
  0
VERTEX
  8
0
  6
CONTINUOUS
 10
3.304400
 20
1.296680
  0
VERTEX
  8
0
  6
CONTINUOUS
 10
3.325520
 20
1.274680
  0
VERTEX
  8
0
  6
CONTINUOUS
 10
2.580600
 20
1.278640
  0
VERTEX
  8
0
  6
CONTINUOUS
 10
2.559480
 20
1.300640
  0
SEQEND
  8
0
  0
SOLID
  8
0
 62
    15
 10
2.580600
 20
1.278640
 11
3.325520
 21
1.274680
 12
2.596440
 22
1.254000
 13
3.341360
 23
1.250480
  0
POLYLINE
  8
0
  6
CONTINUOUS
 66
     1
 40
0.000000
 41
0.000000
  0
VERTEX
  8
0
  6
CONTINUOUS
 10
2.580600
 20
1.278640
  0
VERTEX
  8
0
  6
CONTINUOUS
 10
3.325520
 20
1.274680
  0
VERTEX
  8
0
  6
CONTINUOUS
 10
3.341360
 20
1.250480
  0
VERTEX
  8
0
  6
CONTINUOUS
 10
2.596440
 20
1.254000
  0
VERTEX
  8
0
  6
CONTINUOUS
 10
2.580600
 20
1.278640
  0
SEQEND
  8
0
  0
SOLID
  8
0
 62
    15
 10
2.596440
 20
1.254000
 11
3.341360
 21
1.250480
 12
2.607000
 22
1.228040
 13
3.351920
 23
1.224080
  0
POLYLINE
  8
0
  6
CONTINUOUS
 66
     1
 40
0.000000
 41
0.000000
  0
VERTEX
  8
0
  6
CONTINUOUS
 10
2.596440
 20
1.254000
  0
VERTEX
  8
0
  6
CONTINUOUS
 10
3.341360
 20
1.250480
  0
VERTEX
  8
0
  6
CONTINUOUS
 10
3.351920
 20
1.224080
  0
VERTEX
  8
0
  6
CONTINUOUS
 10
2.607000
 20
1.228040
  0
VERTEX
  8
0
  6
CONTINUOUS
 10
2.596440
 20
1.254000
  0
SEQEND
  8
0
  0
SOLID
  8
0
 62
    15
 10
2.607000
 20
1.228040
 11
3.351920
 21
1.224080
 12
2.613600
 22
1.172600
 13
3.358520
 23
1.168640
  0
POLYLINE
  8
0
  6
CONTINUOUS
 66
     1
 40
0.000000
 41
0.000000
  0
VERTEX
  8
0
  6
CONTINUOUS
 10
2.607000
 20
1.228040
  0
VERTEX
  8
0
  6
CONTINUOUS
 10
3.351920
 20
1.224080
  0
VERTEX
  8
0
  6
CONTINUOUS
 10
3.358520
 20
1.168640
  0
VERTEX
  8
0
  6
CONTINUOUS
 10
2.613600
 20
1.172600
  0
VERTEX
  8
0
  6
CONTINUOUS
 10
2.607000
 20
1.228040
  0
SEQEND
  8
0
  0
SOLID
  8
0
 62
    15
 10
2.613600
 20
1.172600
 11
3.358520
 21
1.168640
 12
2.609640
 22
1.145320
 13
3.354560
 23
1.141360
  0
POLYLINE
  8
0
  6
CONTINUOUS
 66
     1
 40
0.000000
 41
0.000000
  0
VERTEX
  8
0
  6
CONTINUOUS
 10
2.613600
 20
1.172600
  0
VERTEX
  8
0
  6
CONTINUOUS
 10
3.358520
 20
1.168640
  0
VERTEX
  8
0
  6
CONTINUOUS
 10
3.354560
 20
1.141360
  0
VERTEX
  8
0
  6
CONTINUOUS
 10
2.609640
 20
1.145320
  0
VERTEX
  8
0
  6
CONTINUOUS
 10
2.613600
 20
1.172600
  0
SEQEND
  8
0
  0
SOLID
  8
0
 62
    15
 10
2.609640
 20
1.145320
 11
3.354560
 21
1.141360
 12
2.600840
 22
1.118920
 13
3.345760
 23
1.114960
  0
POLYLINE
  8
0
  6
CONTINUOUS
 66
     1
 40
0.000000
 41
0.000000
  0
VERTEX
  8
0
  6
CONTINUOUS
 10
2.609640
 20
1.145320
  0
VERTEX
  8
0
  6
CONTINUOUS
 10
3.354560
 20
1.141360
  0
VERTEX
  8
0
  6
CONTINUOUS
 10
3.345760
 20
1.114960
  0
VERTEX
  8
0
  6
CONTINUOUS
 10
2.600840
 20
1.118920
  0
VERTEX
  8
0
  6
CONTINUOUS
 10
2.609640
 20
1.145320
  0
SEQEND
  8
0
  0
SOLID
  8
0
 62
    15
 10
2.600840
 20
1.118920
 11
3.345760
 21
1.114960
 12
2.587640
 22
1.094720
 13
3.332560
 23
1.090760
  0
POLYLINE
  8
0
  6
CONTINUOUS
 66
     1
 40
0.000000
 41
0.000000
  0
VERTEX
  8
0
  6
CONTINUOUS
 10
2.600840
 20
1.118920
  0
VERTEX
  8
0
  6
CONTINUOUS
 10
3.345760
 20
1.114960
  0
VERTEX
  8
0
  6
CONTINUOUS
 10
3.332560
 20
1.090760
  0
VERTEX
  8
0
  6
CONTINUOUS
 10
2.587640
 20
1.094720
  0
VERTEX
  8
0
  6
CONTINUOUS
 10
2.600840
 20
1.118920
  0
SEQEND
  8
0
  0
SOLID
  8
0
 62
    15
 10
2.587640
 20
1.094720
 11
3.332560
 21
1.090760
 12
2.569600
 22
1.072720
 13
3.314520
 23
1.068760
  0
POLYLINE
  8
0
  6
CONTINUOUS
 66
     1
 40
0.000000
 41
0.000000
  0
VERTEX
  8
0
  6
CONTINUOUS
 10
2.587640
 20
1.094720
  0
VERTEX
  8
0
  6
CONTINUOUS
 10
3.332560
 20
1.090760
  0
VERTEX
  8
0
  6
CONTINUOUS
 10
3.314520
 20
1.068760
  0
VERTEX
  8
0
  6
CONTINUOUS
 10
2.569600
 20
1.072720
  0
VERTEX
  8
0
  6
CONTINUOUS
 10
2.587640
 20
1.094720
  0
SEQEND
  8
0
  0
SOLID
  8
0
 62
    15
 10
2.569600
 20
1.072720
 11
3.314520
 21
1.068760
 12
2.546720
 22
1.054240
 13
3.292080
 23
1.050280
  0
POLYLINE
  8
0
  6
CONTINUOUS
 66
     1
 40
0.000000
 41
0.000000
  0
VERTEX
  8
0
  6
CONTINUOUS
 10
2.569600
 20
1.072720
  0
VERTEX
  8
0
  6
CONTINUOUS
 10
3.314520
 20
1.068760
  0
VERTEX
  8
0
  6
CONTINUOUS
 10
3.292080
 20
1.050280
  0
VERTEX
  8
0
  6
CONTINUOUS
 10
2.546720
 20
1.054240
  0
VERTEX
  8
0
  6
CONTINUOUS
 10
2.569600
 20
1.072720
  0
SEQEND
  8
0
  0
SOLID
  8
0
 62
    15
 10
2.792240
 20
2.401960
 11
3.537160
 21
2.398000
 12
2.792680
 22
2.362360
 13
3.537600
 23
2.358400
  0
POLYLINE
  8
0
  6
CONTINUOUS
 66
     1
 40
0.000000
 41
0.000000
  0
VERTEX
  8
0
  6
CONTINUOUS
 10
2.792240
 20
2.401960
  0
VERTEX
  8
0
  6
CONTINUOUS
 10
3.537160
 20
2.398000
  0
VERTEX
  8
0
  6
CONTINUOUS
 10
3.537600
 20
2.358400
  0
VERTEX
  8
0
  6
CONTINUOUS
 10
2.792680
 20
2.362360
  0
VERTEX
  8
0
  6
CONTINUOUS
 10
2.792240
 20
2.401960
  0
SEQEND
  8
0
  0
SOLID
  8
0
 62
    15
 10
2.488640
 20
1.030480
 11
3.233560
 21
1.026520
 12
2.452560
 22
1.026960
 13
3.197480
 23
1.023000
  0
POLYLINE
  8
0
  6
CONTINUOUS
 66
     1
 40
0.000000
 41
0.000000
  0
VERTEX
  8
0
  6
CONTINUOUS
 10
2.488640
 20
1.030480
  0
VERTEX
  8
0
  6
CONTINUOUS
 10
3.233560
 20
1.026520
  0
VERTEX
  8
0
  6
CONTINUOUS
 10
3.197480
 20
1.023000
  0
VERTEX
  8
0
  6
CONTINUOUS
 10
2.452560
 20
1.026960
  0
VERTEX
  8
0
  6
CONTINUOUS
 10
2.488640
 20
1.030480
  0
SEQEND
  8
0
  0
SOLID
  8
0
 62
    15
 10
2.519880
 20
1.040160
 11
3.264800
 21
1.036200
 12
2.488640
 22
1.030480
 13
3.233560
 23
1.026520
  0
POLYLINE
  8
0
  6
CONTINUOUS
 66
     1
 40
0.000000
 41
0.000000
  0
VERTEX
  8
0
  6
CONTINUOUS
 10
2.519880
 20
1.040160
  0
VERTEX
  8
0
  6
CONTINUOUS
 10
3.264800
 20
1.036200
  0
VERTEX
  8
0
  6
CONTINUOUS
 10
3.233560
 20
1.026520
  0
VERTEX
  8
0
  6
CONTINUOUS
 10
2.488640
 20
1.030480
  0
VERTEX
  8
0
  6
CONTINUOUS
 10
2.519880
 20
1.040160
  0
SEQEND
  8
0
  0
SOLID
  8
0
 62
    15
 10
2.452560
 20
1.026960
 11
3.197480
 21
1.023000
 12
2.004640
 22
1.026960
 13
2.749560
 23
1.023000
  0
POLYLINE
  8
0
  6
CONTINUOUS
 66
     1
 40
0.000000
 41
0.000000
  0
VERTEX
  8
0
  6
CONTINUOUS
 10
2.452560
 20
1.026960
  0
VERTEX
  8
0
  6
CONTINUOUS
 10
3.197480
 20
1.023000
  0
VERTEX
  8
0
  6
CONTINUOUS
 10
2.749560
 20
1.023000
  0
VERTEX
  8
0
  6
CONTINUOUS
 10
2.004640
 20
1.026960
  0
VERTEX
  8
0
  6
CONTINUOUS
 10
2.452560
 20
1.026960
  0
SEQEND
  8
0
  0
SOLID
  8
0
 62
    15
 10
2.002880
 20
3.539360
 11
2.747800
 21
3.535400
 12
2.087800
 22
3.534520
 13
2.832720
 23
3.530560
  0
POLYLINE
  8
0
  6
CONTINUOUS
 66
     1
 40
0.000000
 41
0.000000
  0
VERTEX
  8
0
  6
CONTINUOUS
 10
2.002880
 20
3.539360
  0
VERTEX
  8
0
  6
CONTINUOUS
 10
2.747800
 20
3.535400
  0
VERTEX
  8
0
  6
CONTINUOUS
 10
2.832720
 20
3.530560
  0
VERTEX
  8
0
  6
CONTINUOUS
 10
2.087800
 20
3.534520
  0
VERTEX
  8
0
  6
CONTINUOUS
 10
2.002880
 20
3.539360
  0
SEQEND
  8
0
  0
SOLID
  8
0
 62
    15
 10
2.087800
 20
3.534520
 11
2.832720
 21
3.530560
 12
2.167880
 22
3.530560
 13
2.912800
 23
3.526600
  0
POLYLINE
  8
0
  6
CONTINUOUS
 66
     1
 40
0.000000
 41
0.000000
  0
VERTEX
  8
0
  6
CONTINUOUS
 10
2.087800
 20
3.534520
  0
VERTEX
  8
0
  6
CONTINUOUS
 10
2.832720
 20
3.530560
  0
VERTEX
  8
0
  6
CONTINUOUS
 10
2.912800
 20
3.526600
  0
VERTEX
  8
0
  6
CONTINUOUS
 10
2.167880
 20
3.530560
  0
VERTEX
  8
0
  6
CONTINUOUS
 10
2.087800
 20
3.534520
  0
SEQEND
  8
0
  0
SOLID
  8
0
 62
    15
 10
2.167880
 20
3.530560
 11
2.912800
 21
3.526600
 12
2.242680
 22
3.525720
 13
2.987600
 23
3.521760
  0
POLYLINE
  8
0
  6
CONTINUOUS
 66
     1
 40
0.000000
 41
0.000000
  0
VERTEX
  8
0
  6
CONTINUOUS
 10
2.167880
 20
3.530560
  0
VERTEX
  8
0
  6
CONTINUOUS
 10
2.912800
 20
3.526600
  0
VERTEX
  8
0
  6
CONTINUOUS
 10
2.987600
 20
3.521760
  0
VERTEX
  8
0
  6
CONTINUOUS
 10
2.242680
 20
3.525720
  0
VERTEX
  8
0
  6
CONTINUOUS
 10
2.167880
 20
3.530560
  0
SEQEND
  8
0
  0
SOLID
  8
0
 62
    15
 10
2.242680
 20
3.525720
 11
2.987600
 21
3.521760
 12
2.312200
 22
3.519560
 13
3.057120
 23
3.515600
  0
POLYLINE
  8
0
  6
CONTINUOUS
 66
     1
 40
0.000000
 41
0.000000
  0
VERTEX
  8
0
  6
CONTINUOUS
 10
2.242680
 20
3.525720
  0
VERTEX
  8
0
  6
CONTINUOUS
 10
2.987600
 20
3.521760
  0
VERTEX
  8
0
  6
CONTINUOUS
 10
3.057120
 20
3.515600
  0
VERTEX
  8
0
  6
CONTINUOUS
 10
2.312200
 20
3.519560
  0
VERTEX
  8
0
  6
CONTINUOUS
 10
2.242680
 20
3.525720
  0
SEQEND
  8
0
  0
SOLID
  8
0
 62
    15
 10
2.312200
 20
3.519560
 11
3.057120
 21
3.515600
 12
2.376000
 22
3.510760
 13
3.120920
 23
3.506800
  0
POLYLINE
  8
0
  6
CONTINUOUS
 66
     1
 40
0.000000
 41
0.000000
  0
VERTEX
  8
0
  6
CONTINUOUS
 10
2.312200
 20
3.519560
  0
VERTEX
  8
0
  6
CONTINUOUS
 10
3.057120
 20
3.515600
  0
VERTEX
  8
0
  6
CONTINUOUS
 10
3.120920
 20
3.506800
  0
VERTEX
  8
0
  6
CONTINUOUS
 10
2.376000
 20
3.510760
  0
VERTEX
  8
0
  6
CONTINUOUS
 10
2.312200
 20
3.519560
  0
SEQEND
  8
0
  0
SOLID
  8
0
 62
    15
 10
2.376000
 20
3.510760
 11
3.120920
 21
3.506800
 12
2.434520
 22
3.497560
 13
3.179440
 23
3.493600
  0
POLYLINE
  8
0
  6
CONTINUOUS
 66
     1
 40
0.000000
 41
0.000000
  0
VERTEX
  8
0
  6
CONTINUOUS
 10
2.376000
 20
3.510760
  0
VERTEX
  8
0
  6
CONTINUOUS
 10
3.120920
 20
3.506800
  0
VERTEX
  8
0
  6
CONTINUOUS
 10
3.179440
 20
3.493600
  0
VERTEX
  8
0
  6
CONTINUOUS
 10
2.434520
 20
3.497560
  0
VERTEX
  8
0
  6
CONTINUOUS
 10
2.376000
 20
3.510760
  0
SEQEND
  8
0
  0
SOLID
  8
0
 62
    15
 10
2.434520
 20
3.497560
 11
3.179440
 21
3.493600
 12
2.487320
 22
3.479960
 13
3.232240
 23
3.476000
  0
POLYLINE
  8
0
  6
CONTINUOUS
 66
     1
 40
0.000000
 41
0.000000
  0
VERTEX
  8
0
  6
CONTINUOUS
 10
2.434520
 20
3.497560
  0
VERTEX
  8
0
  6
CONTINUOUS
 10
3.179440
 20
3.493600
  0
VERTEX
  8
0
  6
CONTINUOUS
 10
3.232240
 20
3.476000
  0
VERTEX
  8
0
  6
CONTINUOUS
 10
2.487320
 20
3.479960
  0
VERTEX
  8
0
  6
CONTINUOUS
 10
2.434520
 20
3.497560
  0
SEQEND
  8
0
  0
SOLID
  8
0
 62
    15
 10
2.487320
 20
3.479960
 11
3.232240
 21
3.476000
 12
2.533960
 22
3.456200
 13
3.278880
 23
3.452240
  0
POLYLINE
  8
0
  6
CONTINUOUS
 66
     1
 40
0.000000
 41
0.000000
  0
VERTEX
  8
0
  6
CONTINUOUS
 10
2.487320
 20
3.479960
  0
VERTEX
  8
0
  6
CONTINUOUS
 10
3.232240
 20
3.476000
  0
VERTEX
  8
0
  6
CONTINUOUS
 10
3.278880
 20
3.452240
  0
VERTEX
  8
0
  6
CONTINUOUS
 10
2.533960
 20
3.456200
  0
VERTEX
  8
0
  6
CONTINUOUS
 10
2.487320
 20
3.479960
  0
SEQEND
  8
0
  0
SOLID
  8
0
 62
    15
 10
2.533960
 20
3.456200
 11
3.278880
 21
3.452240
 12
2.545840
 22
3.450040
 13
3.290760
 23
3.446080
  0
POLYLINE
  8
0
  6
CONTINUOUS
 66
     1
 40
0.000000
 41
0.000000
  0
VERTEX
  8
0
  6
CONTINUOUS
 10
2.533960
 20
3.456200
  0
VERTEX
  8
0
  6
CONTINUOUS
 10
3.278880
 20
3.452240
  0
VERTEX
  8
0
  6
CONTINUOUS
 10
3.290760
 20
3.446080
  0
VERTEX
  8
0
  6
CONTINUOUS
 10
2.545840
 20
3.450040
  0
VERTEX
  8
0
  6
CONTINUOUS
 10
2.533960
 20
3.456200
  0
SEQEND
  8
0
  0
SOLID
  8
0
 62
    15
 10
2.545840
 20
3.450040
 11
3.290760
 21
3.446080
 12
2.567400
 22
3.440800
 13
3.312320
 23
3.436840
  0
POLYLINE
  8
0
  6
CONTINUOUS
 66
     1
 40
0.000000
 41
0.000000
  0
VERTEX
  8
0
  6
CONTINUOUS
 10
2.545840
 20
3.450040
  0
VERTEX
  8
0
  6
CONTINUOUS
 10
3.290760
 20
3.446080
  0
VERTEX
  8
0
  6
CONTINUOUS
 10
3.312320
 20
3.436840
  0
VERTEX
  8
0
  6
CONTINUOUS
 10
2.567400
 20
3.440800
  0
VERTEX
  8
0
  6
CONTINUOUS
 10
2.545840
 20
3.450040
  0
SEQEND
  8
0
  0
SOLID
  8
0
 62
    15
 10
2.567400
 20
3.440800
 11
3.312320
 21
3.436840
 12
2.596440
 22
3.429360
 13
3.341360
 23
3.425400
  0
POLYLINE
  8
0
  6
CONTINUOUS
 66
     1
 40
0.000000
 41
0.000000
  0
VERTEX
  8
0
  6
CONTINUOUS
 10
2.567400
 20
3.440800
  0
VERTEX
  8
0
  6
CONTINUOUS
 10
3.312320
 20
3.436840
  0
VERTEX
  8
0
  6
CONTINUOUS
 10
3.341360
 20
3.425400
  0
VERTEX
  8
0
  6
CONTINUOUS
 10
2.596440
 20
3.429360
  0
VERTEX
  8
0
  6
CONTINUOUS
 10
2.567400
 20
3.440800
  0
SEQEND
  8
0
  0
SOLID
  8
0
 62
    15
 10
2.596440
 20
3.429360
 11
3.341360
 21
3.425400
 12
2.631200
 22
3.415720
 13
3.376120
 23
3.411760
  0
POLYLINE
  8
0
  6
CONTINUOUS
 66
     1
 40
0.000000
 41
0.000000
  0
VERTEX
  8
0
  6
CONTINUOUS
 10
2.596440
 20
3.429360
  0
VERTEX
  8
0
  6
CONTINUOUS
 10
3.341360
 20
3.425400
  0
VERTEX
  8
0
  6
CONTINUOUS
 10
3.376120
 20
3.411760
  0
VERTEX
  8
0
  6
CONTINUOUS
 10
2.631200
 20
3.415720
  0
VERTEX
  8
0
  6
CONTINUOUS
 10
2.596440
 20
3.429360
  0
SEQEND
  8
0
  0
SOLID
  8
0
 62
    15
 10
2.631200
 20
3.415720
 11
3.376120
 21
3.411760
 12
2.786080
 22
3.360280
 13
3.531000
 23
3.356320
  0
POLYLINE
  8
0
  6
CONTINUOUS
 66
     1
 40
0.000000
 41
0.000000
  0
VERTEX
  8
0
  6
CONTINUOUS
 10
2.631200
 20
3.415720
  0
VERTEX
  8
0
  6
CONTINUOUS
 10
3.376120
 20
3.411760
  0
VERTEX
  8
0
  6
CONTINUOUS
 10
3.531000
 20
3.356320
  0
VERTEX
  8
0
  6
CONTINUOUS
 10
2.786080
 20
3.360280
  0
VERTEX
  8
0
  6
CONTINUOUS
 10
2.631200
 20
3.415720
  0
SEQEND
  8
0
  0
SOLID
  8
0
 62
    15
 10
2.786080
 20
3.360280
 11
3.531000
 21
3.356320
 12
2.790040
 22
3.358080
 13
3.534960
 23
3.354120
  0
POLYLINE
  8
0
  6
CONTINUOUS
 66
     1
 40
0.000000
 41
0.000000
  0
VERTEX
  8
0
  6
CONTINUOUS
 10
2.786080
 20
3.360280
  0
VERTEX
  8
0
  6
CONTINUOUS
 10
3.531000
 20
3.356320
  0
VERTEX
  8
0
  6
CONTINUOUS
 10
3.534960
 20
3.354120
  0
VERTEX
  8
0
  6
CONTINUOUS
 10
2.790040
 20
3.358080
  0
VERTEX
  8
0
  6
CONTINUOUS
 10
2.786080
 20
3.360280
  0
SEQEND
  8
0
  0
SOLID
  8
0
 62
    15
 10
2.790040
 20
3.358080
 11
3.534960
 21
3.354120
 12
2.790040
 22
3.278880
 13
3.534960
 23
3.274920
  0
POLYLINE
  8
0
  6
CONTINUOUS
 66
     1
 40
0.000000
 41
0.000000
  0
VERTEX
  8
0
  6
CONTINUOUS
 10
2.790040
 20
3.358080
  0
VERTEX
  8
0
  6
CONTINUOUS
 10
3.534960
 20
3.354120
  0
VERTEX
  8
0
  6
CONTINUOUS
 10
3.534960
 20
3.274920
  0
VERTEX
  8
0
  6
CONTINUOUS
 10
2.790040
 20
3.278880
  0
VERTEX
  8
0
  6
CONTINUOUS
 10
2.790040
 20
3.358080
  0
SEQEND
  8
0
  0
SOLID
  8
0
 62
    15
 10
2.790040
 20
3.278880
 11
3.534960
 21
3.274920
 12
2.792240
 22
3.274480
 13
3.537160
 23
3.270960
  0
POLYLINE
  8
0
  6
CONTINUOUS
 66
     1
 40
0.000000
 41
0.000000
  0
VERTEX
  8
0
  6
CONTINUOUS
 10
2.790040
 20
3.278880
  0
VERTEX
  8
0
  6
CONTINUOUS
 10
3.534960
 20
3.274920
  0
VERTEX
  8
0
  6
CONTINUOUS
 10
3.537160
 20
3.270960
  0
VERTEX
  8
0
  6
CONTINUOUS
 10
2.792240
 20
3.274480
  0
VERTEX
  8
0
  6
CONTINUOUS
 10
2.790040
 20
3.278880
  0
SEQEND
  8
0
  0
SOLID
  8
0
 62
    15
 10
2.792240
 20
3.274480
 11
3.537160
 21
3.270960
 12
2.838880
 22
3.248960
 13
3.583800
 23
3.245000
  0
POLYLINE
  8
0
  6
CONTINUOUS
 66
     1
 40
0.000000
 41
0.000000
  0
VERTEX
  8
0
  6
CONTINUOUS
 10
2.792240
 20
3.274480
  0
VERTEX
  8
0
  6
CONTINUOUS
 10
3.537160
 20
3.270960
  0
VERTEX
  8
0
  6
CONTINUOUS
 10
3.583800
 20
3.245000
  0
VERTEX
  8
0
  6
CONTINUOUS
 10
2.838880
 20
3.248960
  0
VERTEX
  8
0
  6
CONTINUOUS
 10
2.792240
 20
3.274480
  0
SEQEND
  8
0
  0
SOLID
  8
0
 62
    15
 10
2.838880
 20
3.248960
 11
3.583800
 21
3.245000
 12
2.882000
 22
3.215080
 13
3.626920
 23
3.211120
  0
POLYLINE
  8
0
  6
CONTINUOUS
 66
     1
 40
0.000000
 41
0.000000
  0
VERTEX
  8
0
  6
CONTINUOUS
 10
2.838880
 20
3.248960
  0
VERTEX
  8
0
  6
CONTINUOUS
 10
3.583800
 20
3.245000
  0
VERTEX
  8
0
  6
CONTINUOUS
 10
3.626920
 20
3.211120
  0
VERTEX
  8
0
  6
CONTINUOUS
 10
2.882000
 20
3.215080
  0
VERTEX
  8
0
  6
CONTINUOUS
 10
2.838880
 20
3.248960
  0
SEQEND
  8
0
  0
SOLID
  8
0
 62
    15
 10
2.882000
 20
3.215080
 11
3.626920
 21
3.211120
 12
2.920720
 22
3.174160
 13
3.666080
 23
3.170200
  0
POLYLINE
  8
0
  6
CONTINUOUS
 66
     1
 40
0.000000
 41
0.000000
  0
VERTEX
  8
0
  6
CONTINUOUS
 10
2.882000
 20
3.215080
  0
VERTEX
  8
0
  6
CONTINUOUS
 10
3.626920
 20
3.211120
  0
VERTEX
  8
0
  6
CONTINUOUS
 10
3.666080
 20
3.170200
  0
VERTEX
  8
0
  6
CONTINUOUS
 10
2.920720
 20
3.174160
  0
VERTEX
  8
0
  6
CONTINUOUS
 10
2.882000
 20
3.215080
  0
SEQEND
  8
0
  0
SOLID
  8
0
 62
    15
 10
2.920720
 20
3.174160
 11
3.666080
 21
3.170200
 12
2.955040
 22
3.127080
 13
3.699960
 23
3.123560
  0
POLYLINE
  8
0
  6
CONTINUOUS
 66
     1
 40
0.000000
 41
0.000000
  0
VERTEX
  8
0
  6
CONTINUOUS
 10
2.920720
 20
3.174160
  0
VERTEX
  8
0
  6
CONTINUOUS
 10
3.666080
 20
3.170200
  0
VERTEX
  8
0
  6
CONTINUOUS
 10
3.699960
 20
3.123560
  0
VERTEX
  8
0
  6
CONTINUOUS
 10
2.955040
 20
3.127080
  0
VERTEX
  8
0
  6
CONTINUOUS
 10
2.920720
 20
3.174160
  0
SEQEND
  8
0
  0
SOLID
  8
0
 62
    15
 10
2.955040
 20
3.127080
 11
3.699960
 21
3.123560
 12
2.983640
 22
3.075160
 13
3.728560
 23
3.071200
  0
POLYLINE
  8
0
  6
CONTINUOUS
 66
     1
 40
0.000000
 41
0.000000
  0
VERTEX
  8
0
  6
CONTINUOUS
 10
2.955040
 20
3.127080
  0
VERTEX
  8
0
  6
CONTINUOUS
 10
3.699960
 20
3.123560
  0
VERTEX
  8
0
  6
CONTINUOUS
 10
3.728560
 20
3.071200
  0
VERTEX
  8
0
  6
CONTINUOUS
 10
2.983640
 20
3.075160
  0
VERTEX
  8
0
  6
CONTINUOUS
 10
2.955040
 20
3.127080
  0
SEQEND
  8
0
  0
SOLID
  8
0
 62
    15
 10
2.983640
 20
3.075160
 11
3.728560
 21
3.071200
 12
3.006520
 22
3.018400
 13
3.751440
 23
3.014440
  0
POLYLINE
  8
0
  6
CONTINUOUS
 66
     1
 40
0.000000
 41
0.000000
  0
VERTEX
  8
0
  6
CONTINUOUS
 10
2.983640
 20
3.075160
  0
VERTEX
  8
0
  6
CONTINUOUS
 10
3.728560
 20
3.071200
  0
VERTEX
  8
0
  6
CONTINUOUS
 10
3.751440
 20
3.014440
  0
VERTEX
  8
0
  6
CONTINUOUS
 10
3.006520
 20
3.018400
  0
VERTEX
  8
0
  6
CONTINUOUS
 10
2.983640
 20
3.075160
  0
SEQEND
  8
0
  0
SOLID
  8
0
 62
    15
 10
3.006520
 20
3.018400
 11
3.751440
 21
3.014440
 12
3.023240
 22
2.958120
 13
3.768160
 23
2.954160
  0
POLYLINE
  8
0
  6
CONTINUOUS
 66
     1
 40
0.000000
 41
0.000000
  0
VERTEX
  8
0
  6
CONTINUOUS
 10
3.006520
 20
3.018400
  0
VERTEX
  8
0
  6
CONTINUOUS
 10
3.751440
 20
3.014440
  0
VERTEX
  8
0
  6
CONTINUOUS
 10
3.768160
 20
2.954160
  0
VERTEX
  8
0
  6
CONTINUOUS
 10
3.023240
 20
2.958120
  0
VERTEX
  8
0
  6
CONTINUOUS
 10
3.006520
 20
3.018400
  0
SEQEND
  8
0
  0
SOLID
  8
0
 62
    15
 10
3.023240
 20
2.958120
 11
3.768160
 21
2.954160
 12
3.032920
 22
2.895200
 13
3.777840
 23
2.891240
  0
POLYLINE
  8
0
  6
CONTINUOUS
 66
     1
 40
0.000000
 41
0.000000
  0
VERTEX
  8
0
  6
CONTINUOUS
 10
3.023240
 20
2.958120
  0
VERTEX
  8
0
  6
CONTINUOUS
 10
3.768160
 20
2.954160
  0
VERTEX
  8
0
  6
CONTINUOUS
 10
3.777840
 20
2.891240
  0
VERTEX
  8
0
  6
CONTINUOUS
 10
3.032920
 20
2.895200
  0
VERTEX
  8
0
  6
CONTINUOUS
 10
3.023240
 20
2.958120
  0
SEQEND
  8
0
  0
SOLID
  8
0
 62
    15
 10
3.032920
 20
2.895200
 11
3.777840
 21
2.891240
 12
3.035120
 22
2.830960
 13
3.780040
 23
2.827000
  0
POLYLINE
  8
0
  6
CONTINUOUS
 66
     1
 40
0.000000
 41
0.000000
  0
VERTEX
  8
0
  6
CONTINUOUS
 10
3.032920
 20
2.895200
  0
VERTEX
  8
0
  6
CONTINUOUS
 10
3.777840
 20
2.891240
  0
VERTEX
  8
0
  6
CONTINUOUS
 10
3.780040
 20
2.827000
  0
VERTEX
  8
0
  6
CONTINUOUS
 10
3.035120
 20
2.830960
  0
VERTEX
  8
0
  6
CONTINUOUS
 10
3.032920
 20
2.895200
  0
SEQEND
  8
0
  0
SOLID
  8
0
 62
    15
 10
3.035120
 20
2.830960
 11
3.780040
 21
2.827000
 12
3.029400
 22
2.765400
 13
3.774320
 23
2.761440
  0
POLYLINE
  8
0
  6
CONTINUOUS
 66
     1
 40
0.000000
 41
0.000000
  0
VERTEX
  8
0
  6
CONTINUOUS
 10
3.035120
 20
2.830960
  0
VERTEX
  8
0
  6
CONTINUOUS
 10
3.780040
 20
2.827000
  0
VERTEX
  8
0
  6
CONTINUOUS
 10
3.774320
 20
2.761440
  0
VERTEX
  8
0
  6
CONTINUOUS
 10
3.029400
 20
2.765400
  0
VERTEX
  8
0
  6
CONTINUOUS
 10
3.035120
 20
2.830960
  0
SEQEND
  8
0
  0
SOLID
  8
0
 62
    15
 10
3.029400
 20
2.765400
 11
3.774320
 21
2.761440
 12
3.015320
 22
2.700280
 13
3.760240
 23
2.696320
  0
POLYLINE
  8
0
  6
CONTINUOUS
 66
     1
 40
0.000000
 41
0.000000
  0
VERTEX
  8
0
  6
CONTINUOUS
 10
3.029400
 20
2.765400
  0
VERTEX
  8
0
  6
CONTINUOUS
 10
3.774320
 20
2.761440
  0
VERTEX
  8
0
  6
CONTINUOUS
 10
3.760240
 20
2.696320
  0
VERTEX
  8
0
  6
CONTINUOUS
 10
3.015320
 20
2.700280
  0
VERTEX
  8
0
  6
CONTINUOUS
 10
3.029400
 20
2.765400
  0
SEQEND
  8
0
  0
SOLID
  8
0
 62
    15
 10
3.015320
 20
2.700280
 11
3.760240
 21
2.696320
 12
2.992000
 22
2.636480
 13
3.736920
 23
2.632520
  0
POLYLINE
  8
0
  6
CONTINUOUS
 66
     1
 40
0.000000
 41
0.000000
  0
VERTEX
  8
0
  6
CONTINUOUS
 10
3.015320
 20
2.700280
  0
VERTEX
  8
0
  6
CONTINUOUS
 10
3.760240
 20
2.696320
  0
VERTEX
  8
0
  6
CONTINUOUS
 10
3.736920
 20
2.632520
  0
VERTEX
  8
0
  6
CONTINUOUS
 10
2.992000
 20
2.636480
  0
VERTEX
  8
0
  6
CONTINUOUS
 10
3.015320
 20
2.700280
  0
SEQEND
  8
0
  0
SOLID
  8
0
 62
    15
 10
2.992000
 20
2.636480
 11
3.736920
 21
2.632520
 12
2.959440
 22
2.574000
 13
3.704360
 23
2.570040
  0
POLYLINE
  8
0
  6
CONTINUOUS
 66
     1
 40
0.000000
 41
0.000000
  0
VERTEX
  8
0
  6
CONTINUOUS
 10
2.992000
 20
2.636480
  0
VERTEX
  8
0
  6
CONTINUOUS
 10
3.736920
 20
2.632520
  0
VERTEX
  8
0
  6
CONTINUOUS
 10
3.704360
 20
2.570040
  0
VERTEX
  8
0
  6
CONTINUOUS
 10
2.959440
 20
2.574000
  0
VERTEX
  8
0
  6
CONTINUOUS
 10
2.992000
 20
2.636480
  0
SEQEND
  8
0
  0
SOLID
  8
0
 62
    15
 10
2.959440
 20
2.574000
 11
3.704360
 21
2.570040
 12
2.916320
 22
2.514600
 13
3.661680
 23
2.510640
  0
POLYLINE
  8
0
  6
CONTINUOUS
 66
     1
 40
0.000000
 41
0.000000
  0
VERTEX
  8
0
  6
CONTINUOUS
 10
2.959440
 20
2.574000
  0
VERTEX
  8
0
  6
CONTINUOUS
 10
3.704360
 20
2.570040
  0
VERTEX
  8
0
  6
CONTINUOUS
 10
3.661680
 20
2.510640
  0
VERTEX
  8
0
  6
CONTINUOUS
 10
2.916320
 20
2.514600
  0
VERTEX
  8
0
  6
CONTINUOUS
 10
2.959440
 20
2.574000
  0
SEQEND
  8
0
  0
SOLID
  8
0
 62
    15
 10
2.916320
 20
2.514600
 11
3.661680
 21
2.510640
 12
2.863080
 22
2.459160
 13
3.608000
 23
2.455200
  0
POLYLINE
  8
0
  6
CONTINUOUS
 66
     1
 40
0.000000
 41
0.000000
  0
VERTEX
  8
0
  6
CONTINUOUS
 10
2.916320
 20
2.514600
  0
VERTEX
  8
0
  6
CONTINUOUS
 10
3.661680
 20
2.510640
  0
VERTEX
  8
0
  6
CONTINUOUS
 10
3.608000
 20
2.455200
  0
VERTEX
  8
0
  6
CONTINUOUS
 10
2.863080
 20
2.459160
  0
VERTEX
  8
0
  6
CONTINUOUS
 10
2.916320
 20
2.514600
  0
SEQEND
  8
0
  0
SOLID
  8
0
 62
    15
 10
2.863080
 20
2.459160
 11
3.608000
 21
2.455200
 12
2.798400
 22
2.408120
 13
3.543320
 23
2.404160
  0
POLYLINE
  8
0
  6
CONTINUOUS
 66
     1
 40
0.000000
 41
0.000000
  0
VERTEX
  8
0
  6
CONTINUOUS
 10
2.863080
 20
2.459160
  0
VERTEX
  8
0
  6
CONTINUOUS
 10
3.608000
 20
2.455200
  0
VERTEX
  8
0
  6
CONTINUOUS
 10
3.543320
 20
2.404160
  0
VERTEX
  8
0
  6
CONTINUOUS
 10
2.798400
 20
2.408120
  0
VERTEX
  8
0
  6
CONTINUOUS
 10
2.863080
 20
2.459160
  0
SEQEND
  8
0
  0
SOLID
  8
0
 62
    15
 10
2.798400
 20
2.408120
 11
3.543320
 21
2.404160
 12
2.792240
 22
2.401960
 13
3.537160
 23
2.398000
  0
POLYLINE
  8
0
  6
CONTINUOUS
 66
     1
 40
0.000000
 41
0.000000
  0
VERTEX
  8
0
  6
CONTINUOUS
 10
2.798400
 20
2.408120
  0
VERTEX
  8
0
  6
CONTINUOUS
 10
3.543320
 20
2.404160
  0
VERTEX
  8
0
  6
CONTINUOUS
 10
3.537160
 20
2.398000
  0
VERTEX
  8
0
  6
CONTINUOUS
 10
2.792240
 20
2.401960
  0
VERTEX
  8
0
  6
CONTINUOUS
 10
2.798400
 20
2.408120
  0
SEQEND
  8
0
  0
POLYLINE
  8
0
  6
CONTINUOUS
 66
     1
 40
0.000000
 41
0.000000
  0
VERTEX
  8
0
  6
CONTINUOUS
 10
2.792240
 20
2.401960
  0
VERTEX
  8
0
  6
CONTINUOUS
 10
2.792680
 20
2.362360
  0
VERTEX
  8
0
  6
CONTINUOUS
 10
2.791800
 20
2.324080
  0
VERTEX
  8
0
  6
CONTINUOUS
 10
2.788280
 20
2.288000
  0
VERTEX
  8
0
  6
CONTINUOUS
 10
2.780360
 20
2.255000
  0
VERTEX
  8
0
  6
CONTINUOUS
 10
2.765840
 20
2.225080
  0
VERTEX
  8
0
  6
CONTINUOUS
 10
2.742960
 20
2.199560
  0
VERTEX
  8
0
  6
CONTINUOUS
 10
2.709960
 20
2.178880
  0
VERTEX
  8
0
  6
CONTINUOUS
 10
2.665080
 20
2.164360
  0
VERTEX
  8
0
  6
CONTINUOUS
 10
2.661120
 20
2.164360
  0
VERTEX
  8
0
  6
CONTINUOUS
 10
2.622400
 20
1.791680
  0
VERTEX
  8
0
  6
CONTINUOUS
 10
2.615800
 20
1.735800
  0
VERTEX
  8
0
  6
CONTINUOUS
 10
2.600400
 20
1.639880
  0
VERTEX
  8
0
  6
CONTINUOUS
 10
2.591160
 20
1.599840
  0
VERTEX
  8
0
  6
CONTINUOUS
 10
2.580600
 20
1.564200
  0
VERTEX
  8
0
  6
CONTINUOUS
 10
2.554200
 20
1.506120
  0
VERTEX
  8
0
  6
CONTINUOUS
 10
2.517680
 20
1.463000
  0
VERTEX
  8
0
  6
CONTINUOUS
 10
2.469280
 20
1.433080
  0
VERTEX
  8
0
  6
CONTINUOUS
 10
2.465320
 20
1.428680
  0
VERTEX
  8
0
  6
CONTINUOUS
 10
2.465320
 20
1.343320
  0
VERTEX
  8
0
  6
CONTINUOUS
 10
2.501840
 20
1.333640
  0
VERTEX
  8
0
  6
CONTINUOUS
 10
2.533520
 20
1.319120
  0
VERTEX
  8
0
  6
CONTINUOUS
 10
2.559480
 20
1.300640
  0
VERTEX
  8
0
  6
CONTINUOUS
 10
2.580600
 20
1.278640
  0
VERTEX
  8
0
  6
CONTINUOUS
 10
2.596440
 20
1.254000
  0
VERTEX
  8
0
  6
CONTINUOUS
 10
2.607000
 20
1.228040
  0
VERTEX
  8
0
  6
CONTINUOUS
 10
2.613600
 20
1.172600
  0
VERTEX
  8
0
  6
CONTINUOUS
 10
2.609640
 20
1.145320
  0
VERTEX
  8
0
  6
CONTINUOUS
 10
2.600840
 20
1.118920
  0
VERTEX
  8
0
  6
CONTINUOUS
 10
2.587640
 20
1.094720
  0
VERTEX
  8
0
  6
CONTINUOUS
 10
2.569600
 20
1.072720
  0
VERTEX
  8
0
  6
CONTINUOUS
 10
2.546720
 20
1.054240
  0
VERTEX
  8
0
  6
CONTINUOUS
 10
2.519880
 20
1.040160
  0
VERTEX
  8
0
  6
CONTINUOUS
 10
2.488640
 20
1.030480
  0
VERTEX
  8
0
  6
CONTINUOUS
 10
2.452560
 20
1.026960
  0
VERTEX
  8
0
  6
CONTINUOUS
 10
2.004640
 20
1.026960
  0
VERTEX
  8
0
  6
CONTINUOUS
 10
2.004640
 20
3.539360
  0
VERTEX
  8
0
  6
CONTINUOUS
 10
2.002880
 20
3.539360
  0
VERTEX
  8
0
  6
CONTINUOUS
 10
2.242680
 20
3.525720
  0
VERTEX
  8
0
  6
CONTINUOUS
 10
2.312200
 20
3.519560
  0
VERTEX
  8
0
  6
CONTINUOUS
 10
2.376000
 20
3.510760
  0
VERTEX
  8
0
  6
CONTINUOUS
 10
2.434520
 20
3.497560
  0
VERTEX
  8
0
  6
CONTINUOUS
 10
2.487320
 20
3.479960
  0
VERTEX
  8
0
  6
CONTINUOUS
 10
2.545840
 20
3.450040
  0
VERTEX
  8
0
  6
CONTINUOUS
 10
2.631200
 20
3.415720
  0
VERTEX
  8
0
  6
CONTINUOUS
 10
2.790040
 20
3.358080
  0
VERTEX
  8
0
  6
CONTINUOUS
 10
2.790040
 20
3.278880
  0
VERTEX
  8
0
  6
CONTINUOUS
 10
2.792240
 20
3.274480
  0
VERTEX
  8
0
  6
CONTINUOUS
 10
2.838880
 20
3.248960
  0
VERTEX
  8
0
  6
CONTINUOUS
 10
2.882000
 20
3.215080
  0
VERTEX
  8
0
  6
CONTINUOUS
 10
2.920720
 20
3.174160
  0
VERTEX
  8
0
  6
CONTINUOUS
 10
2.955040
 20
3.127080
  0
VERTEX
  8
0
  6
CONTINUOUS
 10
2.983640
 20
3.075160
  0
VERTEX
  8
0
  6
CONTINUOUS
 10
3.006520
 20
3.018400
  0
VERTEX
  8
0
  6
CONTINUOUS
 10
3.023240
 20
2.958120
  0
VERTEX
  8
0
  6
CONTINUOUS
 10
3.032920
 20
2.895200
  0
VERTEX
  8
0
  6
CONTINUOUS
 10
3.035120
 20
2.830960
  0
VERTEX
  8
0
  6
CONTINUOUS
 10
3.029400
 20
2.765400
  0
VERTEX
  8
0
  6
CONTINUOUS
 10
3.015320
 20
2.700280
  0
VERTEX
  8
0
  6
CONTINUOUS
 10
2.992000
 20
2.636480
  0
VERTEX
  8
0
  6
CONTINUOUS
 10
2.959440
 20
2.574000
  0
VERTEX
  8
0
  6
CONTINUOUS
 10
2.916320
 20
2.514600
  0
VERTEX
  8
0
  6
CONTINUOUS
 10
2.863080
 20
2.459160
  0
VERTEX
  8
0
  6
CONTINUOUS
 10
2.792240
 20
2.401960
  0
SEQEND
  8
0
  0
TEXT
  8
0
 10
2.596000
 20
0.791120
 40
0.138159
  1
BA  552
 41
1.000000
  7
SN0
 71
     0
 72
     5
 11
3.187144
 21
0.791120
  0
TEXT
  8
0
 10
2.509320
 20
0.599280
 40
0.138159
  1
1" x 2-1/2"
 41
1.000000
  7
SN0
 71
     0
 72
     5
 11
3.273327
 21
0.599280
  0
ENDSEC
  0
EOF
