  0
SECTION
  2
HEADER
  9
$ACADVER
  1
AC1006
  9
$EXTMIN
 10
2.138400
 20
0.409640
  9
$EXTMAX
 10
6.761920
 20
3.482160
  9
$LTSCALE
 40
0.044000
  9
$PDMODE
 70
    35
  9
$PDSIZE
 40
0.035200
  0
ENDSEC
  0
SECTION
  2
TABLES
  0
TABLE
  2
LTYPE
 70
     9
  0
LTYPE
  2
CONTINUOUS
 70
    64
  3
Solid line
 72
    65
 73
     0
 40
0.000000
  0
LTYPE
  2
DASHED
 70
    64
  3
__ __ __ __ __ __ __ __ __ __ __ __ __ __ __
 72
    65
 73
     2
 40
0.000330
 49
0.000220
 49
-0.000110
  0
LTYPE
  2
HIDDEN
 70
    64
  3
 _ _ _ _ _ _ _ _ _ _ _ _ _ _ _ _ _ _ _ _ _ _
 72
    65
 73
     2
 40
0.000165
 49
0.000110
 49
-0.000055
  0
LTYPE
  2
CENTER
 70
    64
  3
____ _ ____ _ ____ _ ____ _ ____ _ ____ _ ____
 72
    65
 73
     4
 40
0.000880
 49
0.000550
 49
-0.000110
 49
0.000110
 49
-0.000110
  0
LTYPE
  2
PHANTOM
 70
    64
  3
_____ _ _ _____ _ _ _____ _ _ _____ _ _ ____
 72
    65
 73
     6
 40
0.001100
 49
0.000550
 49
-0.000110
 49
0.000110
 49
-0.000110
 49
0.000110
 49
-0.000110
  0
LTYPE
  2
DOT
 70
    64
  3
...............................................
 72
    65
 73
     2
 40
0.000110
 49
0.000000
 49
-0.000110
  0
LTYPE
  2
DASHDOT
 70
    64
  3
__ . __ . __ . __ . __ . __ . __ . __ . __ . __
 72
    65
 73
     4
 40
0.000440
 49
0.000220
 49
-0.000110
 49
0.000000
 49
-0.000110
  0
LTYPE
  2
BORDER
 70
    64
  3
__ __ . __ __ . __ __ . __ __ . __ __ . __ __
 72
    65
 73
     6
 40
0.000770
 49
0.000220
 49
-0.000110
 49
0.000220
 49
-0.000110
 49
0.000000
 49
-0.000110
  0
LTYPE
  2
DIVIDE
 70
    64
  3
__ . . __ . . __ . . __ . . __ . . __ . . __
 72
    65
 73
     6
 40
0.000550
 49
0.000220
 49
-0.000110
 49
0.000000
 49
-0.000110
 49
0.000000
 49
-0.000110
  0
LTYPE
  2
DOTDOT
 70
    64
  3
 . .  . .  . .  . .  . .  . . 
 72
    65
 73
     5
 40
0.000242
 49
-0.000110
 49
0.000000
 49
-0.000110
 49
0.000000
 49
-0.000110
  0
ENDTAB
  0
TABLE
  2
STYLE
 70
     2
  0
STYLE
 70
     0
  2
SN0
 40
0.000000
 41
0.000440
 50
0.000000
 71
     0
 42
0.000000
  3
ROMAND
  0
STYLE
 70
    68
  2
SV0
 40
0.000000
 41
0.000440
 50
0.000000
 71
     0
 42
0.000000
  3
ROMAND
  0
ENDTAB
  0
TABLE
  2
LAYER
 70
     3
  0
LAYER
  2
FOREGROUND
 70
    64
 62
     7
  6
CONTINUOUS
  0
LAYER
  2
BACKGROUND
 70
    65
 62
    -7
  6
CONTINUOUS
  0
LAYER
  2
0
 70
    64
 62
     7
  6
CONTINUOUS
  0
ENDTAB
  0
ENDSEC
  0
SECTION
  2
ENTITIES
  0
POLYLINE
  8
FOREGROUND
  6
CONTINUOUS
 66
     1
 40
0.000000
 41
0.000000
  0
VERTEX
  8
FOREGROUND
  6
CONTINUOUS
 10
0.000000
 20
3.891800
  0
VERTEX
  8
FOREGROUND
  6
CONTINUOUS
 10
8.499920
 20
3.891800
  0
VERTEX
  8
FOREGROUND
  6
CONTINUOUS
 10
8.499920
 20
-7.108200
  0
VERTEX
  8
FOREGROUND
  6
CONTINUOUS
 10
0.000000
 20
-7.108200
  0
VERTEX
  8
FOREGROUND
  6
CONTINUOUS
 10
0.000000
 20
3.891800
  0
SEQEND
  8
0
  0
POLYLINE
  8
FOREGROUND
  6
CONTINUOUS
 66
     1
 40
0.000000
 41
0.000000
  0
VERTEX
  8
FOREGROUND
  6
CONTINUOUS
 10
0.000000
 20
3.891800
  0
VERTEX
  8
FOREGROUND
  6
CONTINUOUS
 10
8.499920
 20
3.891800
  0
VERTEX
  8
FOREGROUND
  6
CONTINUOUS
 10
8.499920
 20
-7.108200
  0
VERTEX
  8
FOREGROUND
  6
CONTINUOUS
 10
0.000000
 20
-7.108200
  0
VERTEX
  8
FOREGROUND
  6
CONTINUOUS
 10
0.000000
 20
3.891800
  0
SEQEND
  8
0
  0
POLYLINE
  8
0
  6
CONTINUOUS
 66
     1
 40
0.014080
 41
0.014080
  0
VERTEX
  8
0
  6
CONTINUOUS
 10
6.752680
 20
2.780800
  0
VERTEX
  8
0
  6
CONTINUOUS
 10
6.741240
 20
2.785200
  0
VERTEX
  8
0
  6
CONTINUOUS
 10
6.730240
 20
2.791800
  0
VERTEX
  8
0
  6
CONTINUOUS
 10
6.719680
 20
2.800600
  0
VERTEX
  8
0
  6
CONTINUOUS
 10
6.699880
 20
2.823920
  0
VERTEX
  8
0
  6
CONTINUOUS
 10
6.690640
 20
2.838000
  0
VERTEX
  8
0
  6
CONTINUOUS
 10
6.674800
 20
2.869680
  0
VERTEX
  8
0
  6
CONTINUOUS
 10
6.661600
 20
2.904880
  0
VERTEX
  8
0
  6
CONTINUOUS
 10
6.651480
 20
2.942280
  0
VERTEX
  8
0
  6
CONTINUOUS
 10
6.644880
 20
2.979680
  0
VERTEX
  8
0
  6
CONTINUOUS
 10
6.642240
 20
3.016200
  0
VERTEX
  8
0
  6
CONTINUOUS
 10
6.637840
 20
3.116080
  0
VERTEX
  8
0
  6
CONTINUOUS
 10
6.631680
 20
3.182960
  0
VERTEX
  8
0
  6
CONTINUOUS
 10
6.624640
 20
3.225640
  0
VERTEX
  8
0
  6
CONTINUOUS
 10
6.615400
 20
3.262160
  0
VERTEX
  8
0
  6
CONTINUOUS
 10
6.603520
 20
3.293400
  0
VERTEX
  8
0
  6
CONTINUOUS
 10
6.588560
 20
3.318920
  0
VERTEX
  8
0
  6
CONTINUOUS
 10
6.570080
 20
3.339160
  0
VERTEX
  8
0
  6
CONTINUOUS
 10
6.548520
 20
3.354560
  0
VERTEX
  8
0
  6
CONTINUOUS
 10
6.522560
 20
3.365560
  0
VERTEX
  8
0
  6
CONTINUOUS
 10
6.502760
 20
3.370400
  0
VERTEX
  8
0
  6
CONTINUOUS
 10
6.502760
 20
3.474680
  0
VERTEX
  8
0
  6
CONTINUOUS
 10
6.250640
 20
3.474680
  0
VERTEX
  8
0
  6
CONTINUOUS
 10
6.250640
 20
3.370400
  0
VERTEX
  8
0
  6
CONTINUOUS
 10
6.222040
 20
3.362480
  0
VERTEX
  8
0
  6
CONTINUOUS
 10
6.197400
 20
3.350160
  0
VERTEX
  8
0
  6
CONTINUOUS
 10
6.176720
 20
3.333000
  0
VERTEX
  8
0
  6
CONTINUOUS
 10
6.159560
 20
3.311000
  0
VERTEX
  8
0
  6
CONTINUOUS
 10
6.149880
 20
3.293400
  0
VERTEX
  8
0
  6
CONTINUOUS
 10
6.138000
 20
3.262160
  0
VERTEX
  8
0
  6
CONTINUOUS
 10
6.126120
 20
3.212000
  0
VERTEX
  8
0
  6
CONTINUOUS
 10
6.118200
 20
3.150840
  0
VERTEX
  8
0
  6
CONTINUOUS
 10
6.112480
 20
3.058440
  0
VERTEX
  8
0
  6
CONTINUOUS
 10
6.110280
 20
2.998160
  0
VERTEX
  8
0
  6
CONTINUOUS
 10
6.105440
 20
2.961200
  0
VERTEX
  8
0
  6
CONTINUOUS
 10
6.097080
 20
2.923360
  0
VERTEX
  8
0
  6
CONTINUOUS
 10
6.085640
 20
2.886840
  0
VERTEX
  8
0
  6
CONTINUOUS
 10
6.070680
 20
2.853400
  0
VERTEX
  8
0
  6
CONTINUOUS
 10
6.062760
 20
2.838000
  0
VERTEX
  8
0
  6
CONTINUOUS
 10
6.043840
 20
2.811600
  0
VERTEX
  8
0
  6
CONTINUOUS
 10
6.033720
 20
2.800600
  0
VERTEX
  8
0
  6
CONTINUOUS
 10
6.023160
 20
2.791800
  0
VERTEX
  8
0
  6
CONTINUOUS
 10
6.012160
 20
2.785200
  0
VERTEX
  8
0
  6
CONTINUOUS
 10
6.000720
 20
2.780800
  0
VERTEX
  8
0
  6
CONTINUOUS
 10
5.998520
 20
2.774640
  0
VERTEX
  8
0
  6
CONTINUOUS
 10
5.998520
 20
2.337280
  0
VERTEX
  8
0
  6
CONTINUOUS
 10
6.000720
 20
2.335080
  0
VERTEX
  8
0
  6
CONTINUOUS
 10
6.250640
 20
2.335080
  0
VERTEX
  8
0
  6
CONTINUOUS
 10
6.250640
 20
1.503920
  0
VERTEX
  8
0
  6
CONTINUOUS
 10
6.502760
 20
1.503920
  0
VERTEX
  8
0
  6
CONTINUOUS
 10
6.504520
 20
2.335080
  0
VERTEX
  8
0
  6
CONTINUOUS
 10
6.502760
 20
2.335080
  0
VERTEX
  8
0
  6
CONTINUOUS
 10
6.752680
 20
2.335080
  0
VERTEX
  8
0
  6
CONTINUOUS
 10
6.754880
 20
2.337280
  0
VERTEX
  8
0
  6
CONTINUOUS
 10
6.754880
 20
2.774640
  0
VERTEX
  8
0
  6
CONTINUOUS
 10
6.752680
 20
2.780800
  0
SEQEND
  8
0
  0
SOLID
  8
0
 62
    15
 10
2.751760
 20
2.662440
 11
3.384480
 21
3.025880
 12
2.764960
 22
2.614920
 13
3.397240
 23
2.977920
  0
POLYLINE
  8
0
  6
CONTINUOUS
 66
     1
 40
0.000000
 41
0.000000
  0
VERTEX
  8
0
  6
CONTINUOUS
 10
2.751760
 20
2.662440
  0
VERTEX
  8
0
  6
CONTINUOUS
 10
3.384480
 20
3.025880
  0
VERTEX
  8
0
  6
CONTINUOUS
 10
3.397240
 20
2.977920
  0
VERTEX
  8
0
  6
CONTINUOUS
 10
2.764960
 20
2.614920
  0
VERTEX
  8
0
  6
CONTINUOUS
 10
2.751760
 20
2.662440
  0
SEQEND
  8
0
  0
SOLID
  8
0
 62
    15
 10
2.645280
 20
1.724360
 11
3.277560
 21
2.087800
 12
2.643080
 22
0.893200
 13
3.275360
 23
1.256640
  0
POLYLINE
  8
0
  6
CONTINUOUS
 66
     1
 40
0.000000
 41
0.000000
  0
VERTEX
  8
0
  6
CONTINUOUS
 10
2.645280
 20
1.724360
  0
VERTEX
  8
0
  6
CONTINUOUS
 10
3.277560
 20
2.087800
  0
VERTEX
  8
0
  6
CONTINUOUS
 10
3.275360
 20
1.256640
  0
VERTEX
  8
0
  6
CONTINUOUS
 10
2.643080
 20
0.893200
  0
VERTEX
  8
0
  6
CONTINUOUS
 10
2.645280
 20
1.724360
  0
SEQEND
  8
0
  0
SOLID
  8
0
 62
    15
 10
2.643080
 20
1.724360
 11
3.275360
 21
2.087800
 12
2.645280
 22
1.724360
 13
3.277560
 23
2.087800
  0
POLYLINE
  8
0
  6
CONTINUOUS
 66
     1
 40
0.000000
 41
0.000000
  0
VERTEX
  8
0
  6
CONTINUOUS
 10
2.643080
 20
1.724360
  0
VERTEX
  8
0
  6
CONTINUOUS
 10
3.275360
 20
2.087800
  0
VERTEX
  8
0
  6
CONTINUOUS
 10
3.277560
 20
2.087800
  0
VERTEX
  8
0
  6
CONTINUOUS
 10
2.645280
 20
1.724360
  0
VERTEX
  8
0
  6
CONTINUOUS
 10
2.643080
 20
1.724360
  0
SEQEND
  8
0
  0
SOLID
  8
0
 62
    15
 10
2.895200
 20
1.726560
 11
3.527480
 21
2.090000
 12
2.893000
 22
1.724360
 13
3.525720
 23
2.087800
  0
POLYLINE
  8
0
  6
CONTINUOUS
 66
     1
 40
0.000000
 41
0.000000
  0
VERTEX
  8
0
  6
CONTINUOUS
 10
2.895200
 20
1.726560
  0
VERTEX
  8
0
  6
CONTINUOUS
 10
3.527480
 20
2.090000
  0
VERTEX
  8
0
  6
CONTINUOUS
 10
3.525720
 20
2.087800
  0
VERTEX
  8
0
  6
CONTINUOUS
 10
2.893000
 20
1.724360
  0
VERTEX
  8
0
  6
CONTINUOUS
 10
2.895200
 20
1.726560
  0
SEQEND
  8
0
  0
SOLID
  8
0
 62
    15
 10
2.141040
 20
2.170520
 11
2.773320
 21
2.533520
 12
2.163480
 22
2.181520
 13
2.796200
 23
2.544520
  0
POLYLINE
  8
0
  6
CONTINUOUS
 66
     1
 40
0.000000
 41
0.000000
  0
VERTEX
  8
0
  6
CONTINUOUS
 10
2.141040
 20
2.170520
  0
VERTEX
  8
0
  6
CONTINUOUS
 10
2.773320
 20
2.533520
  0
VERTEX
  8
0
  6
CONTINUOUS
 10
2.796200
 20
2.544520
  0
VERTEX
  8
0
  6
CONTINUOUS
 10
2.163480
 20
2.181520
  0
VERTEX
  8
0
  6
CONTINUOUS
 10
2.141040
 20
2.170520
  0
SEQEND
  8
0
  0
SOLID
  8
0
 62
    15
 10
2.353560
 20
2.748240
 11
2.985840
 21
3.111680
 12
2.390960
 22
2.760120
 13
3.023680
 23
3.123120
  0
POLYLINE
  8
0
  6
CONTINUOUS
 66
     1
 40
0.000000
 41
0.000000
  0
VERTEX
  8
0
  6
CONTINUOUS
 10
2.353560
 20
2.748240
  0
VERTEX
  8
0
  6
CONTINUOUS
 10
2.985840
 20
3.111680
  0
VERTEX
  8
0
  6
CONTINUOUS
 10
3.023680
 20
3.123120
  0
VERTEX
  8
0
  6
CONTINUOUS
 10
2.390960
 20
2.760120
  0
VERTEX
  8
0
  6
CONTINUOUS
 10
2.353560
 20
2.748240
  0
SEQEND
  8
0
  0
SOLID
  8
0
 62
    15
 10
2.390960
 20
2.863960
 11
3.023680
 21
3.227400
 12
2.643080
 22
2.863960
 13
3.275360
 23
3.227400
  0
POLYLINE
  8
0
  6
CONTINUOUS
 66
     1
 40
0.000000
 41
0.000000
  0
VERTEX
  8
0
  6
CONTINUOUS
 10
2.390960
 20
2.863960
  0
VERTEX
  8
0
  6
CONTINUOUS
 10
3.023680
 20
3.227400
  0
VERTEX
  8
0
  6
CONTINUOUS
 10
3.275360
 20
3.227400
  0
VERTEX
  8
0
  6
CONTINUOUS
 10
2.643080
 20
2.863960
  0
VERTEX
  8
0
  6
CONTINUOUS
 10
2.390960
 20
2.863960
  0
SEQEND
  8
0
  0
SOLID
  8
0
 62
    15
 10
2.643080
 20
2.863960
 11
3.275360
 21
3.227400
 12
2.643080
 22
2.760120
 13
3.275360
 23
3.123120
  0
POLYLINE
  8
0
  6
CONTINUOUS
 66
     1
 40
0.000000
 41
0.000000
  0
VERTEX
  8
0
  6
CONTINUOUS
 10
2.643080
 20
2.863960
  0
VERTEX
  8
0
  6
CONTINUOUS
 10
3.275360
 20
3.227400
  0
VERTEX
  8
0
  6
CONTINUOUS
 10
3.275360
 20
3.123120
  0
VERTEX
  8
0
  6
CONTINUOUS
 10
2.643080
 20
2.760120
  0
VERTEX
  8
0
  6
CONTINUOUS
 10
2.643080
 20
2.863960
  0
SEQEND
  8
0
  0
SOLID
  8
0
 62
    15
 10
2.643080
 20
2.760120
 11
3.275360
 21
3.123120
 12
2.680480
 22
2.748240
 13
3.313200
 23
3.111680
  0
POLYLINE
  8
0
  6
CONTINUOUS
 66
     1
 40
0.000000
 41
0.000000
  0
VERTEX
  8
0
  6
CONTINUOUS
 10
2.643080
 20
2.760120
  0
VERTEX
  8
0
  6
CONTINUOUS
 10
3.275360
 20
3.123120
  0
VERTEX
  8
0
  6
CONTINUOUS
 10
3.313200
 20
3.111680
  0
VERTEX
  8
0
  6
CONTINUOUS
 10
2.680480
 20
2.748240
  0
VERTEX
  8
0
  6
CONTINUOUS
 10
2.643080
 20
2.760120
  0
SEQEND
  8
0
  0
SOLID
  8
0
 62
    15
 10
2.680480
 20
2.748240
 11
3.313200
 21
3.111680
 12
2.710400
 22
2.728440
 13
3.343120
 23
3.091880
  0
POLYLINE
  8
0
  6
CONTINUOUS
 66
     1
 40
0.000000
 41
0.000000
  0
VERTEX
  8
0
  6
CONTINUOUS
 10
2.680480
 20
2.748240
  0
VERTEX
  8
0
  6
CONTINUOUS
 10
3.313200
 20
3.111680
  0
VERTEX
  8
0
  6
CONTINUOUS
 10
3.343120
 20
3.091880
  0
VERTEX
  8
0
  6
CONTINUOUS
 10
2.710400
 20
2.728440
  0
VERTEX
  8
0
  6
CONTINUOUS
 10
2.680480
 20
2.748240
  0
SEQEND
  8
0
  0
SOLID
  8
0
 62
    15
 10
2.710400
 20
2.728440
 11
3.343120
 21
3.091880
 12
2.734160
 22
2.700280
 13
3.366440
 23
3.063280
  0
POLYLINE
  8
0
  6
CONTINUOUS
 66
     1
 40
0.000000
 41
0.000000
  0
VERTEX
  8
0
  6
CONTINUOUS
 10
2.710400
 20
2.728440
  0
VERTEX
  8
0
  6
CONTINUOUS
 10
3.343120
 20
3.091880
  0
VERTEX
  8
0
  6
CONTINUOUS
 10
3.366440
 20
3.063280
  0
VERTEX
  8
0
  6
CONTINUOUS
 10
2.734160
 20
2.700280
  0
VERTEX
  8
0
  6
CONTINUOUS
 10
2.710400
 20
2.728440
  0
SEQEND
  8
0
  0
SOLID
  8
0
 62
    15
 10
2.734160
 20
2.700280
 11
3.366440
 21
3.063280
 12
2.751760
 22
2.662440
 13
3.384480
 23
3.025880
  0
POLYLINE
  8
0
  6
CONTINUOUS
 66
     1
 40
0.000000
 41
0.000000
  0
VERTEX
  8
0
  6
CONTINUOUS
 10
2.734160
 20
2.700280
  0
VERTEX
  8
0
  6
CONTINUOUS
 10
3.366440
 20
3.063280
  0
VERTEX
  8
0
  6
CONTINUOUS
 10
3.384480
 20
3.025880
  0
VERTEX
  8
0
  6
CONTINUOUS
 10
2.751760
 20
2.662440
  0
VERTEX
  8
0
  6
CONTINUOUS
 10
2.734160
 20
2.700280
  0
SEQEND
  8
0
  0
SOLID
  8
0
 62
    15
 10
2.895200
 20
2.163920
 11
3.527480
 21
2.527360
 12
2.895200
 22
1.726560
 13
3.527480
 23
2.090000
  0
POLYLINE
  8
0
  6
CONTINUOUS
 66
     1
 40
0.000000
 41
0.000000
  0
VERTEX
  8
0
  6
CONTINUOUS
 10
2.895200
 20
2.163920
  0
VERTEX
  8
0
  6
CONTINUOUS
 10
3.527480
 20
2.527360
  0
VERTEX
  8
0
  6
CONTINUOUS
 10
3.527480
 20
2.090000
  0
VERTEX
  8
0
  6
CONTINUOUS
 10
2.895200
 20
1.726560
  0
VERTEX
  8
0
  6
CONTINUOUS
 10
2.895200
 20
2.163920
  0
SEQEND
  8
0
  0
SOLID
  8
0
 62
    15
 10
2.764960
 20
2.614920
 11
3.397240
 21
2.977920
 12
2.773760
 22
2.556400
 13
3.406040
 23
2.919840
  0
POLYLINE
  8
0
  6
CONTINUOUS
 66
     1
 40
0.000000
 41
0.000000
  0
VERTEX
  8
0
  6
CONTINUOUS
 10
2.764960
 20
2.614920
  0
VERTEX
  8
0
  6
CONTINUOUS
 10
3.397240
 20
2.977920
  0
VERTEX
  8
0
  6
CONTINUOUS
 10
3.406040
 20
2.919840
  0
VERTEX
  8
0
  6
CONTINUOUS
 10
2.773760
 20
2.556400
  0
VERTEX
  8
0
  6
CONTINUOUS
 10
2.764960
 20
2.614920
  0
SEQEND
  8
0
  0
SOLID
  8
0
 62
    15
 10
2.773760
 20
2.556400
 11
3.406040
 21
2.919840
 12
2.779480
 22
2.487320
 13
3.411760
 23
2.850320
  0
POLYLINE
  8
0
  6
CONTINUOUS
 66
     1
 40
0.000000
 41
0.000000
  0
VERTEX
  8
0
  6
CONTINUOUS
 10
2.773760
 20
2.556400
  0
VERTEX
  8
0
  6
CONTINUOUS
 10
3.406040
 20
2.919840
  0
VERTEX
  8
0
  6
CONTINUOUS
 10
3.411760
 20
2.850320
  0
VERTEX
  8
0
  6
CONTINUOUS
 10
2.779480
 20
2.487320
  0
VERTEX
  8
0
  6
CONTINUOUS
 10
2.773760
 20
2.556400
  0
SEQEND
  8
0
  0
SOLID
  8
0
 62
    15
 10
2.779480
 20
2.487320
 11
3.411760
 21
2.850320
 12
2.782560
 22
2.405920
 13
3.415280
 23
2.768920
  0
POLYLINE
  8
0
  6
CONTINUOUS
 66
     1
 40
0.000000
 41
0.000000
  0
VERTEX
  8
0
  6
CONTINUOUS
 10
2.779480
 20
2.487320
  0
VERTEX
  8
0
  6
CONTINUOUS
 10
3.411760
 20
2.850320
  0
VERTEX
  8
0
  6
CONTINUOUS
 10
3.415280
 20
2.768920
  0
VERTEX
  8
0
  6
CONTINUOUS
 10
2.782560
 20
2.405920
  0
VERTEX
  8
0
  6
CONTINUOUS
 10
2.779480
 20
2.487320
  0
SEQEND
  8
0
  0
SOLID
  8
0
 62
    15
 10
2.782560
 20
2.405920
 11
3.415280
 21
2.768920
 12
2.785640
 22
2.369400
 13
3.417920
 23
2.732400
  0
POLYLINE
  8
0
  6
CONTINUOUS
 66
     1
 40
0.000000
 41
0.000000
  0
VERTEX
  8
0
  6
CONTINUOUS
 10
2.782560
 20
2.405920
  0
VERTEX
  8
0
  6
CONTINUOUS
 10
3.415280
 20
2.768920
  0
VERTEX
  8
0
  6
CONTINUOUS
 10
3.417920
 20
2.732400
  0
VERTEX
  8
0
  6
CONTINUOUS
 10
2.785640
 20
2.369400
  0
VERTEX
  8
0
  6
CONTINUOUS
 10
2.782560
 20
2.405920
  0
SEQEND
  8
0
  0
SOLID
  8
0
 62
    15
 10
2.785640
 20
2.369400
 11
3.417920
 21
2.732400
 12
2.791800
 22
2.331560
 13
3.424520
 23
2.695000
  0
POLYLINE
  8
0
  6
CONTINUOUS
 66
     1
 40
0.000000
 41
0.000000
  0
VERTEX
  8
0
  6
CONTINUOUS
 10
2.785640
 20
2.369400
  0
VERTEX
  8
0
  6
CONTINUOUS
 10
3.417920
 20
2.732400
  0
VERTEX
  8
0
  6
CONTINUOUS
 10
3.424520
 20
2.695000
  0
VERTEX
  8
0
  6
CONTINUOUS
 10
2.791800
 20
2.331560
  0
VERTEX
  8
0
  6
CONTINUOUS
 10
2.785640
 20
2.369400
  0
SEQEND
  8
0
  0
SOLID
  8
0
 62
    15
 10
2.791800
 20
2.331560
 11
3.424520
 21
2.695000
 12
2.801920
 22
2.294600
 13
3.434640
 23
2.657600
  0
POLYLINE
  8
0
  6
CONTINUOUS
 66
     1
 40
0.000000
 41
0.000000
  0
VERTEX
  8
0
  6
CONTINUOUS
 10
2.791800
 20
2.331560
  0
VERTEX
  8
0
  6
CONTINUOUS
 10
3.424520
 20
2.695000
  0
VERTEX
  8
0
  6
CONTINUOUS
 10
3.434640
 20
2.657600
  0
VERTEX
  8
0
  6
CONTINUOUS
 10
2.801920
 20
2.294600
  0
VERTEX
  8
0
  6
CONTINUOUS
 10
2.791800
 20
2.331560
  0
SEQEND
  8
0
  0
SOLID
  8
0
 62
    15
 10
2.801920
 20
2.294600
 11
3.434640
 21
2.657600
 12
2.815120
 22
2.258960
 13
3.447840
 23
2.622400
  0
POLYLINE
  8
0
  6
CONTINUOUS
 66
     1
 40
0.000000
 41
0.000000
  0
VERTEX
  8
0
  6
CONTINUOUS
 10
2.801920
 20
2.294600
  0
VERTEX
  8
0
  6
CONTINUOUS
 10
3.434640
 20
2.657600
  0
VERTEX
  8
0
  6
CONTINUOUS
 10
3.447840
 20
2.622400
  0
VERTEX
  8
0
  6
CONTINUOUS
 10
2.815120
 20
2.258960
  0
VERTEX
  8
0
  6
CONTINUOUS
 10
2.801920
 20
2.294600
  0
SEQEND
  8
0
  0
SOLID
  8
0
 62
    15
 10
2.815120
 20
2.258960
 11
3.447840
 21
2.622400
 12
2.831400
 22
2.227280
 13
3.463680
 23
2.590720
  0
POLYLINE
  8
0
  6
CONTINUOUS
 66
     1
 40
0.000000
 41
0.000000
  0
VERTEX
  8
0
  6
CONTINUOUS
 10
2.815120
 20
2.258960
  0
VERTEX
  8
0
  6
CONTINUOUS
 10
3.447840
 20
2.622400
  0
VERTEX
  8
0
  6
CONTINUOUS
 10
3.463680
 20
2.590720
  0
VERTEX
  8
0
  6
CONTINUOUS
 10
2.831400
 20
2.227280
  0
VERTEX
  8
0
  6
CONTINUOUS
 10
2.815120
 20
2.258960
  0
SEQEND
  8
0
  0
SOLID
  8
0
 62
    15
 10
2.831400
 20
2.227280
 11
3.463680
 21
2.590720
 12
2.849880
 22
2.200880
 13
3.482160
 23
2.564320
  0
POLYLINE
  8
0
  6
CONTINUOUS
 66
     1
 40
0.000000
 41
0.000000
  0
VERTEX
  8
0
  6
CONTINUOUS
 10
2.831400
 20
2.227280
  0
VERTEX
  8
0
  6
CONTINUOUS
 10
3.463680
 20
2.590720
  0
VERTEX
  8
0
  6
CONTINUOUS
 10
3.482160
 20
2.564320
  0
VERTEX
  8
0
  6
CONTINUOUS
 10
2.849880
 20
2.200880
  0
VERTEX
  8
0
  6
CONTINUOUS
 10
2.831400
 20
2.227280
  0
SEQEND
  8
0
  0
SOLID
  8
0
 62
    15
 10
2.849880
 20
2.200880
 11
3.482160
 21
2.564320
 12
2.870560
 22
2.181520
 13
3.502840
 23
2.544520
  0
POLYLINE
  8
0
  6
CONTINUOUS
 66
     1
 40
0.000000
 41
0.000000
  0
VERTEX
  8
0
  6
CONTINUOUS
 10
2.849880
 20
2.200880
  0
VERTEX
  8
0
  6
CONTINUOUS
 10
3.482160
 20
2.564320
  0
VERTEX
  8
0
  6
CONTINUOUS
 10
3.502840
 20
2.544520
  0
VERTEX
  8
0
  6
CONTINUOUS
 10
2.870560
 20
2.181520
  0
VERTEX
  8
0
  6
CONTINUOUS
 10
2.849880
 20
2.200880
  0
SEQEND
  8
0
  0
SOLID
  8
0
 62
    15
 10
2.870560
 20
2.181520
 11
3.502840
 21
2.544520
 12
2.893000
 22
2.170520
 13
3.525720
 23
2.533520
  0
POLYLINE
  8
0
  6
CONTINUOUS
 66
     1
 40
0.000000
 41
0.000000
  0
VERTEX
  8
0
  6
CONTINUOUS
 10
2.870560
 20
2.181520
  0
VERTEX
  8
0
  6
CONTINUOUS
 10
3.502840
 20
2.544520
  0
VERTEX
  8
0
  6
CONTINUOUS
 10
3.525720
 20
2.533520
  0
VERTEX
  8
0
  6
CONTINUOUS
 10
2.893000
 20
2.170520
  0
VERTEX
  8
0
  6
CONTINUOUS
 10
2.870560
 20
2.181520
  0
SEQEND
  8
0
  0
SOLID
  8
0
 62
    15
 10
2.893000
 20
2.170520
 11
3.525720
 21
2.533520
 12
2.895200
 22
2.163920
 13
3.527480
 23
2.527360
  0
POLYLINE
  8
0
  6
CONTINUOUS
 66
     1
 40
0.000000
 41
0.000000
  0
VERTEX
  8
0
  6
CONTINUOUS
 10
2.893000
 20
2.170520
  0
VERTEX
  8
0
  6
CONTINUOUS
 10
3.525720
 20
2.533520
  0
VERTEX
  8
0
  6
CONTINUOUS
 10
3.527480
 20
2.527360
  0
VERTEX
  8
0
  6
CONTINUOUS
 10
2.895200
 20
2.163920
  0
VERTEX
  8
0
  6
CONTINUOUS
 10
2.893000
 20
2.170520
  0
SEQEND
  8
0
  0
POLYLINE
  8
0
  6
CONTINUOUS
 66
     1
 40
0.000000
 41
0.000000
  0
VERTEX
  8
0
  6
CONTINUOUS
 10
2.895200
 20
2.163920
  0
VERTEX
  8
0
  6
CONTINUOUS
 10
2.895200
 20
1.726560
  0
VERTEX
  8
0
  6
CONTINUOUS
 10
2.893000
 20
1.724360
  0
VERTEX
  8
0
  6
CONTINUOUS
 10
2.643080
 20
1.724360
  0
VERTEX
  8
0
  6
CONTINUOUS
 10
2.645280
 20
1.724360
  0
VERTEX
  8
0
  6
CONTINUOUS
 10
2.643080
 20
0.893200
  0
VERTEX
  8
0
  6
CONTINUOUS
 10
2.390960
 20
0.893200
  0
VERTEX
  8
0
  6
CONTINUOUS
 10
2.390960
 20
1.724360
  0
VERTEX
  8
0
  6
CONTINUOUS
 10
2.141040
 20
1.724360
  0
VERTEX
  8
0
  6
CONTINUOUS
 10
2.138840
 20
1.726560
  0
VERTEX
  8
0
  6
CONTINUOUS
 10
2.138840
 20
2.163920
  0
VERTEX
  8
0
  6
CONTINUOUS
 10
2.141040
 20
2.170520
  0
VERTEX
  8
0
  6
CONTINUOUS
 10
2.163480
 20
2.181520
  0
VERTEX
  8
0
  6
CONTINUOUS
 10
2.184160
 20
2.200880
  0
VERTEX
  8
0
  6
CONTINUOUS
 10
2.202640
 20
2.227280
  0
VERTEX
  8
0
  6
CONTINUOUS
 10
2.218920
 20
2.258960
  0
VERTEX
  8
0
  6
CONTINUOUS
 10
2.232120
 20
2.294600
  0
VERTEX
  8
0
  6
CONTINUOUS
 10
2.242240
 20
2.331560
  0
VERTEX
  8
0
  6
CONTINUOUS
 10
2.248400
 20
2.369400
  0
VERTEX
  8
0
  6
CONTINUOUS
 10
2.251480
 20
2.405920
  0
VERTEX
  8
0
  6
CONTINUOUS
 10
2.254560
 20
2.487320
  0
VERTEX
  8
0
  6
CONTINUOUS
 10
2.260280
 20
2.556400
  0
VERTEX
  8
0
  6
CONTINUOUS
 10
2.269080
 20
2.614920
  0
VERTEX
  8
0
  6
CONTINUOUS
 10
2.282280
 20
2.662440
  0
VERTEX
  8
0
  6
CONTINUOUS
 10
2.299880
 20
2.700280
  0
VERTEX
  8
0
  6
CONTINUOUS
 10
2.323640
 20
2.728440
  0
VERTEX
  8
0
  6
CONTINUOUS
 10
2.353560
 20
2.748240
  0
VERTEX
  8
0
  6
CONTINUOUS
 10
2.390960
 20
2.760120
  0
VERTEX
  8
0
  6
CONTINUOUS
 10
2.390960
 20
2.863960
  0
VERTEX
  8
0
  6
CONTINUOUS
 10
2.643080
 20
2.863960
  0
VERTEX
  8
0
  6
CONTINUOUS
 10
2.643080
 20
2.760120
  0
VERTEX
  8
0
  6
CONTINUOUS
 10
2.680480
 20
2.748240
  0
VERTEX
  8
0
  6
CONTINUOUS
 10
2.710400
 20
2.728440
  0
VERTEX
  8
0
  6
CONTINUOUS
 10
2.734160
 20
2.700280
  0
VERTEX
  8
0
  6
CONTINUOUS
 10
2.751760
 20
2.662440
  0
VERTEX
  8
0
  6
CONTINUOUS
 10
2.764960
 20
2.614920
  0
VERTEX
  8
0
  6
CONTINUOUS
 10
2.773760
 20
2.556400
  0
VERTEX
  8
0
  6
CONTINUOUS
 10
2.779480
 20
2.487320
  0
VERTEX
  8
0
  6
CONTINUOUS
 10
2.782560
 20
2.405920
  0
VERTEX
  8
0
  6
CONTINUOUS
 10
2.785640
 20
2.369400
  0
VERTEX
  8
0
  6
CONTINUOUS
 10
2.791800
 20
2.331560
  0
VERTEX
  8
0
  6
CONTINUOUS
 10
2.801920
 20
2.294600
  0
VERTEX
  8
0
  6
CONTINUOUS
 10
2.815120
 20
2.258960
  0
VERTEX
  8
0
  6
CONTINUOUS
 10
2.831400
 20
2.227280
  0
VERTEX
  8
0
  6
CONTINUOUS
 10
2.849880
 20
2.200880
  0
VERTEX
  8
0
  6
CONTINUOUS
 10
2.870560
 20
2.181520
  0
VERTEX
  8
0
  6
CONTINUOUS
 10
2.893000
 20
2.170520
  0
VERTEX
  8
0
  6
CONTINUOUS
 10
2.895200
 20
2.163920
  0
SEQEND
  8
0
  0
SOLID
  8
0
 62
    15
 10
3.444760
 20
1.923680
 11
3.796320
 21
2.131360
 12
3.694680
 22
1.923680
 13
4.046240
 23
2.131360
  0
POLYLINE
  8
0
  6
CONTINUOUS
 66
     1
 40
0.000000
 41
0.000000
  0
VERTEX
  8
0
  6
CONTINUOUS
 10
3.444760
 20
1.923680
  0
VERTEX
  8
0
  6
CONTINUOUS
 10
3.796320
 20
2.131360
  0
VERTEX
  8
0
  6
CONTINUOUS
 10
4.046240
 20
2.131360
  0
VERTEX
  8
0
  6
CONTINUOUS
 10
3.694680
 20
1.923680
  0
VERTEX
  8
0
  6
CONTINUOUS
 10
3.444760
 20
1.923680
  0
SEQEND
  8
0
  0
SOLID
  8
0
 62
    15
 10
3.444760
 20
3.063280
 11
3.795880
 21
3.270960
 12
4.689080
 22
3.063280
 13
5.040640
 23
3.270960
  0
POLYLINE
  8
0
  6
CONTINUOUS
 66
     1
 40
0.000000
 41
0.000000
  0
VERTEX
  8
0
  6
CONTINUOUS
 10
3.444760
 20
3.063280
  0
VERTEX
  8
0
  6
CONTINUOUS
 10
3.795880
 20
3.270960
  0
VERTEX
  8
0
  6
CONTINUOUS
 10
5.040640
 20
3.270960
  0
VERTEX
  8
0
  6
CONTINUOUS
 10
4.689080
 20
3.063280
  0
VERTEX
  8
0
  6
CONTINUOUS
 10
3.444760
 20
3.063280
  0
SEQEND
  8
0
  0
SOLID
  8
0
 62
    15
 10
4.689080
 20
3.063280
 11
5.040640
 21
3.270960
 12
4.689080
 22
1.095160
 13
5.040640
 23
1.302840
  0
POLYLINE
  8
0
  6
CONTINUOUS
 66
     1
 40
0.000000
 41
0.000000
  0
VERTEX
  8
0
  6
CONTINUOUS
 10
4.689080
 20
3.063280
  0
VERTEX
  8
0
  6
CONTINUOUS
 10
5.040640
 20
3.270960
  0
VERTEX
  8
0
  6
CONTINUOUS
 10
5.040640
 20
1.302840
  0
VERTEX
  8
0
  6
CONTINUOUS
 10
4.689080
 20
1.095160
  0
VERTEX
  8
0
  6
CONTINUOUS
 10
4.689080
 20
3.063280
  0
SEQEND
  8
0
  0
SOLID
  8
0
 62
    15
 10
3.440800
 20
1.095160
 11
3.791920
 21
1.302840
 12
3.440800
 22
1.092520
 13
3.791920
 23
1.300200
  0
POLYLINE
  8
0
  6
CONTINUOUS
 66
     1
 40
0.000000
 41
0.000000
  0
VERTEX
  8
0
  6
CONTINUOUS
 10
3.440800
 20
1.095160
  0
VERTEX
  8
0
  6
CONTINUOUS
 10
3.791920
 20
1.302840
  0
VERTEX
  8
0
  6
CONTINUOUS
 10
3.791920
 20
1.300200
  0
VERTEX
  8
0
  6
CONTINUOUS
 10
3.440800
 20
1.092520
  0
VERTEX
  8
0
  6
CONTINUOUS
 10
3.440800
 20
1.095160
  0
SEQEND
  8
0
  0
SOLID
  8
0
 62
    15
 10
3.440800
 20
1.092520
 11
3.791920
 21
1.300200
 12
3.444760
 22
1.092520
 13
3.796320
 23
1.300200
  0
POLYLINE
  8
0
  6
CONTINUOUS
 66
     1
 40
0.000000
 41
0.000000
  0
VERTEX
  8
0
  6
CONTINUOUS
 10
3.440800
 20
1.092520
  0
VERTEX
  8
0
  6
CONTINUOUS
 10
3.791920
 20
1.300200
  0
VERTEX
  8
0
  6
CONTINUOUS
 10
3.796320
 20
1.300200
  0
VERTEX
  8
0
  6
CONTINUOUS
 10
3.444760
 20
1.092520
  0
VERTEX
  8
0
  6
CONTINUOUS
 10
3.440800
 20
1.092520
  0
SEQEND
  8
0
  0
POLYLINE
  8
0
  6
CONTINUOUS
 66
     1
 40
0.000000
 41
0.000000
  0
VERTEX
  8
0
  6
CONTINUOUS
 10
3.440800
 20
1.092520
  0
VERTEX
  8
0
  6
CONTINUOUS
 10
3.444760
 20
1.092520
  0
VERTEX
  8
0
  6
CONTINUOUS
 10
3.446960
 20
1.923680
  0
VERTEX
  8
0
  6
CONTINUOUS
 10
3.444760
 20
1.923680
  0
VERTEX
  8
0
  6
CONTINUOUS
 10
3.694680
 20
1.923680
  0
VERTEX
  8
0
  6
CONTINUOUS
 10
3.696880
 20
1.925880
  0
VERTEX
  8
0
  6
CONTINUOUS
 10
3.696880
 20
2.363240
  0
VERTEX
  8
0
  6
CONTINUOUS
 10
3.694680
 20
2.369840
  0
VERTEX
  8
0
  6
CONTINUOUS
 10
3.672240
 20
2.380840
  0
VERTEX
  8
0
  6
CONTINUOUS
 10
3.651560
 20
2.400200
  0
VERTEX
  8
0
  6
CONTINUOUS
 10
3.633080
 20
2.426600
  0
VERTEX
  8
0
  6
CONTINUOUS
 10
3.616800
 20
2.458280
  0
VERTEX
  8
0
  6
CONTINUOUS
 10
3.593920
 20
2.531320
  0
VERTEX
  8
0
  6
CONTINUOUS
 10
3.584240
 20
2.605240
  0
VERTEX
  8
0
  6
CONTINUOUS
 10
3.581160
 20
2.686640
  0
VERTEX
  8
0
  6
CONTINUOUS
 10
3.575440
 20
2.756160
  0
VERTEX
  8
0
  6
CONTINUOUS
 10
3.566640
 20
2.814240
  0
VERTEX
  8
0
  6
CONTINUOUS
 10
3.553880
 20
2.861760
  0
VERTEX
  8
0
  6
CONTINUOUS
 10
3.535840
 20
2.899600
  0
VERTEX
  8
0
  6
CONTINUOUS
 10
3.512520
 20
2.928200
  0
VERTEX
  8
0
  6
CONTINUOUS
 10
3.482160
 20
2.947560
  0
VERTEX
  8
0
  6
CONTINUOUS
 10
3.444760
 20
2.959440
  0
VERTEX
  8
0
  6
CONTINUOUS
 10
3.444760
 20
3.063280
  0
VERTEX
  8
0
  6
CONTINUOUS
 10
4.689080
 20
3.063280
  0
VERTEX
  8
0
  6
CONTINUOUS
 10
4.689080
 20
1.095160
  0
VERTEX
  8
0
  6
CONTINUOUS
 10
3.440800
 20
1.095160
  0
VERTEX
  8
0
  6
CONTINUOUS
 10
3.440800
 20
1.092520
  0
SEQEND
  8
0
  0
TEXT
  8
0
 10
3.083960
 20
0.644600
 40
0.138171
  1
BA  551A & B
 41
1.000000
  7
SN0
 71
     0
 72
     5
 11
4.098591
 21
0.644600
  0
TEXT
  8
0
 10
3.516040
 20
0.452760
 40
0.138171
  1
2"
 41
1.000000
  7
SN0
 71
     0
 72
     5
 11
3.667460
 21
0.452760
  0
ENDSEC
  0
EOF
