  0
SECTION
  2
HEADER
  9
$ACADVER
  1
AC1006
  9
$EXTMIN
 10
2.539240
 20
0.443960
  9
$EXTMAX
 10
7.112600
 20
2.043800
  9
$LTSCALE
 40
0.044000
  9
$PDMODE
 70
    35
  9
$PDSIZE
 40
0.035200
  0
ENDSEC
  0
SECTION
  2
TABLES
  0
TABLE
  2
LTYPE
 70
     9
  0
LTYPE
  2
CONTINUOUS
 70
    64
  3
Solid line
 72
    65
 73
     0
 40
0.000000
  0
LTYPE
  2
DASHED
 70
    64
  3
__ __ __ __ __ __ __ __ __ __ __ __ __ __ __
 72
    65
 73
     2
 40
0.000330
 49
0.000220
 49
-0.000110
  0
LTYPE
  2
HIDDEN
 70
    64
  3
 _ _ _ _ _ _ _ _ _ _ _ _ _ _ _ _ _ _ _ _ _ _
 72
    65
 73
     2
 40
0.000165
 49
0.000110
 49
-0.000055
  0
LTYPE
  2
CENTER
 70
    64
  3
____ _ ____ _ ____ _ ____ _ ____ _ ____ _ ____
 72
    65
 73
     4
 40
0.000880
 49
0.000550
 49
-0.000110
 49
0.000110
 49
-0.000110
  0
LTYPE
  2
PHANTOM
 70
    64
  3
_____ _ _ _____ _ _ _____ _ _ _____ _ _ ____
 72
    65
 73
     6
 40
0.001100
 49
0.000550
 49
-0.000110
 49
0.000110
 49
-0.000110
 49
0.000110
 49
-0.000110
  0
LTYPE
  2
DOT
 70
    64
  3
...............................................
 72
    65
 73
     2
 40
0.000110
 49
0.000000
 49
-0.000110
  0
LTYPE
  2
DASHDOT
 70
    64
  3
__ . __ . __ . __ . __ . __ . __ . __ . __ . __
 72
    65
 73
     4
 40
0.000440
 49
0.000220
 49
-0.000110
 49
0.000000
 49
-0.000110
  0
LTYPE
  2
BORDER
 70
    64
  3
__ __ . __ __ . __ __ . __ __ . __ __ . __ __
 72
    65
 73
     6
 40
0.000770
 49
0.000220
 49
-0.000110
 49
0.000220
 49
-0.000110
 49
0.000000
 49
-0.000110
  0
LTYPE
  2
DIVIDE
 70
    64
  3
__ . . __ . . __ . . __ . . __ . . __ . . __
 72
    65
 73
     6
 40
0.000550
 49
0.000220
 49
-0.000110
 49
0.000000
 49
-0.000110
 49
0.000000
 49
-0.000110
  0
LTYPE
  2
DOTDOT
 70
    64
  3
 . .  . .  . .  . .  . .  . . 
 72
    65
 73
     5
 40
0.000242
 49
-0.000110
 49
0.000000
 49
-0.000110
 49
0.000000
 49
-0.000110
  0
ENDTAB
  0
TABLE
  2
STYLE
 70
     2
  0
STYLE
 70
     0
  2
SN0
 40
0.000000
 41
0.000440
 50
0.000000
 71
     0
 42
0.000000
  3
ROMAND
  0
STYLE
 70
    68
  2
SV0
 40
0.000000
 41
0.000440
 50
0.000000
 71
     0
 42
0.000000
  3
ROMAND
  0
ENDTAB
  0
TABLE
  2
LAYER
 70
     3
  0
LAYER
  2
FOREGROUND
 70
    64
 62
     7
  6
CONTINUOUS
  0
LAYER
  2
BACKGROUND
 70
    65
 62
    -7
  6
CONTINUOUS
  0
LAYER
  2
0
 70
    64
 62
     7
  6
CONTINUOUS
  0
ENDTAB
  0
ENDSEC
  0
SECTION
  2
ENTITIES
  0
POLYLINE
  8
FOREGROUND
  6
CONTINUOUS
 66
     1
 40
0.000000
 41
0.000000
  0
VERTEX
  8
FOREGROUND
  6
CONTINUOUS
 10
0.000000
 20
2.487760
  0
VERTEX
  8
FOREGROUND
  6
CONTINUOUS
 10
8.499920
 20
2.487760
  0
VERTEX
  8
FOREGROUND
  6
CONTINUOUS
 10
8.499920
 20
-8.512240
  0
VERTEX
  8
FOREGROUND
  6
CONTINUOUS
 10
0.000000
 20
-8.512240
  0
VERTEX
  8
FOREGROUND
  6
CONTINUOUS
 10
0.000000
 20
2.487760
  0
SEQEND
  8
0
  0
POLYLINE
  8
FOREGROUND
  6
CONTINUOUS
 66
     1
 40
0.000000
 41
0.000000
  0
VERTEX
  8
FOREGROUND
  6
CONTINUOUS
 10
0.000000
 20
2.487760
  0
VERTEX
  8
FOREGROUND
  6
CONTINUOUS
 10
8.499920
 20
2.487760
  0
VERTEX
  8
FOREGROUND
  6
CONTINUOUS
 10
8.499920
 20
-8.512240
  0
VERTEX
  8
FOREGROUND
  6
CONTINUOUS
 10
0.000000
 20
-8.512240
  0
VERTEX
  8
FOREGROUND
  6
CONTINUOUS
 10
0.000000
 20
2.487760
  0
SEQEND
  8
0
  0
POLYLINE
  8
0
  6
CONTINUOUS
 66
     1
 40
0.014080
 41
0.014080
  0
VERTEX
  8
0
  6
CONTINUOUS
 10
6.780400
 20
2.034120
  0
VERTEX
  8
0
  6
CONTINUOUS
 10
5.478440
 20
2.034120
  0
VERTEX
  8
0
  6
CONTINUOUS
 10
5.478440
 20
1.278200
  0
VERTEX
  8
0
  6
CONTINUOUS
 10
6.790960
 20
1.278200
  0
VERTEX
  8
0
  6
CONTINUOUS
 10
6.790960
 20
1.411520
  0
VERTEX
  8
0
  6
CONTINUOUS
 10
6.824840
 20
1.413280
  0
VERTEX
  8
0
  6
CONTINUOUS
 10
6.855640
 20
1.418120
  0
VERTEX
  8
0
  6
CONTINUOUS
 10
6.885560
 20
1.425600
  0
VERTEX
  8
0
  6
CONTINUOUS
 10
6.914160
 20
1.436160
  0
VERTEX
  8
0
  6
CONTINUOUS
 10
6.954200
 20
1.457280
  0
VERTEX
  8
0
  6
CONTINUOUS
 10
6.991160
 20
1.483240
  0
VERTEX
  8
0
  6
CONTINUOUS
 10
7.023720
 20
1.514480
  0
VERTEX
  8
0
  6
CONTINUOUS
 10
7.051880
 20
1.550120
  0
VERTEX
  8
0
  6
CONTINUOUS
 10
7.074320
 20
1.589280
  0
VERTEX
  8
0
  6
CONTINUOUS
 10
7.086200
 20
1.617440
  0
VERTEX
  8
0
  6
CONTINUOUS
 10
7.095440
 20
1.646480
  0
VERTEX
  8
0
  6
CONTINUOUS
 10
7.102040
 20
1.676840
  0
VERTEX
  8
0
  6
CONTINUOUS
 10
7.105120
 20
1.708080
  0
VERTEX
  8
0
  6
CONTINUOUS
 10
7.105120
 20
1.739760
  0
VERTEX
  8
0
  6
CONTINUOUS
 10
7.102040
 20
1.771000
  0
VERTEX
  8
0
  6
CONTINUOUS
 10
7.091480
 20
1.816320
  0
VERTEX
  8
0
  6
CONTINUOUS
 10
7.080920
 20
1.844920
  0
VERTEX
  8
0
  6
CONTINUOUS
 10
7.059800
 20
1.884960
  0
VERTEX
  8
0
  6
CONTINUOUS
 10
7.033840
 20
1.921920
  0
VERTEX
  8
0
  6
CONTINUOUS
 10
7.002600
 20
1.954480
  0
VERTEX
  8
0
  6
CONTINUOUS
 10
6.966960
 20
1.982640
  0
VERTEX
  8
0
  6
CONTINUOUS
 10
6.927800
 20
2.005080
  0
VERTEX
  8
0
  6
CONTINUOUS
 10
6.899640
 20
2.016960
  0
VERTEX
  8
0
  6
CONTINUOUS
 10
6.870600
 20
2.026200
  0
VERTEX
  8
0
  6
CONTINUOUS
 10
6.840240
 20
2.032800
  0
VERTEX
  8
0
  6
CONTINUOUS
 10
6.809000
 20
2.035880
  0
VERTEX
  8
0
  6
CONTINUOUS
 10
6.793160
 20
2.036320
  0
VERTEX
  8
0
  6
CONTINUOUS
 10
6.780400
 20
2.034120
  0
SEQEND
  8
0
  0
SOLID
  8
0
 62
    15
 10
4.160640
 20
1.405360
 11
4.810960
 21
1.783320
 12
4.167240
 22
1.342880
 13
4.817560
 23
1.720840
  0
POLYLINE
  8
0
  6
CONTINUOUS
 66
     1
 40
0.000000
 41
0.000000
  0
VERTEX
  8
0
  6
CONTINUOUS
 10
4.160640
 20
1.405360
  0
VERTEX
  8
0
  6
CONTINUOUS
 10
4.810960
 20
1.783320
  0
VERTEX
  8
0
  6
CONTINUOUS
 10
4.817560
 20
1.720840
  0
VERTEX
  8
0
  6
CONTINUOUS
 10
4.167240
 20
1.342880
  0
VERTEX
  8
0
  6
CONTINUOUS
 10
4.160640
 20
1.405360
  0
SEQEND
  8
0
  0
SOLID
  8
0
 62
    15
 10
3.854400
 20
1.655280
 11
4.505160
 21
2.033240
 12
3.916880
 22
1.648680
 13
4.567640
 23
2.026640
  0
POLYLINE
  8
0
  6
CONTINUOUS
 66
     1
 40
0.000000
 41
0.000000
  0
VERTEX
  8
0
  6
CONTINUOUS
 10
3.854400
 20
1.655280
  0
VERTEX
  8
0
  6
CONTINUOUS
 10
4.505160
 20
2.033240
  0
VERTEX
  8
0
  6
CONTINUOUS
 10
4.567640
 20
2.026640
  0
VERTEX
  8
0
  6
CONTINUOUS
 10
3.916880
 20
1.648680
  0
VERTEX
  8
0
  6
CONTINUOUS
 10
3.854400
 20
1.655280
  0
SEQEND
  8
0
  0
SOLID
  8
0
 62
    15
 10
3.916880
 20
1.648680
 11
4.567640
 21
2.026640
 12
3.975400
 22
1.630200
 13
4.625720
 23
2.008160
  0
POLYLINE
  8
0
  6
CONTINUOUS
 66
     1
 40
0.000000
 41
0.000000
  0
VERTEX
  8
0
  6
CONTINUOUS
 10
3.916880
 20
1.648680
  0
VERTEX
  8
0
  6
CONTINUOUS
 10
4.567640
 20
2.026640
  0
VERTEX
  8
0
  6
CONTINUOUS
 10
4.625720
 20
2.008160
  0
VERTEX
  8
0
  6
CONTINUOUS
 10
3.975400
 20
1.630200
  0
VERTEX
  8
0
  6
CONTINUOUS
 10
3.916880
 20
1.648680
  0
SEQEND
  8
0
  0
SOLID
  8
0
 62
    15
 10
3.975400
 20
1.630200
 11
4.625720
 21
2.008160
 12
4.028640
 22
1.601160
 13
4.678960
 23
1.979120
  0
POLYLINE
  8
0
  6
CONTINUOUS
 66
     1
 40
0.000000
 41
0.000000
  0
VERTEX
  8
0
  6
CONTINUOUS
 10
3.975400
 20
1.630200
  0
VERTEX
  8
0
  6
CONTINUOUS
 10
4.625720
 20
2.008160
  0
VERTEX
  8
0
  6
CONTINUOUS
 10
4.678960
 20
1.979120
  0
VERTEX
  8
0
  6
CONTINUOUS
 10
4.028640
 20
1.601160
  0
VERTEX
  8
0
  6
CONTINUOUS
 10
3.975400
 20
1.630200
  0
SEQEND
  8
0
  0
SOLID
  8
0
 62
    15
 10
4.028640
 20
1.601160
 11
4.678960
 21
1.979120
 12
4.074840
 22
1.562880
 13
4.725160
 23
1.940840
  0
POLYLINE
  8
0
  6
CONTINUOUS
 66
     1
 40
0.000000
 41
0.000000
  0
VERTEX
  8
0
  6
CONTINUOUS
 10
4.028640
 20
1.601160
  0
VERTEX
  8
0
  6
CONTINUOUS
 10
4.678960
 20
1.979120
  0
VERTEX
  8
0
  6
CONTINUOUS
 10
4.725160
 20
1.940840
  0
VERTEX
  8
0
  6
CONTINUOUS
 10
4.074840
 20
1.562880
  0
VERTEX
  8
0
  6
CONTINUOUS
 10
4.028640
 20
1.601160
  0
SEQEND
  8
0
  0
SOLID
  8
0
 62
    15
 10
4.074840
 20
1.562880
 11
4.725160
 21
1.940840
 12
4.113120
 22
1.516680
 13
4.763440
 23
1.894640
  0
POLYLINE
  8
0
  6
CONTINUOUS
 66
     1
 40
0.000000
 41
0.000000
  0
VERTEX
  8
0
  6
CONTINUOUS
 10
4.074840
 20
1.562880
  0
VERTEX
  8
0
  6
CONTINUOUS
 10
4.725160
 20
1.940840
  0
VERTEX
  8
0
  6
CONTINUOUS
 10
4.763440
 20
1.894640
  0
VERTEX
  8
0
  6
CONTINUOUS
 10
4.113120
 20
1.516680
  0
VERTEX
  8
0
  6
CONTINUOUS
 10
4.074840
 20
1.562880
  0
SEQEND
  8
0
  0
SOLID
  8
0
 62
    15
 10
4.113120
 20
1.516680
 11
4.763440
 21
1.894640
 12
4.142160
 22
1.463440
 13
4.792480
 23
1.841400
  0
POLYLINE
  8
0
  6
CONTINUOUS
 66
     1
 40
0.000000
 41
0.000000
  0
VERTEX
  8
0
  6
CONTINUOUS
 10
4.113120
 20
1.516680
  0
VERTEX
  8
0
  6
CONTINUOUS
 10
4.763440
 20
1.894640
  0
VERTEX
  8
0
  6
CONTINUOUS
 10
4.792480
 20
1.841400
  0
VERTEX
  8
0
  6
CONTINUOUS
 10
4.142160
 20
1.463440
  0
VERTEX
  8
0
  6
CONTINUOUS
 10
4.113120
 20
1.516680
  0
SEQEND
  8
0
  0
SOLID
  8
0
 62
    15
 10
4.142160
 20
1.463440
 11
4.792480
 21
1.841400
 12
4.160640
 22
1.405360
 13
4.810960
 23
1.783320
  0
POLYLINE
  8
0
  6
CONTINUOUS
 66
     1
 40
0.000000
 41
0.000000
  0
VERTEX
  8
0
  6
CONTINUOUS
 10
4.142160
 20
1.463440
  0
VERTEX
  8
0
  6
CONTINUOUS
 10
4.792480
 20
1.841400
  0
VERTEX
  8
0
  6
CONTINUOUS
 10
4.810960
 20
1.783320
  0
VERTEX
  8
0
  6
CONTINUOUS
 10
4.160640
 20
1.405360
  0
VERTEX
  8
0
  6
CONTINUOUS
 10
4.142160
 20
1.463440
  0
SEQEND
  8
0
  0
SOLID
  8
0
 62
    15
 10
3.848240
 20
1.653960
 11
4.498560
 21
2.031920
 12
3.854400
 22
1.655280
 13
4.505160
 23
2.033240
  0
POLYLINE
  8
0
  6
CONTINUOUS
 66
     1
 40
0.000000
 41
0.000000
  0
VERTEX
  8
0
  6
CONTINUOUS
 10
3.848240
 20
1.653960
  0
VERTEX
  8
0
  6
CONTINUOUS
 10
4.498560
 20
2.031920
  0
VERTEX
  8
0
  6
CONTINUOUS
 10
4.505160
 20
2.033240
  0
VERTEX
  8
0
  6
CONTINUOUS
 10
3.854400
 20
1.655280
  0
VERTEX
  8
0
  6
CONTINUOUS
 10
3.848240
 20
1.653960
  0
SEQEND
  8
0
  0
SOLID
  8
0
 62
    15
 10
4.167240
 20
1.342880
 11
4.817560
 21
1.720840
 12
4.160640
 22
1.280400
 13
4.810960
 23
1.658360
  0
POLYLINE
  8
0
  6
CONTINUOUS
 66
     1
 40
0.000000
 41
0.000000
  0
VERTEX
  8
0
  6
CONTINUOUS
 10
4.167240
 20
1.342880
  0
VERTEX
  8
0
  6
CONTINUOUS
 10
4.817560
 20
1.720840
  0
VERTEX
  8
0
  6
CONTINUOUS
 10
4.810960
 20
1.658360
  0
VERTEX
  8
0
  6
CONTINUOUS
 10
4.160640
 20
1.280400
  0
VERTEX
  8
0
  6
CONTINUOUS
 10
4.167240
 20
1.342880
  0
SEQEND
  8
0
  0
SOLID
  8
0
 62
    15
 10
4.160640
 20
1.280400
 11
4.810960
 21
1.658360
 12
4.142160
 22
1.221880
 13
4.792480
 23
1.599840
  0
POLYLINE
  8
0
  6
CONTINUOUS
 66
     1
 40
0.000000
 41
0.000000
  0
VERTEX
  8
0
  6
CONTINUOUS
 10
4.160640
 20
1.280400
  0
VERTEX
  8
0
  6
CONTINUOUS
 10
4.810960
 20
1.658360
  0
VERTEX
  8
0
  6
CONTINUOUS
 10
4.792480
 20
1.599840
  0
VERTEX
  8
0
  6
CONTINUOUS
 10
4.142160
 20
1.221880
  0
VERTEX
  8
0
  6
CONTINUOUS
 10
4.160640
 20
1.280400
  0
SEQEND
  8
0
  0
SOLID
  8
0
 62
    15
 10
3.852640
 20
1.030040
 11
4.502960
 21
1.408000
 12
3.852640
 22
0.896720
 13
4.502960
 23
1.274680
  0
POLYLINE
  8
0
  6
CONTINUOUS
 66
     1
 40
0.000000
 41
0.000000
  0
VERTEX
  8
0
  6
CONTINUOUS
 10
3.852640
 20
1.030040
  0
VERTEX
  8
0
  6
CONTINUOUS
 10
4.502960
 20
1.408000
  0
VERTEX
  8
0
  6
CONTINUOUS
 10
4.502960
 20
1.274680
  0
VERTEX
  8
0
  6
CONTINUOUS
 10
3.852640
 20
0.896720
  0
VERTEX
  8
0
  6
CONTINUOUS
 10
3.852640
 20
1.030040
  0
SEQEND
  8
0
  0
SOLID
  8
0
 62
    15
 10
4.113120
 20
1.168640
 11
4.763440
 21
1.546600
 12
4.074840
 22
1.122440
 13
4.725160
 23
1.500400
  0
POLYLINE
  8
0
  6
CONTINUOUS
 66
     1
 40
0.000000
 41
0.000000
  0
VERTEX
  8
0
  6
CONTINUOUS
 10
4.113120
 20
1.168640
  0
VERTEX
  8
0
  6
CONTINUOUS
 10
4.763440
 20
1.546600
  0
VERTEX
  8
0
  6
CONTINUOUS
 10
4.725160
 20
1.500400
  0
VERTEX
  8
0
  6
CONTINUOUS
 10
4.074840
 20
1.122440
  0
VERTEX
  8
0
  6
CONTINUOUS
 10
4.113120
 20
1.168640
  0
SEQEND
  8
0
  0
SOLID
  8
0
 62
    15
 10
4.074840
 20
1.122440
 11
4.725160
 21
1.500400
 12
4.028640
 22
1.084160
 13
4.678960
 23
1.462120
  0
POLYLINE
  8
0
  6
CONTINUOUS
 66
     1
 40
0.000000
 41
0.000000
  0
VERTEX
  8
0
  6
CONTINUOUS
 10
4.074840
 20
1.122440
  0
VERTEX
  8
0
  6
CONTINUOUS
 10
4.725160
 20
1.500400
  0
VERTEX
  8
0
  6
CONTINUOUS
 10
4.678960
 20
1.462120
  0
VERTEX
  8
0
  6
CONTINUOUS
 10
4.028640
 20
1.084160
  0
VERTEX
  8
0
  6
CONTINUOUS
 10
4.074840
 20
1.122440
  0
SEQEND
  8
0
  0
SOLID
  8
0
 62
    15
 10
4.142160
 20
1.221880
 11
4.792480
 21
1.599840
 12
4.113120
 22
1.168640
 13
4.763440
 23
1.546600
  0
POLYLINE
  8
0
  6
CONTINUOUS
 66
     1
 40
0.000000
 41
0.000000
  0
VERTEX
  8
0
  6
CONTINUOUS
 10
4.142160
 20
1.221880
  0
VERTEX
  8
0
  6
CONTINUOUS
 10
4.792480
 20
1.599840
  0
VERTEX
  8
0
  6
CONTINUOUS
 10
4.763440
 20
1.546600
  0
VERTEX
  8
0
  6
CONTINUOUS
 10
4.113120
 20
1.168640
  0
VERTEX
  8
0
  6
CONTINUOUS
 10
4.142160
 20
1.221880
  0
SEQEND
  8
0
  0
SOLID
  8
0
 62
    15
 10
2.540120
 20
1.653080
 11
3.190440
 21
2.031040
 12
3.842080
 22
1.653080
 13
4.492400
 23
2.031040
  0
POLYLINE
  8
0
  6
CONTINUOUS
 66
     1
 40
0.000000
 41
0.000000
  0
VERTEX
  8
0
  6
CONTINUOUS
 10
2.540120
 20
1.653080
  0
VERTEX
  8
0
  6
CONTINUOUS
 10
3.190440
 20
2.031040
  0
VERTEX
  8
0
  6
CONTINUOUS
 10
4.492400
 20
2.031040
  0
VERTEX
  8
0
  6
CONTINUOUS
 10
3.842080
 20
1.653080
  0
VERTEX
  8
0
  6
CONTINUOUS
 10
2.540120
 20
1.653080
  0
SEQEND
  8
0
  0
SOLID
  8
0
 62
    15
 10
3.842080
 20
1.653080
 11
4.492400
 21
2.031040
 12
3.848240
 22
1.653960
 13
4.498560
 23
2.031920
  0
POLYLINE
  8
0
  6
CONTINUOUS
 66
     1
 40
0.000000
 41
0.000000
  0
VERTEX
  8
0
  6
CONTINUOUS
 10
3.842080
 20
1.653080
  0
VERTEX
  8
0
  6
CONTINUOUS
 10
4.492400
 20
2.031040
  0
VERTEX
  8
0
  6
CONTINUOUS
 10
4.498560
 20
2.031920
  0
VERTEX
  8
0
  6
CONTINUOUS
 10
3.848240
 20
1.653960
  0
VERTEX
  8
0
  6
CONTINUOUS
 10
3.842080
 20
1.653080
  0
SEQEND
  8
0
  0
POLYLINE
  8
0
  6
CONTINUOUS
 66
     1
 40
0.000000
 41
0.000000
  0
VERTEX
  8
0
  6
CONTINUOUS
 10
3.848240
 20
1.653960
  0
VERTEX
  8
0
  6
CONTINUOUS
 10
3.854400
 20
1.655280
  0
VERTEX
  8
0
  6
CONTINUOUS
 10
3.916880
 20
1.648680
  0
VERTEX
  8
0
  6
CONTINUOUS
 10
3.975400
 20
1.630200
  0
VERTEX
  8
0
  6
CONTINUOUS
 10
4.028640
 20
1.601160
  0
VERTEX
  8
0
  6
CONTINUOUS
 10
4.074840
 20
1.562880
  0
VERTEX
  8
0
  6
CONTINUOUS
 10
4.113120
 20
1.516680
  0
VERTEX
  8
0
  6
CONTINUOUS
 10
4.142160
 20
1.463440
  0
VERTEX
  8
0
  6
CONTINUOUS
 10
4.160640
 20
1.405360
  0
VERTEX
  8
0
  6
CONTINUOUS
 10
4.167240
 20
1.342880
  0
VERTEX
  8
0
  6
CONTINUOUS
 10
4.160640
 20
1.280400
  0
VERTEX
  8
0
  6
CONTINUOUS
 10
4.142160
 20
1.221880
  0
VERTEX
  8
0
  6
CONTINUOUS
 10
4.113120
 20
1.168640
  0
VERTEX
  8
0
  6
CONTINUOUS
 10
4.074840
 20
1.122440
  0
VERTEX
  8
0
  6
CONTINUOUS
 10
4.028640
 20
1.084160
  0
VERTEX
  8
0
  6
CONTINUOUS
 10
3.975400
 20
1.055120
  0
VERTEX
  8
0
  6
CONTINUOUS
 10
3.916880
 20
1.036640
  0
VERTEX
  8
0
  6
CONTINUOUS
 10
3.854400
 20
1.030040
  0
VERTEX
  8
0
  6
CONTINUOUS
 10
3.852640
 20
1.030040
  0
VERTEX
  8
0
  6
CONTINUOUS
 10
3.852640
 20
0.896720
  0
VERTEX
  8
0
  6
CONTINUOUS
 10
2.540120
 20
0.896720
  0
VERTEX
  8
0
  6
CONTINUOUS
 10
2.540120
 20
1.653080
  0
VERTEX
  8
0
  6
CONTINUOUS
 10
3.842080
 20
1.653080
  0
VERTEX
  8
0
  6
CONTINUOUS
 10
3.848240
 20
1.653960
  0
SEQEND
  8
0
  0
TEXT
  8
0
 10
3.384040
 20
0.678920
 40
0.138140
  1
BA  550
 41
1.000000
  7
SN0
 71
     0
 72
     5
 11
3.975147
 21
0.678920
  0
TEXT
  8
0
 10
3.228280
 20
0.487520
 40
0.138140
  1
3/4" x 1-5/8"
 41
1.000000
  7
SN0
 71
     0
 72
     5
 11
4.129918
 21
0.487520
  0
ENDSEC
  0
EOF
