  0
SECTION
  2
HEADER
  9
$ACADVER
  1
AC1006
  9
$EXTMIN
 10
1.657920
 20
0.921800
  9
$EXTMAX
 10
7.218200
 20
4.294840
  9
$LTSCALE
 40
0.044000
  9
$PDMODE
 70
    35
  9
$PDSIZE
 40
0.035200
  0
ENDSEC
  0
SECTION
  2
TABLES
  0
TABLE
  2
LTYPE
 70
     9
  0
LTYPE
  2
CONTINUOUS
 70
    64
  3
Solid line
 72
    65
 73
     0
 40
0.000000
  0
LTYPE
  2
DASHED
 70
    64
  3
__ __ __ __ __ __ __ __ __ __ __ __ __ __ __
 72
    65
 73
     2
 40
0.000330
 49
0.000220
 49
-0.000110
  0
LTYPE
  2
HIDDEN
 70
    64
  3
 _ _ _ _ _ _ _ _ _ _ _ _ _ _ _ _ _ _ _ _ _ _
 72
    65
 73
     2
 40
0.000165
 49
0.000110
 49
-0.000055
  0
LTYPE
  2
CENTER
 70
    64
  3
____ _ ____ _ ____ _ ____ _ ____ _ ____ _ ____
 72
    65
 73
     4
 40
0.000880
 49
0.000550
 49
-0.000110
 49
0.000110
 49
-0.000110
  0
LTYPE
  2
PHANTOM
 70
    64
  3
_____ _ _ _____ _ _ _____ _ _ _____ _ _ ____
 72
    65
 73
     6
 40
0.001100
 49
0.000550
 49
-0.000110
 49
0.000110
 49
-0.000110
 49
0.000110
 49
-0.000110
  0
LTYPE
  2
DOT
 70
    64
  3
...............................................
 72
    65
 73
     2
 40
0.000110
 49
0.000000
 49
-0.000110
  0
LTYPE
  2
DASHDOT
 70
    64
  3
__ . __ . __ . __ . __ . __ . __ . __ . __ . __
 72
    65
 73
     4
 40
0.000440
 49
0.000220
 49
-0.000110
 49
0.000000
 49
-0.000110
  0
LTYPE
  2
BORDER
 70
    64
  3
__ __ . __ __ . __ __ . __ __ . __ __ . __ __
 72
    65
 73
     6
 40
0.000770
 49
0.000220
 49
-0.000110
 49
0.000220
 49
-0.000110
 49
0.000000
 49
-0.000110
  0
LTYPE
  2
DIVIDE
 70
    64
  3
__ . . __ . . __ . . __ . . __ . . __ . . __
 72
    65
 73
     6
 40
0.000550
 49
0.000220
 49
-0.000110
 49
0.000000
 49
-0.000110
 49
0.000000
 49
-0.000110
  0
LTYPE
  2
DOTDOT
 70
    64
  3
 . .  . .  . .  . .  . .  . . 
 72
    65
 73
     5
 40
0.000242
 49
-0.000110
 49
0.000000
 49
-0.000110
 49
0.000000
 49
-0.000110
  0
ENDTAB
  0
TABLE
  2
STYLE
 70
     2
  0
STYLE
 70
     0
  2
SN0
 40
0.000000
 41
0.000440
 50
0.000000
 71
     0
 42
0.000000
  3
ROMAND
  0
STYLE
 70
    68
  2
SV0
 40
0.000000
 41
0.000440
 50
0.000000
 71
     0
 42
0.000000
  3
ROMAND
  0
ENDTAB
  0
TABLE
  2
LAYER
 70
     3
  0
LAYER
  2
FOREGROUND
 70
    64
 62
     7
  6
CONTINUOUS
  0
LAYER
  2
BACKGROUND
 70
    65
 62
    -7
  6
CONTINUOUS
  0
LAYER
  2
0
 70
    64
 62
     7
  6
CONTINUOUS
  0
ENDTAB
  0
ENDSEC
  0
SECTION
  2
ENTITIES
  0
POLYLINE
  8
FOREGROUND
  6
CONTINUOUS
 66
     1
 40
0.000000
 41
0.000000
  0
VERTEX
  8
FOREGROUND
  6
CONTINUOUS
 10
0.000000
 20
5.216640
  0
VERTEX
  8
FOREGROUND
  6
CONTINUOUS
 10
8.499920
 20
5.216640
  0
VERTEX
  8
FOREGROUND
  6
CONTINUOUS
 10
8.499920
 20
-5.783360
  0
VERTEX
  8
FOREGROUND
  6
CONTINUOUS
 10
0.000000
 20
-5.783360
  0
VERTEX
  8
FOREGROUND
  6
CONTINUOUS
 10
0.000000
 20
5.216640
  0
SEQEND
  8
0
  0
POLYLINE
  8
FOREGROUND
  6
CONTINUOUS
 66
     1
 40
0.000000
 41
0.000000
  0
VERTEX
  8
FOREGROUND
  6
CONTINUOUS
 10
0.000000
 20
5.216640
  0
VERTEX
  8
FOREGROUND
  6
CONTINUOUS
 10
8.499920
 20
5.216640
  0
VERTEX
  8
FOREGROUND
  6
CONTINUOUS
 10
8.499920
 20
-5.783360
  0
VERTEX
  8
FOREGROUND
  6
CONTINUOUS
 10
0.000000
 20
-5.783360
  0
VERTEX
  8
FOREGROUND
  6
CONTINUOUS
 10
0.000000
 20
5.216640
  0
SEQEND
  8
0
  0
POLYLINE
  8
0
  6
CONTINUOUS
 66
     1
 40
0.014080
 41
0.014080
  0
VERTEX
  8
0
  6
CONTINUOUS
 10
7.063760
 20
3.535400
  0
VERTEX
  8
0
  6
CONTINUOUS
 10
7.063760
 20
4.287360
  0
VERTEX
  8
0
  6
CONTINUOUS
 10
5.913600
 20
4.287360
  0
VERTEX
  8
0
  6
CONTINUOUS
 10
5.913600
 20
3.956040
  0
VERTEX
  8
0
  6
CONTINUOUS
 10
5.911400
 20
3.953840
  0
VERTEX
  8
0
  6
CONTINUOUS
 10
5.765760
 20
3.953840
  0
VERTEX
  8
0
  6
CONTINUOUS
 10
5.763560
 20
3.956040
  0
VERTEX
  8
0
  6
CONTINUOUS
 10
5.762240
 20
3.985520
  0
VERTEX
  8
0
  6
CONTINUOUS
 10
5.754320
 20
4.028200
  0
VERTEX
  8
0
  6
CONTINUOUS
 10
5.740240
 20
4.068680
  0
VERTEX
  8
0
  6
CONTINUOUS
 10
5.727920
 20
4.094200
  0
VERTEX
  8
0
  6
CONTINUOUS
 10
5.704600
 20
4.130280
  0
VERTEX
  8
0
  6
CONTINUOUS
 10
5.677320
 20
4.162400
  0
VERTEX
  8
0
  6
CONTINUOUS
 10
5.645200
 20
4.190560
  0
VERTEX
  8
0
  6
CONTINUOUS
 10
5.609560
 20
4.213880
  0
VERTEX
  8
0
  6
CONTINUOUS
 10
5.584040
 20
4.226200
  0
VERTEX
  8
0
  6
CONTINUOUS
 10
5.544000
 20
4.240280
  0
VERTEX
  8
0
  6
CONTINUOUS
 10
5.515840
 20
4.246440
  0
VERTEX
  8
0
  6
CONTINUOUS
 10
5.486800
 20
4.249520
  0
VERTEX
  8
0
  6
CONTINUOUS
 10
5.456880
 20
4.249520
  0
VERTEX
  8
0
  6
CONTINUOUS
 10
5.427840
 20
4.246440
  0
VERTEX
  8
0
  6
CONTINUOUS
 10
5.386040
 20
4.236760
  0
VERTEX
  8
0
  6
CONTINUOUS
 10
5.346440
 20
4.220920
  0
VERTEX
  8
0
  6
CONTINUOUS
 10
5.309920
 20
4.199360
  0
VERTEX
  8
0
  6
CONTINUOUS
 10
5.276920
 20
4.173400
  0
VERTEX
  8
0
  6
CONTINUOUS
 10
5.247440
 20
4.142600
  0
VERTEX
  8
0
  6
CONTINUOUS
 10
5.222800
 20
4.108280
  0
VERTEX
  8
0
  6
CONTINUOUS
 10
5.209160
 20
4.083640
  0
VERTEX
  8
0
  6
CONTINUOUS
 10
5.193320
 20
4.044040
  0
VERTEX
  8
0
  6
CONTINUOUS
 10
5.183640
 20
4.002240
  0
VERTEX
  8
0
  6
CONTINUOUS
 10
5.180560
 20
3.973200
  0
VERTEX
  8
0
  6
CONTINUOUS
 10
5.180120
 20
3.958240
  0
VERTEX
  8
0
  6
CONTINUOUS
 10
5.178360
 20
3.953840
  0
VERTEX
  8
0
  6
CONTINUOUS
 10
5.028320
 20
3.953840
  0
VERTEX
  8
0
  6
CONTINUOUS
 10
5.027000
 20
3.983320
  0
VERTEX
  8
0
  6
CONTINUOUS
 10
5.019080
 20
4.026000
  0
VERTEX
  8
0
  6
CONTINUOUS
 10
5.005000
 20
4.066480
  0
VERTEX
  8
0
  6
CONTINUOUS
 10
4.992680
 20
4.092000
  0
VERTEX
  8
0
  6
CONTINUOUS
 10
4.969360
 20
4.128080
  0
VERTEX
  8
0
  6
CONTINUOUS
 10
4.942080
 20
4.160200
  0
VERTEX
  8
0
  6
CONTINUOUS
 10
4.909960
 20
4.188360
  0
VERTEX
  8
0
  6
CONTINUOUS
 10
4.874320
 20
4.211680
  0
VERTEX
  8
0
  6
CONTINUOUS
 10
4.848800
 20
4.224000
  0
VERTEX
  8
0
  6
CONTINUOUS
 10
4.808760
 20
4.238080
  0
VERTEX
  8
0
  6
CONTINUOUS
 10
4.780600
 20
4.244240
  0
VERTEX
  8
0
  6
CONTINUOUS
 10
4.751560
 20
4.247320
  0
VERTEX
  8
0
  6
CONTINUOUS
 10
4.721640
 20
4.247320
  0
VERTEX
  8
0
  6
CONTINUOUS
 10
4.692600
 20
4.244240
  0
VERTEX
  8
0
  6
CONTINUOUS
 10
4.650800
 20
4.234560
  0
VERTEX
  8
0
  6
CONTINUOUS
 10
4.611200
 20
4.218720
  0
VERTEX
  8
0
  6
CONTINUOUS
 10
4.574680
 20
4.197160
  0
VERTEX
  8
0
  6
CONTINUOUS
 10
4.541680
 20
4.171200
  0
VERTEX
  8
0
  6
CONTINUOUS
 10
4.512200
 20
4.140400
  0
VERTEX
  8
0
  6
CONTINUOUS
 10
4.487560
 20
4.106080
  0
VERTEX
  8
0
  6
CONTINUOUS
 10
4.473920
 20
4.081440
  0
VERTEX
  8
0
  6
CONTINUOUS
 10
4.458080
 20
4.041840
  0
VERTEX
  8
0
  6
CONTINUOUS
 10
4.448400
 20
4.000040
  0
VERTEX
  8
0
  6
CONTINUOUS
 10
4.445320
 20
3.971000
  0
VERTEX
  8
0
  6
CONTINUOUS
 10
4.444880
 20
3.956040
  0
VERTEX
  8
0
  6
CONTINUOUS
 10
4.440480
 20
3.953840
  0
VERTEX
  8
0
  6
CONTINUOUS
 10
4.292640
 20
3.953840
  0
VERTEX
  8
0
  6
CONTINUOUS
 10
4.291320
 20
3.985520
  0
VERTEX
  8
0
  6
CONTINUOUS
 10
4.283400
 20
4.028200
  0
VERTEX
  8
0
  6
CONTINUOUS
 10
4.269320
 20
4.068680
  0
VERTEX
  8
0
  6
CONTINUOUS
 10
4.257000
 20
4.094200
  0
VERTEX
  8
0
  6
CONTINUOUS
 10
4.233680
 20
4.130280
  0
VERTEX
  8
0
  6
CONTINUOUS
 10
4.206400
 20
4.162400
  0
VERTEX
  8
0
  6
CONTINUOUS
 10
4.174280
 20
4.190560
  0
VERTEX
  8
0
  6
CONTINUOUS
 10
4.138640
 20
4.213880
  0
VERTEX
  8
0
  6
CONTINUOUS
 10
4.113120
 20
4.226200
  0
VERTEX
  8
0
  6
CONTINUOUS
 10
4.073080
 20
4.240280
  0
VERTEX
  8
0
  6
CONTINUOUS
 10
4.044920
 20
4.246440
  0
VERTEX
  8
0
  6
CONTINUOUS
 10
4.015880
 20
4.249520
  0
VERTEX
  8
0
  6
CONTINUOUS
 10
3.985960
 20
4.249520
  0
VERTEX
  8
0
  6
CONTINUOUS
 10
3.956920
 20
4.246440
  0
VERTEX
  8
0
  6
CONTINUOUS
 10
3.915120
 20
4.236760
  0
VERTEX
  8
0
  6
CONTINUOUS
 10
3.875520
 20
4.220920
  0
VERTEX
  8
0
  6
CONTINUOUS
 10
3.839000
 20
4.199360
  0
VERTEX
  8
0
  6
CONTINUOUS
 10
3.806000
 20
4.173400
  0
VERTEX
  8
0
  6
CONTINUOUS
 10
3.776520
 20
4.142600
  0
VERTEX
  8
0
  6
CONTINUOUS
 10
3.751880
 20
4.108280
  0
VERTEX
  8
0
  6
CONTINUOUS
 10
3.738240
 20
4.083640
  0
VERTEX
  8
0
  6
CONTINUOUS
 10
3.722400
 20
4.044040
  0
VERTEX
  8
0
  6
CONTINUOUS
 10
3.712720
 20
4.002240
  0
VERTEX
  8
0
  6
CONTINUOUS
 10
3.709640
 20
3.973200
  0
VERTEX
  8
0
  6
CONTINUOUS
 10
3.709200
 20
3.958240
  0
VERTEX
  8
0
  6
CONTINUOUS
 10
3.707440
 20
3.953840
  0
VERTEX
  8
0
  6
CONTINUOUS
 10
3.553000
 20
3.953840
  0
VERTEX
  8
0
  6
CONTINUOUS
 10
3.551680
 20
3.985520
  0
VERTEX
  8
0
  6
CONTINUOUS
 10
3.543760
 20
4.028200
  0
VERTEX
  8
0
  6
CONTINUOUS
 10
3.529680
 20
4.068680
  0
VERTEX
  8
0
  6
CONTINUOUS
 10
3.517360
 20
4.094200
  0
VERTEX
  8
0
  6
CONTINUOUS
 10
3.494040
 20
4.130280
  0
VERTEX
  8
0
  6
CONTINUOUS
 10
3.466760
 20
4.162400
  0
VERTEX
  8
0
  6
CONTINUOUS
 10
3.434640
 20
4.190560
  0
VERTEX
  8
0
  6
CONTINUOUS
 10
3.399000
 20
4.213880
  0
VERTEX
  8
0
  6
CONTINUOUS
 10
3.373480
 20
4.226200
  0
VERTEX
  8
0
  6
CONTINUOUS
 10
3.333440
 20
4.240280
  0
VERTEX
  8
0
  6
CONTINUOUS
 10
3.305280
 20
4.246440
  0
VERTEX
  8
0
  6
CONTINUOUS
 10
3.276240
 20
4.249520
  0
VERTEX
  8
0
  6
CONTINUOUS
 10
3.246760
 20
4.249520
  0
VERTEX
  8
0
  6
CONTINUOUS
 10
3.217720
 20
4.246440
  0
VERTEX
  8
0
  6
CONTINUOUS
 10
3.175920
 20
4.236760
  0
VERTEX
  8
0
  6
CONTINUOUS
 10
3.136320
 20
4.220920
  0
VERTEX
  8
0
  6
CONTINUOUS
 10
3.099800
 20
4.199360
  0
VERTEX
  8
0
  6
CONTINUOUS
 10
3.066800
 20
4.173400
  0
VERTEX
  8
0
  6
CONTINUOUS
 10
3.037320
 20
4.142600
  0
VERTEX
  8
0
  6
CONTINUOUS
 10
3.012680
 20
4.108280
  0
VERTEX
  8
0
  6
CONTINUOUS
 10
2.999040
 20
4.083640
  0
VERTEX
  8
0
  6
CONTINUOUS
 10
2.983200
 20
4.044040
  0
VERTEX
  8
0
  6
CONTINUOUS
 10
2.973520
 20
4.002240
  0
VERTEX
  8
0
  6
CONTINUOUS
 10
2.970440
 20
3.973200
  0
VERTEX
  8
0
  6
CONTINUOUS
 10
2.970000
 20
3.958240
  0
VERTEX
  8
0
  6
CONTINUOUS
 10
2.967800
 20
3.953840
  0
VERTEX
  8
0
  6
CONTINUOUS
 10
2.817760
 20
3.953840
  0
VERTEX
  8
0
  6
CONTINUOUS
 10
2.817760
 20
4.279000
  0
VERTEX
  8
0
  6
CONTINUOUS
 10
2.815560
 20
4.282960
  0
VERTEX
  8
0
  6
CONTINUOUS
 10
1.667600
 20
4.282960
  0
VERTEX
  8
0
  6
CONTINUOUS
 10
1.665840
 20
4.281200
  0
VERTEX
  8
0
  6
CONTINUOUS
 10
1.665840
 20
3.528800
  0
VERTEX
  8
0
  6
CONTINUOUS
 10
7.063760
 20
3.528800
  0
VERTEX
  8
0
  6
CONTINUOUS
 10
7.063760
 20
3.535400
  0
SEQEND
  8
0
  0
SOLID
  8
0
 62
    15
 10
4.444880
 20
1.846680
 11
4.447080
 21
2.571800
 12
4.592720
 22
1.846680
 13
4.595360
 23
2.571800
  0
POLYLINE
  8
0
  6
CONTINUOUS
 66
     1
 40
0.000000
 41
0.000000
  0
VERTEX
  8
0
  6
CONTINUOUS
 10
4.444880
 20
1.846680
  0
VERTEX
  8
0
  6
CONTINUOUS
 10
4.447080
 20
2.571800
  0
VERTEX
  8
0
  6
CONTINUOUS
 10
4.595360
 20
2.571800
  0
VERTEX
  8
0
  6
CONTINUOUS
 10
4.592720
 20
1.846680
  0
VERTEX
  8
0
  6
CONTINUOUS
 10
4.444880
 20
1.846680
  0
SEQEND
  8
0
  0
SOLID
  8
0
 62
    15
 10
1.819840
 20
2.175800
 11
1.822040
 21
2.900920
 12
2.967800
 22
2.175800
 13
2.970000
 23
2.900920
  0
POLYLINE
  8
0
  6
CONTINUOUS
 66
     1
 40
0.000000
 41
0.000000
  0
VERTEX
  8
0
  6
CONTINUOUS
 10
1.819840
 20
2.175800
  0
VERTEX
  8
0
  6
CONTINUOUS
 10
1.822040
 20
2.900920
  0
VERTEX
  8
0
  6
CONTINUOUS
 10
2.970000
 20
2.900920
  0
VERTEX
  8
0
  6
CONTINUOUS
 10
2.967800
 20
2.175800
  0
VERTEX
  8
0
  6
CONTINUOUS
 10
1.819840
 20
2.175800
  0
SEQEND
  8
0
  0
SOLID
  8
0
 62
    15
 10
2.967800
 20
2.175800
 11
2.970000
 21
2.900920
 12
2.970000
 22
2.171840
 13
2.972200
 23
2.896960
  0
POLYLINE
  8
0
  6
CONTINUOUS
 66
     1
 40
0.000000
 41
0.000000
  0
VERTEX
  8
0
  6
CONTINUOUS
 10
2.967800
 20
2.175800
  0
VERTEX
  8
0
  6
CONTINUOUS
 10
2.970000
 20
2.900920
  0
VERTEX
  8
0
  6
CONTINUOUS
 10
2.972200
 20
2.896960
  0
VERTEX
  8
0
  6
CONTINUOUS
 10
2.970000
 20
2.171840
  0
VERTEX
  8
0
  6
CONTINUOUS
 10
2.967800
 20
2.175800
  0
SEQEND
  8
0
  0
SOLID
  8
0
 62
    15
 10
2.970000
 20
2.171840
 11
2.972200
 21
2.896960
 12
2.970000
 22
1.846680
 13
2.972200
 23
2.571800
  0
POLYLINE
  8
0
  6
CONTINUOUS
 66
     1
 40
0.000000
 41
0.000000
  0
VERTEX
  8
0
  6
CONTINUOUS
 10
2.970000
 20
2.171840
  0
VERTEX
  8
0
  6
CONTINUOUS
 10
2.972200
 20
2.896960
  0
VERTEX
  8
0
  6
CONTINUOUS
 10
2.972200
 20
2.571800
  0
VERTEX
  8
0
  6
CONTINUOUS
 10
2.970000
 20
1.846680
  0
VERTEX
  8
0
  6
CONTINUOUS
 10
2.970000
 20
2.171840
  0
SEQEND
  8
0
  0
SOLID
  8
0
 62
    15
 10
2.970000
 20
1.846680
 11
2.972200
 21
2.571800
 12
3.119600
 22
1.846680
 13
3.122240
 23
2.571800
  0
POLYLINE
  8
0
  6
CONTINUOUS
 66
     1
 40
0.000000
 41
0.000000
  0
VERTEX
  8
0
  6
CONTINUOUS
 10
2.970000
 20
1.846680
  0
VERTEX
  8
0
  6
CONTINUOUS
 10
2.972200
 20
2.571800
  0
VERTEX
  8
0
  6
CONTINUOUS
 10
3.122240
 20
2.571800
  0
VERTEX
  8
0
  6
CONTINUOUS
 10
3.119600
 20
1.846680
  0
VERTEX
  8
0
  6
CONTINUOUS
 10
2.970000
 20
1.846680
  0
SEQEND
  8
0
  0
SOLID
  8
0
 62
    15
 10
3.119600
 20
1.846680
 11
3.122240
 21
2.571800
 12
3.121800
 22
1.851080
 13
3.124440
 23
2.575760
  0
POLYLINE
  8
0
  6
CONTINUOUS
 66
     1
 40
0.000000
 41
0.000000
  0
VERTEX
  8
0
  6
CONTINUOUS
 10
3.119600
 20
1.846680
  0
VERTEX
  8
0
  6
CONTINUOUS
 10
3.122240
 20
2.571800
  0
VERTEX
  8
0
  6
CONTINUOUS
 10
3.124440
 20
2.575760
  0
VERTEX
  8
0
  6
CONTINUOUS
 10
3.121800
 20
1.851080
  0
VERTEX
  8
0
  6
CONTINUOUS
 10
3.119600
 20
1.846680
  0
SEQEND
  8
0
  0
SOLID
  8
0
 62
    15
 10
3.121800
 20
1.851080
 11
3.124440
 21
2.575760
 12
3.127960
 22
1.908720
 13
3.130160
 23
2.633840
  0
POLYLINE
  8
0
  6
CONTINUOUS
 66
     1
 40
0.000000
 41
0.000000
  0
VERTEX
  8
0
  6
CONTINUOUS
 10
3.121800
 20
1.851080
  0
VERTEX
  8
0
  6
CONTINUOUS
 10
3.124440
 20
2.575760
  0
VERTEX
  8
0
  6
CONTINUOUS
 10
3.130160
 20
2.633840
  0
VERTEX
  8
0
  6
CONTINUOUS
 10
3.127960
 20
1.908720
  0
VERTEX
  8
0
  6
CONTINUOUS
 10
3.121800
 20
1.851080
  0
SEQEND
  8
0
  0
SOLID
  8
0
 62
    15
 10
3.127960
 20
1.908720
 11
3.130160
 21
2.633840
 12
3.145120
 22
1.963280
 13
3.147760
 23
2.688400
  0
POLYLINE
  8
0
  6
CONTINUOUS
 66
     1
 40
0.000000
 41
0.000000
  0
VERTEX
  8
0
  6
CONTINUOUS
 10
3.127960
 20
1.908720
  0
VERTEX
  8
0
  6
CONTINUOUS
 10
3.130160
 20
2.633840
  0
VERTEX
  8
0
  6
CONTINUOUS
 10
3.147760
 20
2.688400
  0
VERTEX
  8
0
  6
CONTINUOUS
 10
3.145120
 20
1.963280
  0
VERTEX
  8
0
  6
CONTINUOUS
 10
3.127960
 20
1.908720
  0
SEQEND
  8
0
  0
SOLID
  8
0
 62
    15
 10
3.145120
 20
1.963280
 11
3.147760
 21
2.688400
 12
3.172400
 22
2.013000
 13
3.174600
 23
2.737680
  0
POLYLINE
  8
0
  6
CONTINUOUS
 66
     1
 40
0.000000
 41
0.000000
  0
VERTEX
  8
0
  6
CONTINUOUS
 10
3.145120
 20
1.963280
  0
VERTEX
  8
0
  6
CONTINUOUS
 10
3.147760
 20
2.688400
  0
VERTEX
  8
0
  6
CONTINUOUS
 10
3.174600
 20
2.737680
  0
VERTEX
  8
0
  6
CONTINUOUS
 10
3.172400
 20
2.013000
  0
VERTEX
  8
0
  6
CONTINUOUS
 10
3.145120
 20
1.963280
  0
SEQEND
  8
0
  0
SOLID
  8
0
 62
    15
 10
3.172400
 20
2.013000
 11
3.174600
 21
2.737680
 12
3.208480
 22
2.056120
 13
3.210680
 23
2.781240
  0
POLYLINE
  8
0
  6
CONTINUOUS
 66
     1
 40
0.000000
 41
0.000000
  0
VERTEX
  8
0
  6
CONTINUOUS
 10
3.172400
 20
2.013000
  0
VERTEX
  8
0
  6
CONTINUOUS
 10
3.174600
 20
2.737680
  0
VERTEX
  8
0
  6
CONTINUOUS
 10
3.210680
 20
2.781240
  0
VERTEX
  8
0
  6
CONTINUOUS
 10
3.208480
 20
2.056120
  0
VERTEX
  8
0
  6
CONTINUOUS
 10
3.172400
 20
2.013000
  0
SEQEND
  8
0
  0
SOLID
  8
0
 62
    15
 10
3.208480
 20
2.056120
 11
3.210680
 21
2.781240
 12
3.251600
 22
2.092200
 13
3.254240
 23
2.817320
  0
POLYLINE
  8
0
  6
CONTINUOUS
 66
     1
 40
0.000000
 41
0.000000
  0
VERTEX
  8
0
  6
CONTINUOUS
 10
3.208480
 20
2.056120
  0
VERTEX
  8
0
  6
CONTINUOUS
 10
3.210680
 20
2.781240
  0
VERTEX
  8
0
  6
CONTINUOUS
 10
3.254240
 20
2.817320
  0
VERTEX
  8
0
  6
CONTINUOUS
 10
3.251600
 20
2.092200
  0
VERTEX
  8
0
  6
CONTINUOUS
 10
3.208480
 20
2.056120
  0
SEQEND
  8
0
  0
SOLID
  8
0
 62
    15
 10
3.251600
 20
2.092200
 11
3.254240
 21
2.817320
 12
3.301320
 22
2.119480
 13
3.303520
 23
2.844160
  0
POLYLINE
  8
0
  6
CONTINUOUS
 66
     1
 40
0.000000
 41
0.000000
  0
VERTEX
  8
0
  6
CONTINUOUS
 10
3.251600
 20
2.092200
  0
VERTEX
  8
0
  6
CONTINUOUS
 10
3.254240
 20
2.817320
  0
VERTEX
  8
0
  6
CONTINUOUS
 10
3.303520
 20
2.844160
  0
VERTEX
  8
0
  6
CONTINUOUS
 10
3.301320
 20
2.119480
  0
VERTEX
  8
0
  6
CONTINUOUS
 10
3.251600
 20
2.092200
  0
SEQEND
  8
0
  0
SOLID
  8
0
 62
    15
 10
3.301320
 20
2.119480
 11
3.303520
 21
2.844160
 12
3.355440
 22
2.136640
 13
3.358080
 23
2.861760
  0
POLYLINE
  8
0
  6
CONTINUOUS
 66
     1
 40
0.000000
 41
0.000000
  0
VERTEX
  8
0
  6
CONTINUOUS
 10
3.301320
 20
2.119480
  0
VERTEX
  8
0
  6
CONTINUOUS
 10
3.303520
 20
2.844160
  0
VERTEX
  8
0
  6
CONTINUOUS
 10
3.358080
 20
2.861760
  0
VERTEX
  8
0
  6
CONTINUOUS
 10
3.355440
 20
2.136640
  0
VERTEX
  8
0
  6
CONTINUOUS
 10
3.301320
 20
2.119480
  0
SEQEND
  8
0
  0
SOLID
  8
0
 62
    15
 10
3.355440
 20
2.136640
 11
3.358080
 21
2.861760
 12
3.413520
 22
2.142360
 13
3.416160
 23
2.867480
  0
POLYLINE
  8
0
  6
CONTINUOUS
 66
     1
 40
0.000000
 41
0.000000
  0
VERTEX
  8
0
  6
CONTINUOUS
 10
3.355440
 20
2.136640
  0
VERTEX
  8
0
  6
CONTINUOUS
 10
3.358080
 20
2.861760
  0
VERTEX
  8
0
  6
CONTINUOUS
 10
3.416160
 20
2.867480
  0
VERTEX
  8
0
  6
CONTINUOUS
 10
3.413520
 20
2.142360
  0
VERTEX
  8
0
  6
CONTINUOUS
 10
3.355440
 20
2.136640
  0
SEQEND
  8
0
  0
SOLID
  8
0
 62
    15
 10
3.413520
 20
2.142360
 11
3.416160
 21
2.867480
 12
3.471600
 22
2.136200
 13
3.473800
 23
2.861320
  0
POLYLINE
  8
0
  6
CONTINUOUS
 66
     1
 40
0.000000
 41
0.000000
  0
VERTEX
  8
0
  6
CONTINUOUS
 10
3.413520
 20
2.142360
  0
VERTEX
  8
0
  6
CONTINUOUS
 10
3.416160
 20
2.867480
  0
VERTEX
  8
0
  6
CONTINUOUS
 10
3.473800
 20
2.861320
  0
VERTEX
  8
0
  6
CONTINUOUS
 10
3.471600
 20
2.136200
  0
VERTEX
  8
0
  6
CONTINUOUS
 10
3.413520
 20
2.142360
  0
SEQEND
  8
0
  0
SOLID
  8
0
 62
    15
 10
3.471600
 20
2.136200
 11
3.473800
 21
2.861320
 12
3.525720
 22
2.119040
 13
3.528360
 23
2.844160
  0
POLYLINE
  8
0
  6
CONTINUOUS
 66
     1
 40
0.000000
 41
0.000000
  0
VERTEX
  8
0
  6
CONTINUOUS
 10
3.471600
 20
2.136200
  0
VERTEX
  8
0
  6
CONTINUOUS
 10
3.473800
 20
2.861320
  0
VERTEX
  8
0
  6
CONTINUOUS
 10
3.528360
 20
2.844160
  0
VERTEX
  8
0
  6
CONTINUOUS
 10
3.525720
 20
2.119040
  0
VERTEX
  8
0
  6
CONTINUOUS
 10
3.471600
 20
2.136200
  0
SEQEND
  8
0
  0
SOLID
  8
0
 62
    15
 10
3.525720
 20
2.119040
 11
3.528360
 21
2.844160
 12
3.575440
 22
2.091320
 13
3.577640
 23
2.816440
  0
POLYLINE
  8
0
  6
CONTINUOUS
 66
     1
 40
0.000000
 41
0.000000
  0
VERTEX
  8
0
  6
CONTINUOUS
 10
3.525720
 20
2.119040
  0
VERTEX
  8
0
  6
CONTINUOUS
 10
3.528360
 20
2.844160
  0
VERTEX
  8
0
  6
CONTINUOUS
 10
3.577640
 20
2.816440
  0
VERTEX
  8
0
  6
CONTINUOUS
 10
3.575440
 20
2.091320
  0
VERTEX
  8
0
  6
CONTINUOUS
 10
3.525720
 20
2.119040
  0
SEQEND
  8
0
  0
SOLID
  8
0
 62
    15
 10
3.575440
 20
2.091320
 11
3.577640
 21
2.816440
 12
3.618560
 22
2.055240
 13
3.621200
 23
2.780360
  0
POLYLINE
  8
0
  6
CONTINUOUS
 66
     1
 40
0.000000
 41
0.000000
  0
VERTEX
  8
0
  6
CONTINUOUS
 10
3.575440
 20
2.091320
  0
VERTEX
  8
0
  6
CONTINUOUS
 10
3.577640
 20
2.816440
  0
VERTEX
  8
0
  6
CONTINUOUS
 10
3.621200
 20
2.780360
  0
VERTEX
  8
0
  6
CONTINUOUS
 10
3.618560
 20
2.055240
  0
VERTEX
  8
0
  6
CONTINUOUS
 10
3.575440
 20
2.091320
  0
SEQEND
  8
0
  0
SOLID
  8
0
 62
    15
 10
3.618560
 20
2.055240
 11
3.621200
 21
2.780360
 12
3.654640
 22
2.011240
 13
3.657280
 23
2.736360
  0
POLYLINE
  8
0
  6
CONTINUOUS
 66
     1
 40
0.000000
 41
0.000000
  0
VERTEX
  8
0
  6
CONTINUOUS
 10
3.618560
 20
2.055240
  0
VERTEX
  8
0
  6
CONTINUOUS
 10
3.621200
 20
2.780360
  0
VERTEX
  8
0
  6
CONTINUOUS
 10
3.657280
 20
2.736360
  0
VERTEX
  8
0
  6
CONTINUOUS
 10
3.654640
 20
2.011240
  0
VERTEX
  8
0
  6
CONTINUOUS
 10
3.618560
 20
2.055240
  0
SEQEND
  8
0
  0
SOLID
  8
0
 62
    15
 10
3.654640
 20
2.011240
 11
3.657280
 21
2.736360
 12
3.681920
 22
1.961520
 13
3.684120
 23
2.686640
  0
POLYLINE
  8
0
  6
CONTINUOUS
 66
     1
 40
0.000000
 41
0.000000
  0
VERTEX
  8
0
  6
CONTINUOUS
 10
3.654640
 20
2.011240
  0
VERTEX
  8
0
  6
CONTINUOUS
 10
3.657280
 20
2.736360
  0
VERTEX
  8
0
  6
CONTINUOUS
 10
3.684120
 20
2.686640
  0
VERTEX
  8
0
  6
CONTINUOUS
 10
3.681920
 20
1.961520
  0
VERTEX
  8
0
  6
CONTINUOUS
 10
3.654640
 20
2.011240
  0
SEQEND
  8
0
  0
SOLID
  8
0
 62
    15
 10
3.681920
 20
1.961520
 11
3.684120
 21
2.686640
 12
3.699080
 22
1.906960
 13
3.701720
 23
2.632080
  0
POLYLINE
  8
0
  6
CONTINUOUS
 66
     1
 40
0.000000
 41
0.000000
  0
VERTEX
  8
0
  6
CONTINUOUS
 10
3.681920
 20
1.961520
  0
VERTEX
  8
0
  6
CONTINUOUS
 10
3.684120
 20
2.686640
  0
VERTEX
  8
0
  6
CONTINUOUS
 10
3.701720
 20
2.632080
  0
VERTEX
  8
0
  6
CONTINUOUS
 10
3.699080
 20
1.906960
  0
VERTEX
  8
0
  6
CONTINUOUS
 10
3.681920
 20
1.961520
  0
SEQEND
  8
0
  0
SOLID
  8
0
 62
    15
 10
3.699080
 20
1.906960
 11
3.701720
 21
2.632080
 12
3.705240
 22
1.848880
 13
3.707440
 23
2.574000
  0
POLYLINE
  8
0
  6
CONTINUOUS
 66
     1
 40
0.000000
 41
0.000000
  0
VERTEX
  8
0
  6
CONTINUOUS
 10
3.699080
 20
1.906960
  0
VERTEX
  8
0
  6
CONTINUOUS
 10
3.701720
 20
2.632080
  0
VERTEX
  8
0
  6
CONTINUOUS
 10
3.707440
 20
2.574000
  0
VERTEX
  8
0
  6
CONTINUOUS
 10
3.705240
 20
1.848880
  0
VERTEX
  8
0
  6
CONTINUOUS
 10
3.699080
 20
1.906960
  0
SEQEND
  8
0
  0
SOLID
  8
0
 62
    15
 10
3.705240
 20
1.848880
 11
3.707440
 21
2.574000
 12
3.705240
 22
1.846680
 13
3.707880
 23
2.571800
  0
POLYLINE
  8
0
  6
CONTINUOUS
 66
     1
 40
0.000000
 41
0.000000
  0
VERTEX
  8
0
  6
CONTINUOUS
 10
3.705240
 20
1.848880
  0
VERTEX
  8
0
  6
CONTINUOUS
 10
3.707440
 20
2.574000
  0
VERTEX
  8
0
  6
CONTINUOUS
 10
3.707880
 20
2.571800
  0
VERTEX
  8
0
  6
CONTINUOUS
 10
3.705240
 20
1.846680
  0
VERTEX
  8
0
  6
CONTINUOUS
 10
3.705240
 20
1.848880
  0
SEQEND
  8
0
  0
SOLID
  8
0
 62
    15
 10
3.705240
 20
1.846680
 11
3.707880
 21
2.571800
 12
3.859240
 22
1.846680
 13
3.861880
 23
2.571800
  0
POLYLINE
  8
0
  6
CONTINUOUS
 66
     1
 40
0.000000
 41
0.000000
  0
VERTEX
  8
0
  6
CONTINUOUS
 10
3.705240
 20
1.846680
  0
VERTEX
  8
0
  6
CONTINUOUS
 10
3.707880
 20
2.571800
  0
VERTEX
  8
0
  6
CONTINUOUS
 10
3.861880
 20
2.571800
  0
VERTEX
  8
0
  6
CONTINUOUS
 10
3.859240
 20
1.846680
  0
VERTEX
  8
0
  6
CONTINUOUS
 10
3.705240
 20
1.846680
  0
SEQEND
  8
0
  0
SOLID
  8
0
 62
    15
 10
3.859240
 20
1.846680
 11
3.861880
 21
2.571800
 12
3.861440
 22
1.851080
 13
3.864080
 23
2.575760
  0
POLYLINE
  8
0
  6
CONTINUOUS
 66
     1
 40
0.000000
 41
0.000000
  0
VERTEX
  8
0
  6
CONTINUOUS
 10
3.859240
 20
1.846680
  0
VERTEX
  8
0
  6
CONTINUOUS
 10
3.861880
 20
2.571800
  0
VERTEX
  8
0
  6
CONTINUOUS
 10
3.864080
 20
2.575760
  0
VERTEX
  8
0
  6
CONTINUOUS
 10
3.861440
 20
1.851080
  0
VERTEX
  8
0
  6
CONTINUOUS
 10
3.859240
 20
1.846680
  0
SEQEND
  8
0
  0
SOLID
  8
0
 62
    15
 10
3.861440
 20
1.851080
 11
3.864080
 21
2.575760
 12
3.867600
 22
1.908720
 13
3.869800
 23
2.633840
  0
POLYLINE
  8
0
  6
CONTINUOUS
 66
     1
 40
0.000000
 41
0.000000
  0
VERTEX
  8
0
  6
CONTINUOUS
 10
3.861440
 20
1.851080
  0
VERTEX
  8
0
  6
CONTINUOUS
 10
3.864080
 20
2.575760
  0
VERTEX
  8
0
  6
CONTINUOUS
 10
3.869800
 20
2.633840
  0
VERTEX
  8
0
  6
CONTINUOUS
 10
3.867600
 20
1.908720
  0
VERTEX
  8
0
  6
CONTINUOUS
 10
3.861440
 20
1.851080
  0
SEQEND
  8
0
  0
SOLID
  8
0
 62
    15
 10
3.867600
 20
1.908720
 11
3.869800
 21
2.633840
 12
3.884760
 22
1.963280
 13
3.887400
 23
2.688400
  0
POLYLINE
  8
0
  6
CONTINUOUS
 66
     1
 40
0.000000
 41
0.000000
  0
VERTEX
  8
0
  6
CONTINUOUS
 10
3.867600
 20
1.908720
  0
VERTEX
  8
0
  6
CONTINUOUS
 10
3.869800
 20
2.633840
  0
VERTEX
  8
0
  6
CONTINUOUS
 10
3.887400
 20
2.688400
  0
VERTEX
  8
0
  6
CONTINUOUS
 10
3.884760
 20
1.963280
  0
VERTEX
  8
0
  6
CONTINUOUS
 10
3.867600
 20
1.908720
  0
SEQEND
  8
0
  0
SOLID
  8
0
 62
    15
 10
3.884760
 20
1.963280
 11
3.887400
 21
2.688400
 12
3.912040
 22
2.012560
 13
3.914240
 23
2.737680
  0
POLYLINE
  8
0
  6
CONTINUOUS
 66
     1
 40
0.000000
 41
0.000000
  0
VERTEX
  8
0
  6
CONTINUOUS
 10
3.884760
 20
1.963280
  0
VERTEX
  8
0
  6
CONTINUOUS
 10
3.887400
 20
2.688400
  0
VERTEX
  8
0
  6
CONTINUOUS
 10
3.914240
 20
2.737680
  0
VERTEX
  8
0
  6
CONTINUOUS
 10
3.912040
 20
2.012560
  0
VERTEX
  8
0
  6
CONTINUOUS
 10
3.884760
 20
1.963280
  0
SEQEND
  8
0
  0
SOLID
  8
0
 62
    15
 10
3.912040
 20
2.012560
 11
3.914240
 21
2.737680
 12
3.948120
 22
2.056120
 13
3.950320
 23
2.781240
  0
POLYLINE
  8
0
  6
CONTINUOUS
 66
     1
 40
0.000000
 41
0.000000
  0
VERTEX
  8
0
  6
CONTINUOUS
 10
3.912040
 20
2.012560
  0
VERTEX
  8
0
  6
CONTINUOUS
 10
3.914240
 20
2.737680
  0
VERTEX
  8
0
  6
CONTINUOUS
 10
3.950320
 20
2.781240
  0
VERTEX
  8
0
  6
CONTINUOUS
 10
3.948120
 20
2.056120
  0
VERTEX
  8
0
  6
CONTINUOUS
 10
3.912040
 20
2.012560
  0
SEQEND
  8
0
  0
SOLID
  8
0
 62
    15
 10
3.948120
 20
2.056120
 11
3.950320
 21
2.781240
 12
3.991240
 22
2.092200
 13
3.993880
 23
2.817320
  0
POLYLINE
  8
0
  6
CONTINUOUS
 66
     1
 40
0.000000
 41
0.000000
  0
VERTEX
  8
0
  6
CONTINUOUS
 10
3.948120
 20
2.056120
  0
VERTEX
  8
0
  6
CONTINUOUS
 10
3.950320
 20
2.781240
  0
VERTEX
  8
0
  6
CONTINUOUS
 10
3.993880
 20
2.817320
  0
VERTEX
  8
0
  6
CONTINUOUS
 10
3.991240
 20
2.092200
  0
VERTEX
  8
0
  6
CONTINUOUS
 10
3.948120
 20
2.056120
  0
SEQEND
  8
0
  0
SOLID
  8
0
 62
    15
 10
3.991240
 20
2.092200
 11
3.993880
 21
2.817320
 12
4.040960
 22
2.119040
 13
4.043160
 23
2.844160
  0
POLYLINE
  8
0
  6
CONTINUOUS
 66
     1
 40
0.000000
 41
0.000000
  0
VERTEX
  8
0
  6
CONTINUOUS
 10
3.991240
 20
2.092200
  0
VERTEX
  8
0
  6
CONTINUOUS
 10
3.993880
 20
2.817320
  0
VERTEX
  8
0
  6
CONTINUOUS
 10
4.043160
 20
2.844160
  0
VERTEX
  8
0
  6
CONTINUOUS
 10
4.040960
 20
2.119040
  0
VERTEX
  8
0
  6
CONTINUOUS
 10
3.991240
 20
2.092200
  0
SEQEND
  8
0
  0
SOLID
  8
0
 62
    15
 10
4.040960
 20
2.119040
 11
4.043160
 21
2.844160
 12
4.095080
 22
2.136640
 13
4.097720
 23
2.861760
  0
POLYLINE
  8
0
  6
CONTINUOUS
 66
     1
 40
0.000000
 41
0.000000
  0
VERTEX
  8
0
  6
CONTINUOUS
 10
4.040960
 20
2.119040
  0
VERTEX
  8
0
  6
CONTINUOUS
 10
4.043160
 20
2.844160
  0
VERTEX
  8
0
  6
CONTINUOUS
 10
4.097720
 20
2.861760
  0
VERTEX
  8
0
  6
CONTINUOUS
 10
4.095080
 20
2.136640
  0
VERTEX
  8
0
  6
CONTINUOUS
 10
4.040960
 20
2.119040
  0
SEQEND
  8
0
  0
SOLID
  8
0
 62
    15
 10
4.095080
 20
2.136640
 11
4.097720
 21
2.861760
 12
4.153160
 22
2.142360
 13
4.155360
 23
2.867480
  0
POLYLINE
  8
0
  6
CONTINUOUS
 66
     1
 40
0.000000
 41
0.000000
  0
VERTEX
  8
0
  6
CONTINUOUS
 10
4.095080
 20
2.136640
  0
VERTEX
  8
0
  6
CONTINUOUS
 10
4.097720
 20
2.861760
  0
VERTEX
  8
0
  6
CONTINUOUS
 10
4.155360
 20
2.867480
  0
VERTEX
  8
0
  6
CONTINUOUS
 10
4.153160
 20
2.142360
  0
VERTEX
  8
0
  6
CONTINUOUS
 10
4.095080
 20
2.136640
  0
SEQEND
  8
0
  0
SOLID
  8
0
 62
    15
 10
4.153160
 20
2.142360
 11
4.155360
 21
2.867480
 12
4.211240
 22
2.136200
 13
4.213440
 23
2.861320
  0
POLYLINE
  8
0
  6
CONTINUOUS
 66
     1
 40
0.000000
 41
0.000000
  0
VERTEX
  8
0
  6
CONTINUOUS
 10
4.153160
 20
2.142360
  0
VERTEX
  8
0
  6
CONTINUOUS
 10
4.155360
 20
2.867480
  0
VERTEX
  8
0
  6
CONTINUOUS
 10
4.213440
 20
2.861320
  0
VERTEX
  8
0
  6
CONTINUOUS
 10
4.211240
 20
2.136200
  0
VERTEX
  8
0
  6
CONTINUOUS
 10
4.153160
 20
2.142360
  0
SEQEND
  8
0
  0
SOLID
  8
0
 62
    15
 10
4.211240
 20
2.136200
 11
4.213440
 21
2.861320
 12
4.265360
 22
2.119040
 13
4.268000
 23
2.844160
  0
POLYLINE
  8
0
  6
CONTINUOUS
 66
     1
 40
0.000000
 41
0.000000
  0
VERTEX
  8
0
  6
CONTINUOUS
 10
4.211240
 20
2.136200
  0
VERTEX
  8
0
  6
CONTINUOUS
 10
4.213440
 20
2.861320
  0
VERTEX
  8
0
  6
CONTINUOUS
 10
4.268000
 20
2.844160
  0
VERTEX
  8
0
  6
CONTINUOUS
 10
4.265360
 20
2.119040
  0
VERTEX
  8
0
  6
CONTINUOUS
 10
4.211240
 20
2.136200
  0
SEQEND
  8
0
  0
SOLID
  8
0
 62
    15
 10
4.265360
 20
2.119040
 11
4.268000
 21
2.844160
 12
4.315080
 22
2.091320
 13
4.317280
 23
2.816440
  0
POLYLINE
  8
0
  6
CONTINUOUS
 66
     1
 40
0.000000
 41
0.000000
  0
VERTEX
  8
0
  6
CONTINUOUS
 10
4.265360
 20
2.119040
  0
VERTEX
  8
0
  6
CONTINUOUS
 10
4.268000
 20
2.844160
  0
VERTEX
  8
0
  6
CONTINUOUS
 10
4.317280
 20
2.816440
  0
VERTEX
  8
0
  6
CONTINUOUS
 10
4.315080
 20
2.091320
  0
VERTEX
  8
0
  6
CONTINUOUS
 10
4.265360
 20
2.119040
  0
SEQEND
  8
0
  0
SOLID
  8
0
 62
    15
 10
4.315080
 20
2.091320
 11
4.317280
 21
2.816440
 12
4.358200
 22
2.055240
 13
4.360840
 23
2.780360
  0
POLYLINE
  8
0
  6
CONTINUOUS
 66
     1
 40
0.000000
 41
0.000000
  0
VERTEX
  8
0
  6
CONTINUOUS
 10
4.315080
 20
2.091320
  0
VERTEX
  8
0
  6
CONTINUOUS
 10
4.317280
 20
2.816440
  0
VERTEX
  8
0
  6
CONTINUOUS
 10
4.360840
 20
2.780360
  0
VERTEX
  8
0
  6
CONTINUOUS
 10
4.358200
 20
2.055240
  0
VERTEX
  8
0
  6
CONTINUOUS
 10
4.315080
 20
2.091320
  0
SEQEND
  8
0
  0
SOLID
  8
0
 62
    15
 10
4.358200
 20
2.055240
 11
4.360840
 21
2.780360
 12
4.394280
 22
2.011240
 13
4.396480
 23
2.736360
  0
POLYLINE
  8
0
  6
CONTINUOUS
 66
     1
 40
0.000000
 41
0.000000
  0
VERTEX
  8
0
  6
CONTINUOUS
 10
4.358200
 20
2.055240
  0
VERTEX
  8
0
  6
CONTINUOUS
 10
4.360840
 20
2.780360
  0
VERTEX
  8
0
  6
CONTINUOUS
 10
4.396480
 20
2.736360
  0
VERTEX
  8
0
  6
CONTINUOUS
 10
4.394280
 20
2.011240
  0
VERTEX
  8
0
  6
CONTINUOUS
 10
4.358200
 20
2.055240
  0
SEQEND
  8
0
  0
SOLID
  8
0
 62
    15
 10
4.394280
 20
2.011240
 11
4.396480
 21
2.736360
 12
4.421560
 22
1.961520
 13
4.423760
 23
2.686640
  0
POLYLINE
  8
0
  6
CONTINUOUS
 66
     1
 40
0.000000
 41
0.000000
  0
VERTEX
  8
0
  6
CONTINUOUS
 10
4.394280
 20
2.011240
  0
VERTEX
  8
0
  6
CONTINUOUS
 10
4.396480
 20
2.736360
  0
VERTEX
  8
0
  6
CONTINUOUS
 10
4.423760
 20
2.686640
  0
VERTEX
  8
0
  6
CONTINUOUS
 10
4.421560
 20
1.961520
  0
VERTEX
  8
0
  6
CONTINUOUS
 10
4.394280
 20
2.011240
  0
SEQEND
  8
0
  0
SOLID
  8
0
 62
    15
 10
4.421560
 20
1.961520
 11
4.423760
 21
2.686640
 12
4.438720
 22
1.906960
 13
4.441360
 23
2.632080
  0
POLYLINE
  8
0
  6
CONTINUOUS
 66
     1
 40
0.000000
 41
0.000000
  0
VERTEX
  8
0
  6
CONTINUOUS
 10
4.421560
 20
1.961520
  0
VERTEX
  8
0
  6
CONTINUOUS
 10
4.423760
 20
2.686640
  0
VERTEX
  8
0
  6
CONTINUOUS
 10
4.441360
 20
2.632080
  0
VERTEX
  8
0
  6
CONTINUOUS
 10
4.438720
 20
1.906960
  0
VERTEX
  8
0
  6
CONTINUOUS
 10
4.421560
 20
1.961520
  0
SEQEND
  8
0
  0
SOLID
  8
0
 62
    15
 10
4.438720
 20
1.906960
 11
4.441360
 21
2.632080
 12
4.444880
 22
1.848880
 13
4.447080
 23
2.574000
  0
POLYLINE
  8
0
  6
CONTINUOUS
 66
     1
 40
0.000000
 41
0.000000
  0
VERTEX
  8
0
  6
CONTINUOUS
 10
4.438720
 20
1.906960
  0
VERTEX
  8
0
  6
CONTINUOUS
 10
4.441360
 20
2.632080
  0
VERTEX
  8
0
  6
CONTINUOUS
 10
4.447080
 20
2.574000
  0
VERTEX
  8
0
  6
CONTINUOUS
 10
4.444880
 20
1.848880
  0
VERTEX
  8
0
  6
CONTINUOUS
 10
4.438720
 20
1.906960
  0
SEQEND
  8
0
  0
SOLID
  8
0
 62
    15
 10
4.444880
 20
1.848880
 11
4.447080
 21
2.574000
 12
4.444880
 22
1.846680
 13
4.447080
 23
2.571800
  0
POLYLINE
  8
0
  6
CONTINUOUS
 66
     1
 40
0.000000
 41
0.000000
  0
VERTEX
  8
0
  6
CONTINUOUS
 10
4.444880
 20
1.848880
  0
VERTEX
  8
0
  6
CONTINUOUS
 10
4.447080
 20
2.574000
  0
VERTEX
  8
0
  6
CONTINUOUS
 10
4.447080
 20
2.571800
  0
VERTEX
  8
0
  6
CONTINUOUS
 10
4.444880
 20
1.846680
  0
VERTEX
  8
0
  6
CONTINUOUS
 10
4.444880
 20
1.848880
  0
SEQEND
  8
0
  0
SOLID
  8
0
 62
    15
 10
1.817640
 20
2.173600
 11
1.820280
 21
2.898720
 12
1.819840
 22
2.175800
 13
1.822040
 23
2.900920
  0
POLYLINE
  8
0
  6
CONTINUOUS
 66
     1
 40
0.000000
 41
0.000000
  0
VERTEX
  8
0
  6
CONTINUOUS
 10
1.817640
 20
2.173600
  0
VERTEX
  8
0
  6
CONTINUOUS
 10
1.820280
 20
2.898720
  0
VERTEX
  8
0
  6
CONTINUOUS
 10
1.822040
 20
2.900920
  0
VERTEX
  8
0
  6
CONTINUOUS
 10
1.819840
 20
2.175800
  0
VERTEX
  8
0
  6
CONTINUOUS
 10
1.817640
 20
2.173600
  0
SEQEND
  8
0
  0
SOLID
  8
0
 62
    15
 10
4.592720
 20
1.846680
 11
4.595360
 21
2.571800
 12
4.596680
 22
1.848880
 13
4.599320
 23
2.574000
  0
POLYLINE
  8
0
  6
CONTINUOUS
 66
     1
 40
0.000000
 41
0.000000
  0
VERTEX
  8
0
  6
CONTINUOUS
 10
4.592720
 20
1.846680
  0
VERTEX
  8
0
  6
CONTINUOUS
 10
4.595360
 20
2.571800
  0
VERTEX
  8
0
  6
CONTINUOUS
 10
4.599320
 20
2.574000
  0
VERTEX
  8
0
  6
CONTINUOUS
 10
4.596680
 20
1.848880
  0
VERTEX
  8
0
  6
CONTINUOUS
 10
4.592720
 20
1.846680
  0
SEQEND
  8
0
  0
SOLID
  8
0
 62
    15
 10
4.596680
 20
1.848880
 11
4.599320
 21
2.574000
 12
4.602840
 22
1.906960
 13
4.605480
 23
2.632080
  0
POLYLINE
  8
0
  6
CONTINUOUS
 66
     1
 40
0.000000
 41
0.000000
  0
VERTEX
  8
0
  6
CONTINUOUS
 10
4.596680
 20
1.848880
  0
VERTEX
  8
0
  6
CONTINUOUS
 10
4.599320
 20
2.574000
  0
VERTEX
  8
0
  6
CONTINUOUS
 10
4.605480
 20
2.632080
  0
VERTEX
  8
0
  6
CONTINUOUS
 10
4.602840
 20
1.906960
  0
VERTEX
  8
0
  6
CONTINUOUS
 10
4.596680
 20
1.848880
  0
SEQEND
  8
0
  0
SOLID
  8
0
 62
    15
 10
4.602840
 20
1.906960
 11
4.605480
 21
2.632080
 12
4.620000
 22
1.961080
 13
4.622640
 23
2.686200
  0
POLYLINE
  8
0
  6
CONTINUOUS
 66
     1
 40
0.000000
 41
0.000000
  0
VERTEX
  8
0
  6
CONTINUOUS
 10
4.602840
 20
1.906960
  0
VERTEX
  8
0
  6
CONTINUOUS
 10
4.605480
 20
2.632080
  0
VERTEX
  8
0
  6
CONTINUOUS
 10
4.622640
 20
2.686200
  0
VERTEX
  8
0
  6
CONTINUOUS
 10
4.620000
 20
1.961080
  0
VERTEX
  8
0
  6
CONTINUOUS
 10
4.602840
 20
1.906960
  0
SEQEND
  8
0
  0
SOLID
  8
0
 62
    15
 10
4.620000
 20
1.961080
 11
4.622640
 21
2.686200
 12
4.647280
 22
2.010800
 13
4.649920
 23
2.735920
  0
POLYLINE
  8
0
  6
CONTINUOUS
 66
     1
 40
0.000000
 41
0.000000
  0
VERTEX
  8
0
  6
CONTINUOUS
 10
4.620000
 20
1.961080
  0
VERTEX
  8
0
  6
CONTINUOUS
 10
4.622640
 20
2.686200
  0
VERTEX
  8
0
  6
CONTINUOUS
 10
4.649920
 20
2.735920
  0
VERTEX
  8
0
  6
CONTINUOUS
 10
4.647280
 20
2.010800
  0
VERTEX
  8
0
  6
CONTINUOUS
 10
4.620000
 20
1.961080
  0
SEQEND
  8
0
  0
SOLID
  8
0
 62
    15
 10
4.647280
 20
2.010800
 11
4.649920
 21
2.735920
 12
4.683360
 22
2.053920
 13
4.686000
 23
2.779040
  0
POLYLINE
  8
0
  6
CONTINUOUS
 66
     1
 40
0.000000
 41
0.000000
  0
VERTEX
  8
0
  6
CONTINUOUS
 10
4.647280
 20
2.010800
  0
VERTEX
  8
0
  6
CONTINUOUS
 10
4.649920
 20
2.735920
  0
VERTEX
  8
0
  6
CONTINUOUS
 10
4.686000
 20
2.779040
  0
VERTEX
  8
0
  6
CONTINUOUS
 10
4.683360
 20
2.053920
  0
VERTEX
  8
0
  6
CONTINUOUS
 10
4.647280
 20
2.010800
  0
SEQEND
  8
0
  0
SOLID
  8
0
 62
    15
 10
4.683360
 20
2.053920
 11
4.686000
 21
2.779040
 12
4.726480
 22
2.090000
 13
4.729120
 23
2.815120
  0
POLYLINE
  8
0
  6
CONTINUOUS
 66
     1
 40
0.000000
 41
0.000000
  0
VERTEX
  8
0
  6
CONTINUOUS
 10
4.683360
 20
2.053920
  0
VERTEX
  8
0
  6
CONTINUOUS
 10
4.686000
 20
2.779040
  0
VERTEX
  8
0
  6
CONTINUOUS
 10
4.729120
 20
2.815120
  0
VERTEX
  8
0
  6
CONTINUOUS
 10
4.726480
 20
2.090000
  0
VERTEX
  8
0
  6
CONTINUOUS
 10
4.683360
 20
2.053920
  0
SEQEND
  8
0
  0
SOLID
  8
0
 62
    15
 10
4.726480
 20
2.090000
 11
4.729120
 21
2.815120
 12
4.776200
 22
2.117280
 13
4.778840
 23
2.842400
  0
POLYLINE
  8
0
  6
CONTINUOUS
 66
     1
 40
0.000000
 41
0.000000
  0
VERTEX
  8
0
  6
CONTINUOUS
 10
4.726480
 20
2.090000
  0
VERTEX
  8
0
  6
CONTINUOUS
 10
4.729120
 20
2.815120
  0
VERTEX
  8
0
  6
CONTINUOUS
 10
4.778840
 20
2.842400
  0
VERTEX
  8
0
  6
CONTINUOUS
 10
4.776200
 20
2.117280
  0
VERTEX
  8
0
  6
CONTINUOUS
 10
4.726480
 20
2.090000
  0
SEQEND
  8
0
  0
SOLID
  8
0
 62
    15
 10
4.776200
 20
2.117280
 11
4.778840
 21
2.842400
 12
4.830760
 22
2.134440
 13
4.832960
 23
2.859560
  0
POLYLINE
  8
0
  6
CONTINUOUS
 66
     1
 40
0.000000
 41
0.000000
  0
VERTEX
  8
0
  6
CONTINUOUS
 10
4.776200
 20
2.117280
  0
VERTEX
  8
0
  6
CONTINUOUS
 10
4.778840
 20
2.842400
  0
VERTEX
  8
0
  6
CONTINUOUS
 10
4.832960
 20
2.859560
  0
VERTEX
  8
0
  6
CONTINUOUS
 10
4.830760
 20
2.134440
  0
VERTEX
  8
0
  6
CONTINUOUS
 10
4.776200
 20
2.117280
  0
SEQEND
  8
0
  0
SOLID
  8
0
 62
    15
 10
4.830760
 20
2.134440
 11
4.832960
 21
2.859560
 12
4.888400
 22
2.140600
 13
4.891040
 23
2.865720
  0
POLYLINE
  8
0
  6
CONTINUOUS
 66
     1
 40
0.000000
 41
0.000000
  0
VERTEX
  8
0
  6
CONTINUOUS
 10
4.830760
 20
2.134440
  0
VERTEX
  8
0
  6
CONTINUOUS
 10
4.832960
 20
2.859560
  0
VERTEX
  8
0
  6
CONTINUOUS
 10
4.891040
 20
2.865720
  0
VERTEX
  8
0
  6
CONTINUOUS
 10
4.888400
 20
2.140600
  0
VERTEX
  8
0
  6
CONTINUOUS
 10
4.830760
 20
2.134440
  0
SEQEND
  8
0
  0
SOLID
  8
0
 62
    15
 10
4.888400
 20
2.140600
 11
4.891040
 21
2.865720
 12
4.946480
 22
2.134440
 13
4.949120
 23
2.859560
  0
POLYLINE
  8
0
  6
CONTINUOUS
 66
     1
 40
0.000000
 41
0.000000
  0
VERTEX
  8
0
  6
CONTINUOUS
 10
4.888400
 20
2.140600
  0
VERTEX
  8
0
  6
CONTINUOUS
 10
4.891040
 20
2.865720
  0
VERTEX
  8
0
  6
CONTINUOUS
 10
4.949120
 20
2.859560
  0
VERTEX
  8
0
  6
CONTINUOUS
 10
4.946480
 20
2.134440
  0
VERTEX
  8
0
  6
CONTINUOUS
 10
4.888400
 20
2.140600
  0
SEQEND
  8
0
  0
SOLID
  8
0
 62
    15
 10
4.946480
 20
2.134440
 11
4.949120
 21
2.859560
 12
5.001040
 22
2.116840
 13
5.003240
 23
2.841960
  0
POLYLINE
  8
0
  6
CONTINUOUS
 66
     1
 40
0.000000
 41
0.000000
  0
VERTEX
  8
0
  6
CONTINUOUS
 10
4.946480
 20
2.134440
  0
VERTEX
  8
0
  6
CONTINUOUS
 10
4.949120
 20
2.859560
  0
VERTEX
  8
0
  6
CONTINUOUS
 10
5.003240
 20
2.841960
  0
VERTEX
  8
0
  6
CONTINUOUS
 10
5.001040
 20
2.116840
  0
VERTEX
  8
0
  6
CONTINUOUS
 10
4.946480
 20
2.134440
  0
SEQEND
  8
0
  0
SOLID
  8
0
 62
    15
 10
5.001040
 20
2.116840
 11
5.003240
 21
2.841960
 12
5.050320
 22
2.089120
 13
5.052960
 23
2.814240
  0
POLYLINE
  8
0
  6
CONTINUOUS
 66
     1
 40
0.000000
 41
0.000000
  0
VERTEX
  8
0
  6
CONTINUOUS
 10
5.001040
 20
2.116840
  0
VERTEX
  8
0
  6
CONTINUOUS
 10
5.003240
 20
2.841960
  0
VERTEX
  8
0
  6
CONTINUOUS
 10
5.052960
 20
2.814240
  0
VERTEX
  8
0
  6
CONTINUOUS
 10
5.050320
 20
2.089120
  0
VERTEX
  8
0
  6
CONTINUOUS
 10
5.001040
 20
2.116840
  0
SEQEND
  8
0
  0
SOLID
  8
0
 62
    15
 10
5.050320
 20
2.089120
 11
5.052960
 21
2.814240
 12
5.093880
 22
2.053040
 13
5.096080
 23
2.778160
  0
POLYLINE
  8
0
  6
CONTINUOUS
 66
     1
 40
0.000000
 41
0.000000
  0
VERTEX
  8
0
  6
CONTINUOUS
 10
5.050320
 20
2.089120
  0
VERTEX
  8
0
  6
CONTINUOUS
 10
5.052960
 20
2.814240
  0
VERTEX
  8
0
  6
CONTINUOUS
 10
5.096080
 20
2.778160
  0
VERTEX
  8
0
  6
CONTINUOUS
 10
5.093880
 20
2.053040
  0
VERTEX
  8
0
  6
CONTINUOUS
 10
5.050320
 20
2.089120
  0
SEQEND
  8
0
  0
SOLID
  8
0
 62
    15
 10
5.093880
 20
2.053040
 11
5.096080
 21
2.778160
 12
5.129520
 22
2.009480
 13
5.132160
 23
2.734160
  0
POLYLINE
  8
0
  6
CONTINUOUS
 66
     1
 40
0.000000
 41
0.000000
  0
VERTEX
  8
0
  6
CONTINUOUS
 10
5.093880
 20
2.053040
  0
VERTEX
  8
0
  6
CONTINUOUS
 10
5.096080
 20
2.778160
  0
VERTEX
  8
0
  6
CONTINUOUS
 10
5.132160
 20
2.734160
  0
VERTEX
  8
0
  6
CONTINUOUS
 10
5.129520
 20
2.009480
  0
VERTEX
  8
0
  6
CONTINUOUS
 10
5.093880
 20
2.053040
  0
SEQEND
  8
0
  0
SOLID
  8
0
 62
    15
 10
5.129520
 20
2.009480
 11
5.132160
 21
2.734160
 12
5.156800
 22
1.959320
 13
5.159440
 23
2.684440
  0
POLYLINE
  8
0
  6
CONTINUOUS
 66
     1
 40
0.000000
 41
0.000000
  0
VERTEX
  8
0
  6
CONTINUOUS
 10
5.129520
 20
2.009480
  0
VERTEX
  8
0
  6
CONTINUOUS
 10
5.132160
 20
2.734160
  0
VERTEX
  8
0
  6
CONTINUOUS
 10
5.159440
 20
2.684440
  0
VERTEX
  8
0
  6
CONTINUOUS
 10
5.156800
 20
1.959320
  0
VERTEX
  8
0
  6
CONTINUOUS
 10
5.129520
 20
2.009480
  0
SEQEND
  8
0
  0
SOLID
  8
0
 62
    15
 10
5.180120
 20
1.846680
 11
5.182760
 21
2.571800
 12
5.330160
 22
1.846680
 13
5.332800
 23
2.571800
  0
POLYLINE
  8
0
  6
CONTINUOUS
 66
     1
 40
0.000000
 41
0.000000
  0
VERTEX
  8
0
  6
CONTINUOUS
 10
5.180120
 20
1.846680
  0
VERTEX
  8
0
  6
CONTINUOUS
 10
5.182760
 20
2.571800
  0
VERTEX
  8
0
  6
CONTINUOUS
 10
5.332800
 20
2.571800
  0
VERTEX
  8
0
  6
CONTINUOUS
 10
5.330160
 20
1.846680
  0
VERTEX
  8
0
  6
CONTINUOUS
 10
5.180120
 20
1.846680
  0
SEQEND
  8
0
  0
SOLID
  8
0
 62
    15
 10
5.173960
 20
1.904760
 11
5.176600
 21
2.629880
 12
5.180120
 22
1.846680
 13
5.182760
 23
2.571800
  0
POLYLINE
  8
0
  6
CONTINUOUS
 66
     1
 40
0.000000
 41
0.000000
  0
VERTEX
  8
0
  6
CONTINUOUS
 10
5.173960
 20
1.904760
  0
VERTEX
  8
0
  6
CONTINUOUS
 10
5.176600
 20
2.629880
  0
VERTEX
  8
0
  6
CONTINUOUS
 10
5.182760
 20
2.571800
  0
VERTEX
  8
0
  6
CONTINUOUS
 10
5.180120
 20
1.846680
  0
VERTEX
  8
0
  6
CONTINUOUS
 10
5.173960
 20
1.904760
  0
SEQEND
  8
0
  0
SOLID
  8
0
 62
    15
 10
5.156800
 20
1.959320
 11
5.159440
 21
2.684440
 12
5.173960
 22
1.904760
 13
5.176600
 23
2.629880
  0
POLYLINE
  8
0
  6
CONTINUOUS
 66
     1
 40
0.000000
 41
0.000000
  0
VERTEX
  8
0
  6
CONTINUOUS
 10
5.156800
 20
1.959320
  0
VERTEX
  8
0
  6
CONTINUOUS
 10
5.159440
 20
2.684440
  0
VERTEX
  8
0
  6
CONTINUOUS
 10
5.176600
 20
2.629880
  0
VERTEX
  8
0
  6
CONTINUOUS
 10
5.173960
 20
1.904760
  0
VERTEX
  8
0
  6
CONTINUOUS
 10
5.156800
 20
1.959320
  0
SEQEND
  8
0
  0
SOLID
  8
0
 62
    15
 10
5.330160
 20
1.846680
 11
5.332800
 21
2.571800
 12
5.332360
 22
1.851080
 13
5.334560
 23
2.575760
  0
POLYLINE
  8
0
  6
CONTINUOUS
 66
     1
 40
0.000000
 41
0.000000
  0
VERTEX
  8
0
  6
CONTINUOUS
 10
5.330160
 20
1.846680
  0
VERTEX
  8
0
  6
CONTINUOUS
 10
5.332800
 20
2.571800
  0
VERTEX
  8
0
  6
CONTINUOUS
 10
5.334560
 20
2.575760
  0
VERTEX
  8
0
  6
CONTINUOUS
 10
5.332360
 20
1.851080
  0
VERTEX
  8
0
  6
CONTINUOUS
 10
5.330160
 20
1.846680
  0
SEQEND
  8
0
  0
SOLID
  8
0
 62
    15
 10
5.332360
 20
1.851080
 11
5.334560
 21
2.575760
 12
5.338520
 22
1.908720
 13
5.340720
 23
2.633840
  0
POLYLINE
  8
0
  6
CONTINUOUS
 66
     1
 40
0.000000
 41
0.000000
  0
VERTEX
  8
0
  6
CONTINUOUS
 10
5.332360
 20
1.851080
  0
VERTEX
  8
0
  6
CONTINUOUS
 10
5.334560
 20
2.575760
  0
VERTEX
  8
0
  6
CONTINUOUS
 10
5.340720
 20
2.633840
  0
VERTEX
  8
0
  6
CONTINUOUS
 10
5.338520
 20
1.908720
  0
VERTEX
  8
0
  6
CONTINUOUS
 10
5.332360
 20
1.851080
  0
SEQEND
  8
0
  0
SOLID
  8
0
 62
    15
 10
5.338520
 20
1.908720
 11
5.340720
 21
2.633840
 12
5.355680
 22
1.963280
 13
5.357880
 23
2.688400
  0
POLYLINE
  8
0
  6
CONTINUOUS
 66
     1
 40
0.000000
 41
0.000000
  0
VERTEX
  8
0
  6
CONTINUOUS
 10
5.338520
 20
1.908720
  0
VERTEX
  8
0
  6
CONTINUOUS
 10
5.340720
 20
2.633840
  0
VERTEX
  8
0
  6
CONTINUOUS
 10
5.357880
 20
2.688400
  0
VERTEX
  8
0
  6
CONTINUOUS
 10
5.355680
 20
1.963280
  0
VERTEX
  8
0
  6
CONTINUOUS
 10
5.338520
 20
1.908720
  0
SEQEND
  8
0
  0
SOLID
  8
0
 62
    15
 10
5.355680
 20
1.963280
 11
5.357880
 21
2.688400
 12
5.382960
 22
2.012560
 13
5.385160
 23
2.737680
  0
POLYLINE
  8
0
  6
CONTINUOUS
 66
     1
 40
0.000000
 41
0.000000
  0
VERTEX
  8
0
  6
CONTINUOUS
 10
5.355680
 20
1.963280
  0
VERTEX
  8
0
  6
CONTINUOUS
 10
5.357880
 20
2.688400
  0
VERTEX
  8
0
  6
CONTINUOUS
 10
5.385160
 20
2.737680
  0
VERTEX
  8
0
  6
CONTINUOUS
 10
5.382960
 20
2.012560
  0
VERTEX
  8
0
  6
CONTINUOUS
 10
5.355680
 20
1.963280
  0
SEQEND
  8
0
  0
SOLID
  8
0
 62
    15
 10
5.382960
 20
2.012560
 11
5.385160
 21
2.737680
 12
5.418600
 22
2.056120
 13
5.421240
 23
2.781240
  0
POLYLINE
  8
0
  6
CONTINUOUS
 66
     1
 40
0.000000
 41
0.000000
  0
VERTEX
  8
0
  6
CONTINUOUS
 10
5.382960
 20
2.012560
  0
VERTEX
  8
0
  6
CONTINUOUS
 10
5.385160
 20
2.737680
  0
VERTEX
  8
0
  6
CONTINUOUS
 10
5.421240
 20
2.781240
  0
VERTEX
  8
0
  6
CONTINUOUS
 10
5.418600
 20
2.056120
  0
VERTEX
  8
0
  6
CONTINUOUS
 10
5.382960
 20
2.012560
  0
SEQEND
  8
0
  0
SOLID
  8
0
 62
    15
 10
5.418600
 20
2.056120
 11
5.421240
 21
2.781240
 12
5.462160
 22
2.092200
 13
5.464360
 23
2.817320
  0
POLYLINE
  8
0
  6
CONTINUOUS
 66
     1
 40
0.000000
 41
0.000000
  0
VERTEX
  8
0
  6
CONTINUOUS
 10
5.418600
 20
2.056120
  0
VERTEX
  8
0
  6
CONTINUOUS
 10
5.421240
 20
2.781240
  0
VERTEX
  8
0
  6
CONTINUOUS
 10
5.464360
 20
2.817320
  0
VERTEX
  8
0
  6
CONTINUOUS
 10
5.462160
 20
2.092200
  0
VERTEX
  8
0
  6
CONTINUOUS
 10
5.418600
 20
2.056120
  0
SEQEND
  8
0
  0
SOLID
  8
0
 62
    15
 10
5.462160
 20
2.092200
 11
5.464360
 21
2.817320
 12
5.511440
 22
2.119040
 13
5.514080
 23
2.844160
  0
POLYLINE
  8
0
  6
CONTINUOUS
 66
     1
 40
0.000000
 41
0.000000
  0
VERTEX
  8
0
  6
CONTINUOUS
 10
5.462160
 20
2.092200
  0
VERTEX
  8
0
  6
CONTINUOUS
 10
5.464360
 20
2.817320
  0
VERTEX
  8
0
  6
CONTINUOUS
 10
5.514080
 20
2.844160
  0
VERTEX
  8
0
  6
CONTINUOUS
 10
5.511440
 20
2.119040
  0
VERTEX
  8
0
  6
CONTINUOUS
 10
5.462160
 20
2.092200
  0
SEQEND
  8
0
  0
SOLID
  8
0
 62
    15
 10
5.511440
 20
2.119040
 11
5.514080
 21
2.844160
 12
5.566000
 22
2.136640
 13
5.568200
 23
2.861760
  0
POLYLINE
  8
0
  6
CONTINUOUS
 66
     1
 40
0.000000
 41
0.000000
  0
VERTEX
  8
0
  6
CONTINUOUS
 10
5.511440
 20
2.119040
  0
VERTEX
  8
0
  6
CONTINUOUS
 10
5.514080
 20
2.844160
  0
VERTEX
  8
0
  6
CONTINUOUS
 10
5.568200
 20
2.861760
  0
VERTEX
  8
0
  6
CONTINUOUS
 10
5.566000
 20
2.136640
  0
VERTEX
  8
0
  6
CONTINUOUS
 10
5.511440
 20
2.119040
  0
SEQEND
  8
0
  0
SOLID
  8
0
 62
    15
 10
5.566000
 20
2.136640
 11
5.568200
 21
2.861760
 12
5.624080
 22
2.142360
 13
5.626280
 23
2.867480
  0
POLYLINE
  8
0
  6
CONTINUOUS
 66
     1
 40
0.000000
 41
0.000000
  0
VERTEX
  8
0
  6
CONTINUOUS
 10
5.566000
 20
2.136640
  0
VERTEX
  8
0
  6
CONTINUOUS
 10
5.568200
 20
2.861760
  0
VERTEX
  8
0
  6
CONTINUOUS
 10
5.626280
 20
2.867480
  0
VERTEX
  8
0
  6
CONTINUOUS
 10
5.624080
 20
2.142360
  0
VERTEX
  8
0
  6
CONTINUOUS
 10
5.566000
 20
2.136640
  0
SEQEND
  8
0
  0
SOLID
  8
0
 62
    15
 10
5.624080
 20
2.142360
 11
5.626280
 21
2.867480
 12
5.681720
 22
2.136640
 13
5.684360
 23
2.861760
  0
POLYLINE
  8
0
  6
CONTINUOUS
 66
     1
 40
0.000000
 41
0.000000
  0
VERTEX
  8
0
  6
CONTINUOUS
 10
5.624080
 20
2.142360
  0
VERTEX
  8
0
  6
CONTINUOUS
 10
5.626280
 20
2.867480
  0
VERTEX
  8
0
  6
CONTINUOUS
 10
5.684360
 20
2.861760
  0
VERTEX
  8
0
  6
CONTINUOUS
 10
5.681720
 20
2.136640
  0
VERTEX
  8
0
  6
CONTINUOUS
 10
5.624080
 20
2.142360
  0
SEQEND
  8
0
  0
SOLID
  8
0
 62
    15
 10
5.681720
 20
2.136640
 11
5.684360
 21
2.861760
 12
5.736280
 22
2.119040
 13
5.738920
 23
2.844160
  0
POLYLINE
  8
0
  6
CONTINUOUS
 66
     1
 40
0.000000
 41
0.000000
  0
VERTEX
  8
0
  6
CONTINUOUS
 10
5.681720
 20
2.136640
  0
VERTEX
  8
0
  6
CONTINUOUS
 10
5.684360
 20
2.861760
  0
VERTEX
  8
0
  6
CONTINUOUS
 10
5.738920
 20
2.844160
  0
VERTEX
  8
0
  6
CONTINUOUS
 10
5.736280
 20
2.119040
  0
VERTEX
  8
0
  6
CONTINUOUS
 10
5.681720
 20
2.136640
  0
SEQEND
  8
0
  0
SOLID
  8
0
 62
    15
 10
5.736280
 20
2.119040
 11
5.738920
 21
2.844160
 12
5.785560
 22
2.091320
 13
5.788200
 23
2.816440
  0
POLYLINE
  8
0
  6
CONTINUOUS
 66
     1
 40
0.000000
 41
0.000000
  0
VERTEX
  8
0
  6
CONTINUOUS
 10
5.736280
 20
2.119040
  0
VERTEX
  8
0
  6
CONTINUOUS
 10
5.738920
 20
2.844160
  0
VERTEX
  8
0
  6
CONTINUOUS
 10
5.788200
 20
2.816440
  0
VERTEX
  8
0
  6
CONTINUOUS
 10
5.785560
 20
2.091320
  0
VERTEX
  8
0
  6
CONTINUOUS
 10
5.736280
 20
2.119040
  0
SEQEND
  8
0
  0
SOLID
  8
0
 62
    15
 10
5.785560
 20
2.091320
 11
5.788200
 21
2.816440
 12
5.829120
 22
2.055240
 13
5.831760
 23
2.780360
  0
POLYLINE
  8
0
  6
CONTINUOUS
 66
     1
 40
0.000000
 41
0.000000
  0
VERTEX
  8
0
  6
CONTINUOUS
 10
5.785560
 20
2.091320
  0
VERTEX
  8
0
  6
CONTINUOUS
 10
5.788200
 20
2.816440
  0
VERTEX
  8
0
  6
CONTINUOUS
 10
5.831760
 20
2.780360
  0
VERTEX
  8
0
  6
CONTINUOUS
 10
5.829120
 20
2.055240
  0
VERTEX
  8
0
  6
CONTINUOUS
 10
5.785560
 20
2.091320
  0
SEQEND
  8
0
  0
SOLID
  8
0
 62
    15
 10
5.829120
 20
2.055240
 11
5.831760
 21
2.780360
 12
5.865200
 22
2.011240
 13
5.867400
 23
2.736360
  0
POLYLINE
  8
0
  6
CONTINUOUS
 66
     1
 40
0.000000
 41
0.000000
  0
VERTEX
  8
0
  6
CONTINUOUS
 10
5.829120
 20
2.055240
  0
VERTEX
  8
0
  6
CONTINUOUS
 10
5.831760
 20
2.780360
  0
VERTEX
  8
0
  6
CONTINUOUS
 10
5.867400
 20
2.736360
  0
VERTEX
  8
0
  6
CONTINUOUS
 10
5.865200
 20
2.011240
  0
VERTEX
  8
0
  6
CONTINUOUS
 10
5.829120
 20
2.055240
  0
SEQEND
  8
0
  0
SOLID
  8
0
 62
    15
 10
5.892040
 20
1.961520
 11
5.894680
 21
2.686640
 12
5.909640
 22
1.906960
 13
5.911840
 23
2.632080
  0
POLYLINE
  8
0
  6
CONTINUOUS
 66
     1
 40
0.000000
 41
0.000000
  0
VERTEX
  8
0
  6
CONTINUOUS
 10
5.892040
 20
1.961520
  0
VERTEX
  8
0
  6
CONTINUOUS
 10
5.894680
 20
2.686640
  0
VERTEX
  8
0
  6
CONTINUOUS
 10
5.911840
 20
2.632080
  0
VERTEX
  8
0
  6
CONTINUOUS
 10
5.909640
 20
1.906960
  0
VERTEX
  8
0
  6
CONTINUOUS
 10
5.892040
 20
1.961520
  0
SEQEND
  8
0
  0
SOLID
  8
0
 62
    15
 10
5.865200
 20
2.011240
 11
5.867400
 21
2.736360
 12
5.892040
 22
1.961520
 13
5.894680
 23
2.686640
  0
POLYLINE
  8
0
  6
CONTINUOUS
 66
     1
 40
0.000000
 41
0.000000
  0
VERTEX
  8
0
  6
CONTINUOUS
 10
5.865200
 20
2.011240
  0
VERTEX
  8
0
  6
CONTINUOUS
 10
5.867400
 20
2.736360
  0
VERTEX
  8
0
  6
CONTINUOUS
 10
5.894680
 20
2.686640
  0
VERTEX
  8
0
  6
CONTINUOUS
 10
5.892040
 20
1.961520
  0
VERTEX
  8
0
  6
CONTINUOUS
 10
5.865200
 20
2.011240
  0
SEQEND
  8
0
  0
SOLID
  8
0
 62
    15
 10
5.915800
 20
1.848880
 11
5.918000
 21
2.574000
 12
5.917560
 22
1.846680
 13
5.920200
 23
2.571800
  0
POLYLINE
  8
0
  6
CONTINUOUS
 66
     1
 40
0.000000
 41
0.000000
  0
VERTEX
  8
0
  6
CONTINUOUS
 10
5.915800
 20
1.848880
  0
VERTEX
  8
0
  6
CONTINUOUS
 10
5.918000
 20
2.574000
  0
VERTEX
  8
0
  6
CONTINUOUS
 10
5.920200
 20
2.571800
  0
VERTEX
  8
0
  6
CONTINUOUS
 10
5.917560
 20
1.846680
  0
VERTEX
  8
0
  6
CONTINUOUS
 10
5.915800
 20
1.848880
  0
SEQEND
  8
0
  0
SOLID
  8
0
 62
    15
 10
5.909640
 20
1.906960
 11
5.911840
 21
2.632080
 12
5.915800
 22
1.848880
 13
5.918000
 23
2.574000
  0
POLYLINE
  8
0
  6
CONTINUOUS
 66
     1
 40
0.000000
 41
0.000000
  0
VERTEX
  8
0
  6
CONTINUOUS
 10
5.909640
 20
1.906960
  0
VERTEX
  8
0
  6
CONTINUOUS
 10
5.911840
 20
2.632080
  0
VERTEX
  8
0
  6
CONTINUOUS
 10
5.918000
 20
2.574000
  0
VERTEX
  8
0
  6
CONTINUOUS
 10
5.915800
 20
1.848880
  0
VERTEX
  8
0
  6
CONTINUOUS
 10
5.909640
 20
1.906960
  0
SEQEND
  8
0
  0
SOLID
  8
0
 62
    15
 10
5.917560
 20
1.846680
 11
5.920200
 21
2.571800
 12
6.063640
 22
1.846680
 13
6.065840
 23
2.571800
  0
POLYLINE
  8
0
  6
CONTINUOUS
 66
     1
 40
0.000000
 41
0.000000
  0
VERTEX
  8
0
  6
CONTINUOUS
 10
5.917560
 20
1.846680
  0
VERTEX
  8
0
  6
CONTINUOUS
 10
5.920200
 20
2.571800
  0
VERTEX
  8
0
  6
CONTINUOUS
 10
6.065840
 20
2.571800
  0
VERTEX
  8
0
  6
CONTINUOUS
 10
6.063640
 20
1.846680
  0
VERTEX
  8
0
  6
CONTINUOUS
 10
5.917560
 20
1.846680
  0
SEQEND
  8
0
  0
SOLID
  8
0
 62
    15
 10
6.063640
 20
1.846680
 11
6.065840
 21
2.571800
 12
6.065840
 22
1.848880
 13
6.068040
 23
2.574000
  0
POLYLINE
  8
0
  6
CONTINUOUS
 66
     1
 40
0.000000
 41
0.000000
  0
VERTEX
  8
0
  6
CONTINUOUS
 10
6.063640
 20
1.846680
  0
VERTEX
  8
0
  6
CONTINUOUS
 10
6.065840
 20
2.571800
  0
VERTEX
  8
0
  6
CONTINUOUS
 10
6.068040
 20
2.574000
  0
VERTEX
  8
0
  6
CONTINUOUS
 10
6.065840
 20
1.848880
  0
VERTEX
  8
0
  6
CONTINUOUS
 10
6.063640
 20
1.846680
  0
SEQEND
  8
0
  0
SOLID
  8
0
 62
    15
 10
7.215560
 20
2.180200
 11
7.218200
 21
2.905320
 12
7.215560
 22
1.427800
 13
7.218200
 23
2.152920
  0
POLYLINE
  8
0
  6
CONTINUOUS
 66
     1
 40
0.000000
 41
0.000000
  0
VERTEX
  8
0
  6
CONTINUOUS
 10
7.215560
 20
2.180200
  0
VERTEX
  8
0
  6
CONTINUOUS
 10
7.218200
 20
2.905320
  0
VERTEX
  8
0
  6
CONTINUOUS
 10
7.218200
 20
2.152920
  0
VERTEX
  8
0
  6
CONTINUOUS
 10
7.215560
 20
1.427800
  0
VERTEX
  8
0
  6
CONTINUOUS
 10
7.215560
 20
2.180200
  0
SEQEND
  8
0
  0
SOLID
  8
0
 62
    15
 10
6.065840
 20
2.180200
 11
6.068040
 21
2.905320
 12
7.215560
 22
2.180200
 13
7.218200
 23
2.905320
  0
POLYLINE
  8
0
  6
CONTINUOUS
 66
     1
 40
0.000000
 41
0.000000
  0
VERTEX
  8
0
  6
CONTINUOUS
 10
6.065840
 20
2.180200
  0
VERTEX
  8
0
  6
CONTINUOUS
 10
6.068040
 20
2.905320
  0
VERTEX
  8
0
  6
CONTINUOUS
 10
7.218200
 20
2.905320
  0
VERTEX
  8
0
  6
CONTINUOUS
 10
7.215560
 20
2.180200
  0
VERTEX
  8
0
  6
CONTINUOUS
 10
6.065840
 20
2.180200
  0
SEQEND
  8
0
  0
SOLID
  8
0
 62
    15
 10
7.215560
 20
1.427800
 11
7.218200
 21
2.152920
 12
7.215560
 22
1.421640
 13
7.218200
 23
2.146760
  0
POLYLINE
  8
0
  6
CONTINUOUS
 66
     1
 40
0.000000
 41
0.000000
  0
VERTEX
  8
0
  6
CONTINUOUS
 10
7.215560
 20
1.427800
  0
VERTEX
  8
0
  6
CONTINUOUS
 10
7.218200
 20
2.152920
  0
VERTEX
  8
0
  6
CONTINUOUS
 10
7.218200
 20
2.146760
  0
VERTEX
  8
0
  6
CONTINUOUS
 10
7.215560
 20
1.421640
  0
VERTEX
  8
0
  6
CONTINUOUS
 10
7.215560
 20
1.427800
  0
SEQEND
  8
0
  0
POLYLINE
  8
0
  6
CONTINUOUS
 66
     1
 40
0.000000
 41
0.000000
  0
VERTEX
  8
0
  6
CONTINUOUS
 10
7.215560
 20
1.421640
  0
VERTEX
  8
0
  6
CONTINUOUS
 10
1.817640
 20
1.421640
  0
VERTEX
  8
0
  6
CONTINUOUS
 10
1.817640
 20
2.173600
  0
VERTEX
  8
0
  6
CONTINUOUS
 10
1.819840
 20
2.175800
  0
VERTEX
  8
0
  6
CONTINUOUS
 10
2.967800
 20
2.175800
  0
VERTEX
  8
0
  6
CONTINUOUS
 10
2.970000
 20
2.171840
  0
VERTEX
  8
0
  6
CONTINUOUS
 10
2.970000
 20
1.846680
  0
VERTEX
  8
0
  6
CONTINUOUS
 10
3.119600
 20
1.846680
  0
VERTEX
  8
0
  6
CONTINUOUS
 10
3.121800
 20
1.851080
  0
VERTEX
  8
0
  6
CONTINUOUS
 10
3.127960
 20
1.908720
  0
VERTEX
  8
0
  6
CONTINUOUS
 10
3.145120
 20
1.963280
  0
VERTEX
  8
0
  6
CONTINUOUS
 10
3.172400
 20
2.013000
  0
VERTEX
  8
0
  6
CONTINUOUS
 10
3.208480
 20
2.056120
  0
VERTEX
  8
0
  6
CONTINUOUS
 10
3.251600
 20
2.092200
  0
VERTEX
  8
0
  6
CONTINUOUS
 10
3.301320
 20
2.119480
  0
VERTEX
  8
0
  6
CONTINUOUS
 10
3.355440
 20
2.136640
  0
VERTEX
  8
0
  6
CONTINUOUS
 10
3.413520
 20
2.142360
  0
VERTEX
  8
0
  6
CONTINUOUS
 10
3.471600
 20
2.136200
  0
VERTEX
  8
0
  6
CONTINUOUS
 10
3.525720
 20
2.119040
  0
VERTEX
  8
0
  6
CONTINUOUS
 10
3.575440
 20
2.091320
  0
VERTEX
  8
0
  6
CONTINUOUS
 10
3.618560
 20
2.055240
  0
VERTEX
  8
0
  6
CONTINUOUS
 10
3.654640
 20
2.011240
  0
VERTEX
  8
0
  6
CONTINUOUS
 10
3.681920
 20
1.961520
  0
VERTEX
  8
0
  6
CONTINUOUS
 10
3.699080
 20
1.906960
  0
VERTEX
  8
0
  6
CONTINUOUS
 10
3.705240
 20
1.846680
  0
VERTEX
  8
0
  6
CONTINUOUS
 10
3.859240
 20
1.846680
  0
VERTEX
  8
0
  6
CONTINUOUS
 10
3.861440
 20
1.851080
  0
VERTEX
  8
0
  6
CONTINUOUS
 10
3.867600
 20
1.908720
  0
VERTEX
  8
0
  6
CONTINUOUS
 10
3.884760
 20
1.963280
  0
VERTEX
  8
0
  6
CONTINUOUS
 10
3.912040
 20
2.012560
  0
VERTEX
  8
0
  6
CONTINUOUS
 10
3.948120
 20
2.056120
  0
VERTEX
  8
0
  6
CONTINUOUS
 10
3.991240
 20
2.092200
  0
VERTEX
  8
0
  6
CONTINUOUS
 10
4.040960
 20
2.119040
  0
VERTEX
  8
0
  6
CONTINUOUS
 10
4.095080
 20
2.136640
  0
VERTEX
  8
0
  6
CONTINUOUS
 10
4.153160
 20
2.142360
  0
VERTEX
  8
0
  6
CONTINUOUS
 10
4.211240
 20
2.136200
  0
VERTEX
  8
0
  6
CONTINUOUS
 10
4.265360
 20
2.119040
  0
VERTEX
  8
0
  6
CONTINUOUS
 10
4.315080
 20
2.091320
  0
VERTEX
  8
0
  6
CONTINUOUS
 10
4.358200
 20
2.055240
  0
VERTEX
  8
0
  6
CONTINUOUS
 10
4.394280
 20
2.011240
  0
VERTEX
  8
0
  6
CONTINUOUS
 10
4.421560
 20
1.961520
  0
VERTEX
  8
0
  6
CONTINUOUS
 10
4.438720
 20
1.906960
  0
VERTEX
  8
0
  6
CONTINUOUS
 10
4.444880
 20
1.846680
  0
VERTEX
  8
0
  6
CONTINUOUS
 10
4.592720
 20
1.846680
  0
VERTEX
  8
0
  6
CONTINUOUS
 10
4.596680
 20
1.848880
  0
VERTEX
  8
0
  6
CONTINUOUS
 10
4.602840
 20
1.906960
  0
VERTEX
  8
0
  6
CONTINUOUS
 10
4.620000
 20
1.961080
  0
VERTEX
  8
0
  6
CONTINUOUS
 10
4.647280
 20
2.010800
  0
VERTEX
  8
0
  6
CONTINUOUS
 10
4.683360
 20
2.053920
  0
VERTEX
  8
0
  6
CONTINUOUS
 10
4.726480
 20
2.090000
  0
VERTEX
  8
0
  6
CONTINUOUS
 10
4.776200
 20
2.117280
  0
VERTEX
  8
0
  6
CONTINUOUS
 10
4.830760
 20
2.134440
  0
VERTEX
  8
0
  6
CONTINUOUS
 10
4.888400
 20
2.140600
  0
VERTEX
  8
0
  6
CONTINUOUS
 10
4.946480
 20
2.134440
  0
VERTEX
  8
0
  6
CONTINUOUS
 10
5.001040
 20
2.116840
  0
VERTEX
  8
0
  6
CONTINUOUS
 10
5.050320
 20
2.089120
  0
VERTEX
  8
0
  6
CONTINUOUS
 10
5.093880
 20
2.053040
  0
VERTEX
  8
0
  6
CONTINUOUS
 10
5.129520
 20
2.009480
  0
VERTEX
  8
0
  6
CONTINUOUS
 10
5.156800
 20
1.959320
  0
VERTEX
  8
0
  6
CONTINUOUS
 10
5.173960
 20
1.904760
  0
VERTEX
  8
0
  6
CONTINUOUS
 10
5.180120
 20
1.846680
  0
VERTEX
  8
0
  6
CONTINUOUS
 10
5.330160
 20
1.846680
  0
VERTEX
  8
0
  6
CONTINUOUS
 10
5.332360
 20
1.851080
  0
VERTEX
  8
0
  6
CONTINUOUS
 10
5.338520
 20
1.908720
  0
VERTEX
  8
0
  6
CONTINUOUS
 10
5.355680
 20
1.963280
  0
VERTEX
  8
0
  6
CONTINUOUS
 10
5.382960
 20
2.012560
  0
VERTEX
  8
0
  6
CONTINUOUS
 10
5.418600
 20
2.056120
  0
VERTEX
  8
0
  6
CONTINUOUS
 10
5.462160
 20
2.092200
  0
VERTEX
  8
0
  6
CONTINUOUS
 10
5.511440
 20
2.119040
  0
VERTEX
  8
0
  6
CONTINUOUS
 10
5.566000
 20
2.136640
  0
VERTEX
  8
0
  6
CONTINUOUS
 10
5.624080
 20
2.142360
  0
VERTEX
  8
0
  6
CONTINUOUS
 10
5.681720
 20
2.136640
  0
VERTEX
  8
0
  6
CONTINUOUS
 10
5.736280
 20
2.119040
  0
VERTEX
  8
0
  6
CONTINUOUS
 10
5.785560
 20
2.091320
  0
VERTEX
  8
0
  6
CONTINUOUS
 10
5.829120
 20
2.055240
  0
VERTEX
  8
0
  6
CONTINUOUS
 10
5.865200
 20
2.011240
  0
VERTEX
  8
0
  6
CONTINUOUS
 10
5.892040
 20
1.961520
  0
VERTEX
  8
0
  6
CONTINUOUS
 10
5.909640
 20
1.906960
  0
VERTEX
  8
0
  6
CONTINUOUS
 10
5.915800
 20
1.848880
  0
VERTEX
  8
0
  6
CONTINUOUS
 10
5.917560
 20
1.846680
  0
VERTEX
  8
0
  6
CONTINUOUS
 10
6.063640
 20
1.846680
  0
VERTEX
  8
0
  6
CONTINUOUS
 10
6.065840
 20
1.848880
  0
VERTEX
  8
0
  6
CONTINUOUS
 10
6.065840
 20
2.180200
  0
VERTEX
  8
0
  6
CONTINUOUS
 10
7.215560
 20
2.180200
  0
VERTEX
  8
0
  6
CONTINUOUS
 10
7.215560
 20
1.421640
  0
SEQEND
  8
0
  0
TEXT
  8
0
 10
4.222240
 20
1.157640
 40
0.138132
  1
BA  549
 41
1.000000
  7
SN0
 71
     0
 72
     5
 11
4.813020
 21
1.157640
  0
TEXT
  8
0
 10
4.066480
 20
0.965800
 40
0.138132
  1
3/4" x 5-3/8"
 41
1.000000
  7
SN0
 71
     0
 72
     5
 11
4.967801
 21
0.965800
  0
ENDSEC
  0
EOF
