  0
SECTION
  2
HEADER
  9
$ACADVER
  1
AC1006
  9
$EXTMIN
 10
3.437720
 20
0.661320
  9
$EXTMAX
 10
7.135480
 20
3.902360
  9
$LTSCALE
 40
0.044000
  9
$PDMODE
 70
    35
  9
$PDSIZE
 40
0.035200
  0
ENDSEC
  0
SECTION
  2
TABLES
  0
TABLE
  2
LTYPE
 70
     9
  0
LTYPE
  2
CONTINUOUS
 70
    64
  3
Solid line
 72
    65
 73
     0
 40
0.000000
  0
LTYPE
  2
DASHED
 70
    64
  3
__ __ __ __ __ __ __ __ __ __ __ __ __ __ __
 72
    65
 73
     2
 40
0.000330
 49
0.000220
 49
-0.000110
  0
LTYPE
  2
HIDDEN
 70
    64
  3
 _ _ _ _ _ _ _ _ _ _ _ _ _ _ _ _ _ _ _ _ _ _
 72
    65
 73
     2
 40
0.000165
 49
0.000110
 49
-0.000055
  0
LTYPE
  2
CENTER
 70
    64
  3
____ _ ____ _ ____ _ ____ _ ____ _ ____ _ ____
 72
    65
 73
     4
 40
0.000880
 49
0.000550
 49
-0.000110
 49
0.000110
 49
-0.000110
  0
LTYPE
  2
PHANTOM
 70
    64
  3
_____ _ _ _____ _ _ _____ _ _ _____ _ _ ____
 72
    65
 73
     6
 40
0.001100
 49
0.000550
 49
-0.000110
 49
0.000110
 49
-0.000110
 49
0.000110
 49
-0.000110
  0
LTYPE
  2
DOT
 70
    64
  3
...............................................
 72
    65
 73
     2
 40
0.000110
 49
0.000000
 49
-0.000110
  0
LTYPE
  2
DASHDOT
 70
    64
  3
__ . __ . __ . __ . __ . __ . __ . __ . __ . __
 72
    65
 73
     4
 40
0.000440
 49
0.000220
 49
-0.000110
 49
0.000000
 49
-0.000110
  0
LTYPE
  2
BORDER
 70
    64
  3
__ __ . __ __ . __ __ . __ __ . __ __ . __ __
 72
    65
 73
     6
 40
0.000770
 49
0.000220
 49
-0.000110
 49
0.000220
 49
-0.000110
 49
0.000000
 49
-0.000110
  0
LTYPE
  2
DIVIDE
 70
    64
  3
__ . . __ . . __ . . __ . . __ . . __ . . __
 72
    65
 73
     6
 40
0.000550
 49
0.000220
 49
-0.000110
 49
0.000000
 49
-0.000110
 49
0.000000
 49
-0.000110
  0
LTYPE
  2
DOTDOT
 70
    64
  3
 . .  . .  . .  . .  . .  . . 
 72
    65
 73
     5
 40
0.000242
 49
-0.000110
 49
0.000000
 49
-0.000110
 49
0.000000
 49
-0.000110
  0
ENDTAB
  0
TABLE
  2
STYLE
 70
     2
  0
STYLE
 70
     0
  2
SN0
 40
0.000000
 41
0.000440
 50
0.000000
 71
     0
 42
0.000000
  3
ROMAND
  0
STYLE
 70
    68
  2
SV0
 40
0.000000
 41
0.000440
 50
0.000000
 71
     0
 42
0.000000
  3
ROMAND
  0
ENDTAB
  0
TABLE
  2
LAYER
 70
     3
  0
LAYER
  2
FOREGROUND
 70
    64
 62
     7
  6
CONTINUOUS
  0
LAYER
  2
BACKGROUND
 70
    65
 62
    -7
  6
CONTINUOUS
  0
LAYER
  2
0
 70
    64
 62
     7
  6
CONTINUOUS
  0
ENDTAB
  0
ENDSEC
  0
SECTION
  2
ENTITIES
  0
POLYLINE
  8
FOREGROUND
  6
CONTINUOUS
 66
     1
 40
0.000000
 41
0.000000
  0
VERTEX
  8
FOREGROUND
  6
CONTINUOUS
 10
0.000000
 20
4.563680
  0
VERTEX
  8
FOREGROUND
  6
CONTINUOUS
 10
8.499920
 20
4.563680
  0
VERTEX
  8
FOREGROUND
  6
CONTINUOUS
 10
8.499920
 20
-6.436320
  0
VERTEX
  8
FOREGROUND
  6
CONTINUOUS
 10
0.000000
 20
-6.436320
  0
VERTEX
  8
FOREGROUND
  6
CONTINUOUS
 10
0.000000
 20
4.563680
  0
SEQEND
  8
0
  0
POLYLINE
  8
FOREGROUND
  6
CONTINUOUS
 66
     1
 40
0.000000
 41
0.000000
  0
VERTEX
  8
FOREGROUND
  6
CONTINUOUS
 10
0.000000
 20
4.563680
  0
VERTEX
  8
FOREGROUND
  6
CONTINUOUS
 10
8.499920
 20
4.563680
  0
VERTEX
  8
FOREGROUND
  6
CONTINUOUS
 10
8.499920
 20
-6.436320
  0
VERTEX
  8
FOREGROUND
  6
CONTINUOUS
 10
0.000000
 20
-6.436320
  0
VERTEX
  8
FOREGROUND
  6
CONTINUOUS
 10
0.000000
 20
4.563680
  0
SEQEND
  8
0
  0
POLYLINE
  8
0
  6
CONTINUOUS
 66
     1
 40
0.014080
 41
0.014080
  0
VERTEX
  8
0
  6
CONTINUOUS
 10
3.446080
 20
3.782680
  0
VERTEX
  8
0
  6
CONTINUOUS
 10
3.448280
 20
3.810400
  0
VERTEX
  8
0
  6
CONTINUOUS
 10
3.454440
 20
3.832840
  0
VERTEX
  8
0
  6
CONTINUOUS
 10
3.460600
 20
3.845600
  0
VERTEX
  8
0
  6
CONTINUOUS
 10
3.467640
 20
3.856160
  0
VERTEX
  8
0
  6
CONTINUOUS
 10
3.484800
 20
3.872880
  0
VERTEX
  8
0
  6
CONTINUOUS
 10
3.504600
 20
3.883880
  0
VERTEX
  8
0
  6
CONTINUOUS
 10
3.525280
 20
3.890480
  0
VERTEX
  8
0
  6
CONTINUOUS
 10
3.562240
 20
3.894880
  0
VERTEX
  8
0
  6
CONTINUOUS
 10
3.904560
 20
3.894880
  0
VERTEX
  8
0
  6
CONTINUOUS
 10
3.912920
 20
3.873320
  0
VERTEX
  8
0
  6
CONTINUOUS
 10
3.927000
 20
3.849560
  0
VERTEX
  8
0
  6
CONTINUOUS
 10
3.953400
 20
3.816560
  0
VERTEX
  8
0
  6
CONTINUOUS
 10
3.987720
 20
3.782240
  0
VERTEX
  8
0
  6
CONTINUOUS
 10
4.028200
 20
3.749680
  0
VERTEX
  8
0
  6
CONTINUOUS
 10
4.073520
 20
3.719760
  0
VERTEX
  8
0
  6
CONTINUOUS
 10
4.122800
 20
3.694240
  0
VERTEX
  8
0
  6
CONTINUOUS
 10
4.173840
 20
3.675320
  0
VERTEX
  8
0
  6
CONTINUOUS
 10
4.199800
 20
3.668720
  0
VERTEX
  8
0
  6
CONTINUOUS
 10
4.215200
 20
3.689840
  0
VERTEX
  8
0
  6
CONTINUOUS
 10
4.251280
 20
3.727240
  0
VERTEX
  8
0
  6
CONTINUOUS
 10
4.271520
 20
3.744400
  0
VERTEX
  8
0
  6
CONTINUOUS
 10
4.316400
 20
3.773880
  0
VERTEX
  8
0
  6
CONTINUOUS
 10
4.340600
 20
3.786640
  0
VERTEX
  8
0
  6
CONTINUOUS
 10
4.391200
 20
3.807760
  0
VERTEX
  8
0
  6
CONTINUOUS
 10
4.445760
 20
3.823600
  0
VERTEX
  8
0
  6
CONTINUOUS
 10
4.502080
 20
3.833720
  0
VERTEX
  8
0
  6
CONTINUOUS
 10
4.559280
 20
3.838560
  0
VERTEX
  8
0
  6
CONTINUOUS
 10
4.588320
 20
3.839000
  0
VERTEX
  8
0
  6
CONTINUOUS
 10
4.645960
 20
3.835920
  0
VERTEX
  8
0
  6
CONTINUOUS
 10
4.674560
 20
3.832400
  0
VERTEX
  8
0
  6
CONTINUOUS
 10
4.730440
 20
3.820960
  0
VERTEX
  8
0
  6
CONTINUOUS
 10
4.757720
 20
3.813480
  0
VERTEX
  8
0
  6
CONTINUOUS
 10
4.809200
 20
3.794120
  0
VERTEX
  8
0
  6
CONTINUOUS
 10
4.857160
 20
3.769480
  0
VERTEX
  8
0
  6
CONTINUOUS
 10
4.879600
 20
3.754960
  0
VERTEX
  8
0
  6
CONTINUOUS
 10
4.919640
 20
3.722400
  0
VERTEX
  8
0
  6
CONTINUOUS
 10
4.937680
 20
3.703920
  0
VERTEX
  8
0
  6
CONTINUOUS
 10
4.953960
 20
3.684560
  0
VERTEX
  8
0
  6
CONTINUOUS
 10
4.968480
 20
3.663440
  0
VERTEX
  8
0
  6
CONTINUOUS
 10
5.008520
 20
3.702600
  0
VERTEX
  8
0
  6
CONTINUOUS
 10
5.047680
 20
3.728560
  0
VERTEX
  8
0
  6
CONTINUOUS
 10
5.073200
 20
3.739560
  0
VERTEX
  8
0
  6
CONTINUOUS
 10
5.098280
 20
3.746160
  0
VERTEX
  8
0
  6
CONTINUOUS
 10
5.122040
 20
3.748360
  0
VERTEX
  8
0
  6
CONTINUOUS
 10
5.144480
 20
3.746600
  0
VERTEX
  8
0
  6
CONTINUOUS
 10
5.166040
 20
3.741760
  0
VERTEX
  8
0
  6
CONTINUOUS
 10
5.195960
 20
3.728560
  0
VERTEX
  8
0
  6
CONTINUOUS
 10
5.221920
 20
3.710080
  0
VERTEX
  8
0
  6
CONTINUOUS
 10
5.237320
 20
3.696000
  0
VERTEX
  8
0
  6
CONTINUOUS
 10
5.250520
 20
3.680160
  0
VERTEX
  8
0
  6
CONTINUOUS
 10
5.261520
 20
3.663440
  0
VERTEX
  8
0
  6
CONTINUOUS
 10
5.270320
 20
3.645840
  0
VERTEX
  8
0
  6
CONTINUOUS
 10
5.276480
 20
3.628680
  0
VERTEX
  8
0
  6
CONTINUOUS
 10
5.425200
 20
3.628680
  0
VERTEX
  8
0
  6
CONTINUOUS
 10
5.437520
 20
3.554760
  0
VERTEX
  8
0
  6
CONTINUOUS
 10
6.520800
 20
3.554760
  0
VERTEX
  8
0
  6
CONTINUOUS
 10
6.537960
 20
3.465880
  0
VERTEX
  8
0
  6
CONTINUOUS
 10
6.559960
 20
3.471160
  0
VERTEX
  8
0
  6
CONTINUOUS
 10
6.582400
 20
3.474240
  0
VERTEX
  8
0
  6
CONTINUOUS
 10
6.604840
 20
3.475120
  0
VERTEX
  8
0
  6
CONTINUOUS
 10
6.627720
 20
3.473800
  0
VERTEX
  8
0
  6
CONTINUOUS
 10
6.649720
 20
3.470720
  0
VERTEX
  8
0
  6
CONTINUOUS
 10
6.671280
 20
3.465000
  0
VERTEX
  8
0
  6
CONTINUOUS
 10
6.691960
 20
3.457520
  0
VERTEX
  8
0
  6
CONTINUOUS
 10
6.721000
 20
3.442120
  0
VERTEX
  8
0
  6
CONTINUOUS
 10
6.746080
 20
3.422320
  0
VERTEX
  8
0
  6
CONTINUOUS
 10
6.767200
 20
3.398560
  0
VERTEX
  8
0
  6
CONTINUOUS
 10
6.783040
 20
3.370400
  0
VERTEX
  8
0
  6
CONTINUOUS
 10
6.790080
 20
3.349280
  0
VERTEX
  8
0
  6
CONTINUOUS
 10
6.794040
 20
3.326840
  0
VERTEX
  8
0
  6
CONTINUOUS
 10
6.794920
 20
3.302200
  0
VERTEX
  8
0
  6
CONTINUOUS
 10
7.059800
 20
3.302200
  0
VERTEX
  8
0
  6
CONTINUOUS
 10
7.059800
 20
3.153040
  0
VERTEX
  8
0
  6
CONTINUOUS
 10
3.445200
 20
3.153040
  0
VERTEX
  8
0
  6
CONTINUOUS
 10
3.445200
 20
3.782680
  0
VERTEX
  8
0
  6
CONTINUOUS
 10
3.446080
 20
3.782680
  0
SEQEND
  8
0
  0
SOLID
  8
0
 62
    15
 10
4.932400
 20
1.763520
 11
4.932840
 21
2.500960
 12
4.975520
 22
1.733600
 13
4.975960
 23
2.471040
  0
POLYLINE
  8
0
  6
CONTINUOUS
 66
     1
 40
0.000000
 41
0.000000
  0
VERTEX
  8
0
  6
CONTINUOUS
 10
4.932400
 20
1.763520
  0
VERTEX
  8
0
  6
CONTINUOUS
 10
4.932840
 20
2.500960
  0
VERTEX
  8
0
  6
CONTINUOUS
 10
4.975960
 20
2.471040
  0
VERTEX
  8
0
  6
CONTINUOUS
 10
4.975520
 20
1.733600
  0
VERTEX
  8
0
  6
CONTINUOUS
 10
4.932400
 20
1.763520
  0
SEQEND
  8
0
  0
SOLID
  8
0
 62
    15
 10
3.520880
 20
1.776280
 11
3.520880
 21
2.513720
 12
3.521320
 22
1.776280
 13
3.521760
 23
2.513720
  0
POLYLINE
  8
0
  6
CONTINUOUS
 66
     1
 40
0.000000
 41
0.000000
  0
VERTEX
  8
0
  6
CONTINUOUS
 10
3.520880
 20
1.776280
  0
VERTEX
  8
0
  6
CONTINUOUS
 10
3.520880
 20
2.513720
  0
VERTEX
  8
0
  6
CONTINUOUS
 10
3.521760
 20
2.513720
  0
VERTEX
  8
0
  6
CONTINUOUS
 10
3.521320
 20
1.776280
  0
VERTEX
  8
0
  6
CONTINUOUS
 10
3.520880
 20
1.776280
  0
SEQEND
  8
0
  0
SOLID
  8
0
 62
    15
 10
3.535400
 20
1.839640
 11
3.535840
 21
2.577080
 12
3.550800
 22
1.859440
 13
3.551240
 23
2.596880
  0
POLYLINE
  8
0
  6
CONTINUOUS
 66
     1
 40
0.000000
 41
0.000000
  0
VERTEX
  8
0
  6
CONTINUOUS
 10
3.535400
 20
1.839640
  0
VERTEX
  8
0
  6
CONTINUOUS
 10
3.535840
 20
2.577080
  0
VERTEX
  8
0
  6
CONTINUOUS
 10
3.551240
 20
2.596880
  0
VERTEX
  8
0
  6
CONTINUOUS
 10
3.550800
 20
1.859440
  0
VERTEX
  8
0
  6
CONTINUOUS
 10
3.535400
 20
1.839640
  0
SEQEND
  8
0
  0
SOLID
  8
0
 62
    15
 10
3.550800
 20
1.859440
 11
3.551240
 21
2.596880
 12
3.569720
 22
1.873080
 13
3.570160
 23
2.610520
  0
POLYLINE
  8
0
  6
CONTINUOUS
 66
     1
 40
0.000000
 41
0.000000
  0
VERTEX
  8
0
  6
CONTINUOUS
 10
3.550800
 20
1.859440
  0
VERTEX
  8
0
  6
CONTINUOUS
 10
3.551240
 20
2.596880
  0
VERTEX
  8
0
  6
CONTINUOUS
 10
3.570160
 20
2.610520
  0
VERTEX
  8
0
  6
CONTINUOUS
 10
3.569720
 20
1.873080
  0
VERTEX
  8
0
  6
CONTINUOUS
 10
3.550800
 20
1.859440
  0
SEQEND
  8
0
  0
SOLID
  8
0
 62
    15
 10
3.569720
 20
1.873080
 11
3.570160
 21
2.610520
 12
3.589960
 22
1.881440
 13
3.590400
 23
2.618880
  0
POLYLINE
  8
0
  6
CONTINUOUS
 66
     1
 40
0.000000
 41
0.000000
  0
VERTEX
  8
0
  6
CONTINUOUS
 10
3.569720
 20
1.873080
  0
VERTEX
  8
0
  6
CONTINUOUS
 10
3.570160
 20
2.610520
  0
VERTEX
  8
0
  6
CONTINUOUS
 10
3.590400
 20
2.618880
  0
VERTEX
  8
0
  6
CONTINUOUS
 10
3.589960
 20
1.881440
  0
VERTEX
  8
0
  6
CONTINUOUS
 10
3.569720
 20
1.873080
  0
SEQEND
  8
0
  0
SOLID
  8
0
 62
    15
 10
3.589960
 20
1.881440
 11
3.590400
 21
2.618880
 12
3.610640
 22
1.886280
 13
3.611080
 23
2.623720
  0
POLYLINE
  8
0
  6
CONTINUOUS
 66
     1
 40
0.000000
 41
0.000000
  0
VERTEX
  8
0
  6
CONTINUOUS
 10
3.589960
 20
1.881440
  0
VERTEX
  8
0
  6
CONTINUOUS
 10
3.590400
 20
2.618880
  0
VERTEX
  8
0
  6
CONTINUOUS
 10
3.611080
 20
2.623720
  0
VERTEX
  8
0
  6
CONTINUOUS
 10
3.610640
 20
1.886280
  0
VERTEX
  8
0
  6
CONTINUOUS
 10
3.589960
 20
1.881440
  0
SEQEND
  8
0
  0
SOLID
  8
0
 62
    15
 10
3.610640
 20
1.886280
 11
3.611080
 21
2.623720
 12
3.629560
 22
1.888480
 13
3.629560
 23
2.625920
  0
POLYLINE
  8
0
  6
CONTINUOUS
 66
     1
 40
0.000000
 41
0.000000
  0
VERTEX
  8
0
  6
CONTINUOUS
 10
3.610640
 20
1.886280
  0
VERTEX
  8
0
  6
CONTINUOUS
 10
3.611080
 20
2.623720
  0
VERTEX
  8
0
  6
CONTINUOUS
 10
3.629560
 20
2.625920
  0
VERTEX
  8
0
  6
CONTINUOUS
 10
3.629560
 20
1.888480
  0
VERTEX
  8
0
  6
CONTINUOUS
 10
3.610640
 20
1.886280
  0
SEQEND
  8
0
  0
SOLID
  8
0
 62
    15
 10
3.629560
 20
1.888480
 11
3.629560
 21
2.625920
 12
3.644960
 22
1.888480
 13
3.645400
 23
2.625920
  0
POLYLINE
  8
0
  6
CONTINUOUS
 66
     1
 40
0.000000
 41
0.000000
  0
VERTEX
  8
0
  6
CONTINUOUS
 10
3.629560
 20
1.888480
  0
VERTEX
  8
0
  6
CONTINUOUS
 10
3.629560
 20
2.625920
  0
VERTEX
  8
0
  6
CONTINUOUS
 10
3.645400
 20
2.625920
  0
VERTEX
  8
0
  6
CONTINUOUS
 10
3.644960
 20
1.888480
  0
VERTEX
  8
0
  6
CONTINUOUS
 10
3.629560
 20
1.888480
  0
SEQEND
  8
0
  0
SOLID
  8
0
 62
    15
 10
3.644960
 20
1.888480
 11
3.645400
 21
2.625920
 12
3.979800
 22
1.888480
 13
3.980240
 23
2.625920
  0
POLYLINE
  8
0
  6
CONTINUOUS
 66
     1
 40
0.000000
 41
0.000000
  0
VERTEX
  8
0
  6
CONTINUOUS
 10
3.644960
 20
1.888480
  0
VERTEX
  8
0
  6
CONTINUOUS
 10
3.645400
 20
2.625920
  0
VERTEX
  8
0
  6
CONTINUOUS
 10
3.980240
 20
2.625920
  0
VERTEX
  8
0
  6
CONTINUOUS
 10
3.979800
 20
1.888480
  0
VERTEX
  8
0
  6
CONTINUOUS
 10
3.644960
 20
1.888480
  0
SEQEND
  8
0
  0
SOLID
  8
0
 62
    15
 10
3.979800
 20
1.888480
 11
3.980240
 21
2.625920
 12
3.992560
 22
1.859440
 13
3.992560
 23
2.596880
  0
POLYLINE
  8
0
  6
CONTINUOUS
 66
     1
 40
0.000000
 41
0.000000
  0
VERTEX
  8
0
  6
CONTINUOUS
 10
3.979800
 20
1.888480
  0
VERTEX
  8
0
  6
CONTINUOUS
 10
3.980240
 20
2.625920
  0
VERTEX
  8
0
  6
CONTINUOUS
 10
3.992560
 20
2.596880
  0
VERTEX
  8
0
  6
CONTINUOUS
 10
3.992560
 20
1.859440
  0
VERTEX
  8
0
  6
CONTINUOUS
 10
3.979800
 20
1.888480
  0
SEQEND
  8
0
  0
SOLID
  8
0
 62
    15
 10
3.992560
 20
1.859440
 11
3.992560
 21
2.596880
 12
4.014560
 22
1.827320
 13
4.015000
 23
2.564760
  0
POLYLINE
  8
0
  6
CONTINUOUS
 66
     1
 40
0.000000
 41
0.000000
  0
VERTEX
  8
0
  6
CONTINUOUS
 10
3.992560
 20
1.859440
  0
VERTEX
  8
0
  6
CONTINUOUS
 10
3.992560
 20
2.596880
  0
VERTEX
  8
0
  6
CONTINUOUS
 10
4.015000
 20
2.564760
  0
VERTEX
  8
0
  6
CONTINUOUS
 10
4.014560
 20
1.827320
  0
VERTEX
  8
0
  6
CONTINUOUS
 10
3.992560
 20
1.859440
  0
SEQEND
  8
0
  0
SOLID
  8
0
 62
    15
 10
4.014560
 20
1.827320
 11
4.015000
 21
2.564760
 12
4.044920
 22
1.793440
 13
4.045360
 23
2.530880
  0
POLYLINE
  8
0
  6
CONTINUOUS
 66
     1
 40
0.000000
 41
0.000000
  0
VERTEX
  8
0
  6
CONTINUOUS
 10
4.014560
 20
1.827320
  0
VERTEX
  8
0
  6
CONTINUOUS
 10
4.015000
 20
2.564760
  0
VERTEX
  8
0
  6
CONTINUOUS
 10
4.045360
 20
2.530880
  0
VERTEX
  8
0
  6
CONTINUOUS
 10
4.044920
 20
1.793440
  0
VERTEX
  8
0
  6
CONTINUOUS
 10
4.014560
 20
1.827320
  0
SEQEND
  8
0
  0
SOLID
  8
0
 62
    15
 10
4.044920
 20
1.793440
 11
4.045360
 21
2.530880
 12
4.082320
 22
1.759560
 13
4.082760
 23
2.497000
  0
POLYLINE
  8
0
  6
CONTINUOUS
 66
     1
 40
0.000000
 41
0.000000
  0
VERTEX
  8
0
  6
CONTINUOUS
 10
4.044920
 20
1.793440
  0
VERTEX
  8
0
  6
CONTINUOUS
 10
4.045360
 20
2.530880
  0
VERTEX
  8
0
  6
CONTINUOUS
 10
4.082760
 20
2.497000
  0
VERTEX
  8
0
  6
CONTINUOUS
 10
4.082320
 20
1.759560
  0
VERTEX
  8
0
  6
CONTINUOUS
 10
4.044920
 20
1.793440
  0
SEQEND
  8
0
  0
SOLID
  8
0
 62
    15
 10
4.082320
 20
1.759560
 11
4.082760
 21
2.497000
 12
4.125440
 22
1.728320
 13
4.125880
 23
2.465760
  0
POLYLINE
  8
0
  6
CONTINUOUS
 66
     1
 40
0.000000
 41
0.000000
  0
VERTEX
  8
0
  6
CONTINUOUS
 10
4.082320
 20
1.759560
  0
VERTEX
  8
0
  6
CONTINUOUS
 10
4.082760
 20
2.497000
  0
VERTEX
  8
0
  6
CONTINUOUS
 10
4.125880
 20
2.465760
  0
VERTEX
  8
0
  6
CONTINUOUS
 10
4.125440
 20
1.728320
  0
VERTEX
  8
0
  6
CONTINUOUS
 10
4.082320
 20
1.759560
  0
SEQEND
  8
0
  0
SOLID
  8
0
 62
    15
 10
4.125440
 20
1.728320
 11
4.125880
 21
2.465760
 12
4.172960
 22
1.700160
 13
4.173400
 23
2.437600
  0
POLYLINE
  8
0
  6
CONTINUOUS
 66
     1
 40
0.000000
 41
0.000000
  0
VERTEX
  8
0
  6
CONTINUOUS
 10
4.125440
 20
1.728320
  0
VERTEX
  8
0
  6
CONTINUOUS
 10
4.125880
 20
2.465760
  0
VERTEX
  8
0
  6
CONTINUOUS
 10
4.173400
 20
2.437600
  0
VERTEX
  8
0
  6
CONTINUOUS
 10
4.172960
 20
1.700160
  0
VERTEX
  8
0
  6
CONTINUOUS
 10
4.125440
 20
1.728320
  0
SEQEND
  8
0
  0
SOLID
  8
0
 62
    15
 10
4.172960
 20
1.700160
 11
4.173400
 21
2.437600
 12
4.223120
 22
1.677720
 13
4.223560
 23
2.415160
  0
POLYLINE
  8
0
  6
CONTINUOUS
 66
     1
 40
0.000000
 41
0.000000
  0
VERTEX
  8
0
  6
CONTINUOUS
 10
4.172960
 20
1.700160
  0
VERTEX
  8
0
  6
CONTINUOUS
 10
4.173400
 20
2.437600
  0
VERTEX
  8
0
  6
CONTINUOUS
 10
4.223560
 20
2.415160
  0
VERTEX
  8
0
  6
CONTINUOUS
 10
4.223120
 20
1.677720
  0
VERTEX
  8
0
  6
CONTINUOUS
 10
4.172960
 20
1.700160
  0
SEQEND
  8
0
  0
SOLID
  8
0
 62
    15
 10
4.223120
 20
1.677720
 11
4.223560
 21
2.415160
 12
4.275040
 22
1.662760
 13
4.275480
 23
2.400200
  0
POLYLINE
  8
0
  6
CONTINUOUS
 66
     1
 40
0.000000
 41
0.000000
  0
VERTEX
  8
0
  6
CONTINUOUS
 10
4.223120
 20
1.677720
  0
VERTEX
  8
0
  6
CONTINUOUS
 10
4.223560
 20
2.415160
  0
VERTEX
  8
0
  6
CONTINUOUS
 10
4.275480
 20
2.400200
  0
VERTEX
  8
0
  6
CONTINUOUS
 10
4.275040
 20
1.662760
  0
VERTEX
  8
0
  6
CONTINUOUS
 10
4.223120
 20
1.677720
  0
SEQEND
  8
0
  0
SOLID
  8
0
 62
    15
 10
4.275040
 20
1.662760
 11
4.275480
 21
2.400200
 12
4.307600
 22
1.703240
 13
4.308040
 23
2.440680
  0
POLYLINE
  8
0
  6
CONTINUOUS
 66
     1
 40
0.000000
 41
0.000000
  0
VERTEX
  8
0
  6
CONTINUOUS
 10
4.275040
 20
1.662760
  0
VERTEX
  8
0
  6
CONTINUOUS
 10
4.275480
 20
2.400200
  0
VERTEX
  8
0
  6
CONTINUOUS
 10
4.308040
 20
2.440680
  0
VERTEX
  8
0
  6
CONTINUOUS
 10
4.307600
 20
1.703240
  0
VERTEX
  8
0
  6
CONTINUOUS
 10
4.275040
 20
1.662760
  0
SEQEND
  8
0
  0
SOLID
  8
0
 62
    15
 10
4.307600
 20
1.703240
 11
4.308040
 21
2.440680
 12
4.346760
 22
1.738000
 13
4.347200
 23
2.475440
  0
POLYLINE
  8
0
  6
CONTINUOUS
 66
     1
 40
0.000000
 41
0.000000
  0
VERTEX
  8
0
  6
CONTINUOUS
 10
4.307600
 20
1.703240
  0
VERTEX
  8
0
  6
CONTINUOUS
 10
4.308040
 20
2.440680
  0
VERTEX
  8
0
  6
CONTINUOUS
 10
4.347200
 20
2.475440
  0
VERTEX
  8
0
  6
CONTINUOUS
 10
4.346760
 20
1.738000
  0
VERTEX
  8
0
  6
CONTINUOUS
 10
4.307600
 20
1.703240
  0
SEQEND
  8
0
  0
SOLID
  8
0
 62
    15
 10
4.346760
 20
1.738000
 11
4.347200
 21
2.475440
 12
4.391640
 22
1.767480
 13
4.392080
 23
2.504920
  0
POLYLINE
  8
0
  6
CONTINUOUS
 66
     1
 40
0.000000
 41
0.000000
  0
VERTEX
  8
0
  6
CONTINUOUS
 10
4.346760
 20
1.738000
  0
VERTEX
  8
0
  6
CONTINUOUS
 10
4.347200
 20
2.475440
  0
VERTEX
  8
0
  6
CONTINUOUS
 10
4.392080
 20
2.504920
  0
VERTEX
  8
0
  6
CONTINUOUS
 10
4.391640
 20
1.767480
  0
VERTEX
  8
0
  6
CONTINUOUS
 10
4.346760
 20
1.738000
  0
SEQEND
  8
0
  0
SOLID
  8
0
 62
    15
 10
4.391640
 20
1.767480
 11
4.392080
 21
2.504920
 12
4.440920
 22
1.791680
 13
4.440920
 23
2.529120
  0
POLYLINE
  8
0
  6
CONTINUOUS
 66
     1
 40
0.000000
 41
0.000000
  0
VERTEX
  8
0
  6
CONTINUOUS
 10
4.391640
 20
1.767480
  0
VERTEX
  8
0
  6
CONTINUOUS
 10
4.392080
 20
2.504920
  0
VERTEX
  8
0
  6
CONTINUOUS
 10
4.440920
 20
2.529120
  0
VERTEX
  8
0
  6
CONTINUOUS
 10
4.440920
 20
1.791680
  0
VERTEX
  8
0
  6
CONTINUOUS
 10
4.391640
 20
1.767480
  0
SEQEND
  8
0
  0
SOLID
  8
0
 62
    15
 10
4.440920
 20
1.791680
 11
4.440920
 21
2.529120
 12
4.493280
 22
1.810160
 13
4.493720
 23
2.547600
  0
POLYLINE
  8
0
  6
CONTINUOUS
 66
     1
 40
0.000000
 41
0.000000
  0
VERTEX
  8
0
  6
CONTINUOUS
 10
4.440920
 20
1.791680
  0
VERTEX
  8
0
  6
CONTINUOUS
 10
4.440920
 20
2.529120
  0
VERTEX
  8
0
  6
CONTINUOUS
 10
4.493720
 20
2.547600
  0
VERTEX
  8
0
  6
CONTINUOUS
 10
4.493280
 20
1.810160
  0
VERTEX
  8
0
  6
CONTINUOUS
 10
4.440920
 20
1.791680
  0
SEQEND
  8
0
  0
SOLID
  8
0
 62
    15
 10
4.493280
 20
1.810160
 11
4.493720
 21
2.547600
 12
4.548720
 22
1.823360
 13
4.549160
 23
2.560800
  0
POLYLINE
  8
0
  6
CONTINUOUS
 66
     1
 40
0.000000
 41
0.000000
  0
VERTEX
  8
0
  6
CONTINUOUS
 10
4.493280
 20
1.810160
  0
VERTEX
  8
0
  6
CONTINUOUS
 10
4.493720
 20
2.547600
  0
VERTEX
  8
0
  6
CONTINUOUS
 10
4.549160
 20
2.560800
  0
VERTEX
  8
0
  6
CONTINUOUS
 10
4.548720
 20
1.823360
  0
VERTEX
  8
0
  6
CONTINUOUS
 10
4.493280
 20
1.810160
  0
SEQEND
  8
0
  0
SOLID
  8
0
 62
    15
 10
4.548720
 20
1.823360
 11
4.549160
 21
2.560800
 12
4.605920
 22
1.830840
 13
4.606360
 23
2.568280
  0
POLYLINE
  8
0
  6
CONTINUOUS
 66
     1
 40
0.000000
 41
0.000000
  0
VERTEX
  8
0
  6
CONTINUOUS
 10
4.548720
 20
1.823360
  0
VERTEX
  8
0
  6
CONTINUOUS
 10
4.549160
 20
2.560800
  0
VERTEX
  8
0
  6
CONTINUOUS
 10
4.606360
 20
2.568280
  0
VERTEX
  8
0
  6
CONTINUOUS
 10
4.605920
 20
1.830840
  0
VERTEX
  8
0
  6
CONTINUOUS
 10
4.548720
 20
1.823360
  0
SEQEND
  8
0
  0
SOLID
  8
0
 62
    15
 10
4.605920
 20
1.830840
 11
4.606360
 21
2.568280
 12
4.663560
 22
1.833040
 13
4.664000
 23
2.570480
  0
POLYLINE
  8
0
  6
CONTINUOUS
 66
     1
 40
0.000000
 41
0.000000
  0
VERTEX
  8
0
  6
CONTINUOUS
 10
4.605920
 20
1.830840
  0
VERTEX
  8
0
  6
CONTINUOUS
 10
4.606360
 20
2.568280
  0
VERTEX
  8
0
  6
CONTINUOUS
 10
4.664000
 20
2.570480
  0
VERTEX
  8
0
  6
CONTINUOUS
 10
4.663560
 20
1.833040
  0
VERTEX
  8
0
  6
CONTINUOUS
 10
4.605920
 20
1.830840
  0
SEQEND
  8
0
  0
SOLID
  8
0
 62
    15
 10
4.663560
 20
1.833040
 11
4.664000
 21
2.570480
 12
4.721200
 22
1.829960
 13
4.721640
 23
2.567400
  0
POLYLINE
  8
0
  6
CONTINUOUS
 66
     1
 40
0.000000
 41
0.000000
  0
VERTEX
  8
0
  6
CONTINUOUS
 10
4.663560
 20
1.833040
  0
VERTEX
  8
0
  6
CONTINUOUS
 10
4.664000
 20
2.570480
  0
VERTEX
  8
0
  6
CONTINUOUS
 10
4.721640
 20
2.567400
  0
VERTEX
  8
0
  6
CONTINUOUS
 10
4.721200
 20
1.829960
  0
VERTEX
  8
0
  6
CONTINUOUS
 10
4.663560
 20
1.833040
  0
SEQEND
  8
0
  0
SOLID
  8
0
 62
    15
 10
4.721200
 20
1.829960
 11
4.721640
 21
2.567400
 12
4.777960
 22
1.821600
 13
4.778400
 23
2.559040
  0
POLYLINE
  8
0
  6
CONTINUOUS
 66
     1
 40
0.000000
 41
0.000000
  0
VERTEX
  8
0
  6
CONTINUOUS
 10
4.721200
 20
1.829960
  0
VERTEX
  8
0
  6
CONTINUOUS
 10
4.721640
 20
2.567400
  0
VERTEX
  8
0
  6
CONTINUOUS
 10
4.778400
 20
2.559040
  0
VERTEX
  8
0
  6
CONTINUOUS
 10
4.777960
 20
1.821600
  0
VERTEX
  8
0
  6
CONTINUOUS
 10
4.721200
 20
1.829960
  0
SEQEND
  8
0
  0
SOLID
  8
0
 62
    15
 10
4.777960
 20
1.821600
 11
4.778400
 21
2.559040
 12
4.832520
 22
1.807520
 13
4.832960
 23
2.544960
  0
POLYLINE
  8
0
  6
CONTINUOUS
 66
     1
 40
0.000000
 41
0.000000
  0
VERTEX
  8
0
  6
CONTINUOUS
 10
4.777960
 20
1.821600
  0
VERTEX
  8
0
  6
CONTINUOUS
 10
4.778400
 20
2.559040
  0
VERTEX
  8
0
  6
CONTINUOUS
 10
4.832960
 20
2.544960
  0
VERTEX
  8
0
  6
CONTINUOUS
 10
4.832520
 20
1.807520
  0
VERTEX
  8
0
  6
CONTINUOUS
 10
4.777960
 20
1.821600
  0
SEQEND
  8
0
  0
SOLID
  8
0
 62
    15
 10
4.832520
 20
1.807520
 11
4.832960
 21
2.544960
 12
4.884440
 22
1.788160
 13
4.884880
 23
2.525600
  0
POLYLINE
  8
0
  6
CONTINUOUS
 66
     1
 40
0.000000
 41
0.000000
  0
VERTEX
  8
0
  6
CONTINUOUS
 10
4.832520
 20
1.807520
  0
VERTEX
  8
0
  6
CONTINUOUS
 10
4.832960
 20
2.544960
  0
VERTEX
  8
0
  6
CONTINUOUS
 10
4.884880
 20
2.525600
  0
VERTEX
  8
0
  6
CONTINUOUS
 10
4.884440
 20
1.788160
  0
VERTEX
  8
0
  6
CONTINUOUS
 10
4.832520
 20
1.807520
  0
SEQEND
  8
0
  0
SOLID
  8
0
 62
    15
 10
4.884440
 20
1.788160
 11
4.884880
 21
2.525600
 12
4.932400
 22
1.763520
 13
4.932840
 23
2.500960
  0
POLYLINE
  8
0
  6
CONTINUOUS
 66
     1
 40
0.000000
 41
0.000000
  0
VERTEX
  8
0
  6
CONTINUOUS
 10
4.884440
 20
1.788160
  0
VERTEX
  8
0
  6
CONTINUOUS
 10
4.884880
 20
2.525600
  0
VERTEX
  8
0
  6
CONTINUOUS
 10
4.932840
 20
2.500960
  0
VERTEX
  8
0
  6
CONTINUOUS
 10
4.932400
 20
1.763520
  0
VERTEX
  8
0
  6
CONTINUOUS
 10
4.884440
 20
1.788160
  0
SEQEND
  8
0
  0
SOLID
  8
0
 62
    15
 10
3.521320
 20
1.776280
 11
3.521760
 21
2.513720
 12
3.524840
 22
1.812360
 13
3.525280
 23
2.549800
  0
POLYLINE
  8
0
  6
CONTINUOUS
 66
     1
 40
0.000000
 41
0.000000
  0
VERTEX
  8
0
  6
CONTINUOUS
 10
3.521320
 20
1.776280
  0
VERTEX
  8
0
  6
CONTINUOUS
 10
3.521760
 20
2.513720
  0
VERTEX
  8
0
  6
CONTINUOUS
 10
3.525280
 20
2.549800
  0
VERTEX
  8
0
  6
CONTINUOUS
 10
3.524840
 20
1.812360
  0
VERTEX
  8
0
  6
CONTINUOUS
 10
3.521320
 20
1.776280
  0
SEQEND
  8
0
  0
SOLID
  8
0
 62
    15
 10
4.975520
 20
1.733600
 11
4.975960
 21
2.471040
 12
5.012920
 22
1.698400
 13
5.013360
 23
2.435840
  0
POLYLINE
  8
0
  6
CONTINUOUS
 66
     1
 40
0.000000
 41
0.000000
  0
VERTEX
  8
0
  6
CONTINUOUS
 10
4.975520
 20
1.733600
  0
VERTEX
  8
0
  6
CONTINUOUS
 10
4.975960
 20
2.471040
  0
VERTEX
  8
0
  6
CONTINUOUS
 10
5.013360
 20
2.435840
  0
VERTEX
  8
0
  6
CONTINUOUS
 10
5.012920
 20
1.698400
  0
VERTEX
  8
0
  6
CONTINUOUS
 10
4.975520
 20
1.733600
  0
SEQEND
  8
0
  0
SOLID
  8
0
 62
    15
 10
5.012920
 20
1.698400
 11
5.013360
 21
2.435840
 12
5.043720
 22
1.657480
 13
5.043720
 23
2.394920
  0
POLYLINE
  8
0
  6
CONTINUOUS
 66
     1
 40
0.000000
 41
0.000000
  0
VERTEX
  8
0
  6
CONTINUOUS
 10
5.012920
 20
1.698400
  0
VERTEX
  8
0
  6
CONTINUOUS
 10
5.013360
 20
2.435840
  0
VERTEX
  8
0
  6
CONTINUOUS
 10
5.043720
 20
2.394920
  0
VERTEX
  8
0
  6
CONTINUOUS
 10
5.043720
 20
1.657480
  0
VERTEX
  8
0
  6
CONTINUOUS
 10
5.012920
 20
1.698400
  0
SEQEND
  8
0
  0
SOLID
  8
0
 62
    15
 10
5.043720
 20
1.657480
 11
5.043720
 21
2.394920
 12
5.070560
 22
1.684760
 13
5.070560
 23
2.422640
  0
POLYLINE
  8
0
  6
CONTINUOUS
 66
     1
 40
0.000000
 41
0.000000
  0
VERTEX
  8
0
  6
CONTINUOUS
 10
5.043720
 20
1.657480
  0
VERTEX
  8
0
  6
CONTINUOUS
 10
5.043720
 20
2.394920
  0
VERTEX
  8
0
  6
CONTINUOUS
 10
5.070560
 20
2.422640
  0
VERTEX
  8
0
  6
CONTINUOUS
 10
5.070560
 20
1.684760
  0
VERTEX
  8
0
  6
CONTINUOUS
 10
5.043720
 20
1.657480
  0
SEQEND
  8
0
  0
SOLID
  8
0
 62
    15
 10
5.070560
 20
1.684760
 11
5.070560
 21
2.422640
 12
5.096960
 22
1.706320
 13
5.097400
 23
2.443760
  0
POLYLINE
  8
0
  6
CONTINUOUS
 66
     1
 40
0.000000
 41
0.000000
  0
VERTEX
  8
0
  6
CONTINUOUS
 10
5.070560
 20
1.684760
  0
VERTEX
  8
0
  6
CONTINUOUS
 10
5.070560
 20
2.422640
  0
VERTEX
  8
0
  6
CONTINUOUS
 10
5.097400
 20
2.443760
  0
VERTEX
  8
0
  6
CONTINUOUS
 10
5.096960
 20
1.706320
  0
VERTEX
  8
0
  6
CONTINUOUS
 10
5.070560
 20
1.684760
  0
SEQEND
  8
0
  0
SOLID
  8
0
 62
    15
 10
5.096960
 20
1.706320
 11
5.097400
 21
2.443760
 12
5.122920
 22
1.722600
 13
5.123360
 23
2.460040
  0
POLYLINE
  8
0
  6
CONTINUOUS
 66
     1
 40
0.000000
 41
0.000000
  0
VERTEX
  8
0
  6
CONTINUOUS
 10
5.096960
 20
1.706320
  0
VERTEX
  8
0
  6
CONTINUOUS
 10
5.097400
 20
2.443760
  0
VERTEX
  8
0
  6
CONTINUOUS
 10
5.123360
 20
2.460040
  0
VERTEX
  8
0
  6
CONTINUOUS
 10
5.122920
 20
1.722600
  0
VERTEX
  8
0
  6
CONTINUOUS
 10
5.096960
 20
1.706320
  0
SEQEND
  8
0
  0
SOLID
  8
0
 62
    15
 10
5.122920
 20
1.722600
 11
5.123360
 21
2.460040
 12
5.148440
 22
1.733600
 13
5.148880
 23
2.471040
  0
POLYLINE
  8
0
  6
CONTINUOUS
 66
     1
 40
0.000000
 41
0.000000
  0
VERTEX
  8
0
  6
CONTINUOUS
 10
5.122920
 20
1.722600
  0
VERTEX
  8
0
  6
CONTINUOUS
 10
5.123360
 20
2.460040
  0
VERTEX
  8
0
  6
CONTINUOUS
 10
5.148880
 20
2.471040
  0
VERTEX
  8
0
  6
CONTINUOUS
 10
5.148440
 20
1.733600
  0
VERTEX
  8
0
  6
CONTINUOUS
 10
5.122920
 20
1.722600
  0
SEQEND
  8
0
  0
SOLID
  8
0
 62
    15
 10
5.148440
 20
1.733600
 11
5.148880
 21
2.471040
 12
5.173080
 22
1.739760
 13
5.173520
 23
2.477640
  0
POLYLINE
  8
0
  6
CONTINUOUS
 66
     1
 40
0.000000
 41
0.000000
  0
VERTEX
  8
0
  6
CONTINUOUS
 10
5.148440
 20
1.733600
  0
VERTEX
  8
0
  6
CONTINUOUS
 10
5.148880
 20
2.471040
  0
VERTEX
  8
0
  6
CONTINUOUS
 10
5.173520
 20
2.477640
  0
VERTEX
  8
0
  6
CONTINUOUS
 10
5.173080
 20
1.739760
  0
VERTEX
  8
0
  6
CONTINUOUS
 10
5.148440
 20
1.733600
  0
SEQEND
  8
0
  0
SOLID
  8
0
 62
    15
 10
5.173080
 20
1.739760
 11
5.173520
 21
2.477640
 12
5.197280
 22
1.741960
 13
5.197280
 23
2.479400
  0
POLYLINE
  8
0
  6
CONTINUOUS
 66
     1
 40
0.000000
 41
0.000000
  0
VERTEX
  8
0
  6
CONTINUOUS
 10
5.173080
 20
1.739760
  0
VERTEX
  8
0
  6
CONTINUOUS
 10
5.173520
 20
2.477640
  0
VERTEX
  8
0
  6
CONTINUOUS
 10
5.197280
 20
2.479400
  0
VERTEX
  8
0
  6
CONTINUOUS
 10
5.197280
 20
1.741960
  0
VERTEX
  8
0
  6
CONTINUOUS
 10
5.173080
 20
1.739760
  0
SEQEND
  8
0
  0
SOLID
  8
0
 62
    15
 10
5.197280
 20
1.741960
 11
5.197280
 21
2.479400
 12
5.219720
 22
1.740640
 13
5.220160
 23
2.478080
  0
POLYLINE
  8
0
  6
CONTINUOUS
 66
     1
 40
0.000000
 41
0.000000
  0
VERTEX
  8
0
  6
CONTINUOUS
 10
5.197280
 20
1.741960
  0
VERTEX
  8
0
  6
CONTINUOUS
 10
5.197280
 20
2.479400
  0
VERTEX
  8
0
  6
CONTINUOUS
 10
5.220160
 20
2.478080
  0
VERTEX
  8
0
  6
CONTINUOUS
 10
5.219720
 20
1.740640
  0
VERTEX
  8
0
  6
CONTINUOUS
 10
5.197280
 20
1.741960
  0
SEQEND
  8
0
  0
SOLID
  8
0
 62
    15
 10
5.219720
 20
1.740640
 11
5.220160
 21
2.478080
 12
5.241280
 22
1.735360
 13
5.241720
 23
2.472800
  0
POLYLINE
  8
0
  6
CONTINUOUS
 66
     1
 40
0.000000
 41
0.000000
  0
VERTEX
  8
0
  6
CONTINUOUS
 10
5.219720
 20
1.740640
  0
VERTEX
  8
0
  6
CONTINUOUS
 10
5.220160
 20
2.478080
  0
VERTEX
  8
0
  6
CONTINUOUS
 10
5.241720
 20
2.472800
  0
VERTEX
  8
0
  6
CONTINUOUS
 10
5.241280
 20
1.735360
  0
VERTEX
  8
0
  6
CONTINUOUS
 10
5.219720
 20
1.740640
  0
SEQEND
  8
0
  0
SOLID
  8
0
 62
    15
 10
5.241280
 20
1.735360
 11
5.241720
 21
2.472800
 12
5.280440
 22
1.716880
 13
5.280440
 23
2.454320
  0
POLYLINE
  8
0
  6
CONTINUOUS
 66
     1
 40
0.000000
 41
0.000000
  0
VERTEX
  8
0
  6
CONTINUOUS
 10
5.241280
 20
1.735360
  0
VERTEX
  8
0
  6
CONTINUOUS
 10
5.241720
 20
2.472800
  0
VERTEX
  8
0
  6
CONTINUOUS
 10
5.280440
 20
2.454320
  0
VERTEX
  8
0
  6
CONTINUOUS
 10
5.280440
 20
1.716880
  0
VERTEX
  8
0
  6
CONTINUOUS
 10
5.241280
 20
1.735360
  0
SEQEND
  8
0
  0
SOLID
  8
0
 62
    15
 10
5.280440
 20
1.716880
 11
5.280440
 21
2.454320
 12
5.312560
 22
1.689600
 13
5.312560
 23
2.427040
  0
POLYLINE
  8
0
  6
CONTINUOUS
 66
     1
 40
0.000000
 41
0.000000
  0
VERTEX
  8
0
  6
CONTINUOUS
 10
5.280440
 20
1.716880
  0
VERTEX
  8
0
  6
CONTINUOUS
 10
5.280440
 20
2.454320
  0
VERTEX
  8
0
  6
CONTINUOUS
 10
5.312560
 20
2.427040
  0
VERTEX
  8
0
  6
CONTINUOUS
 10
5.312560
 20
1.689600
  0
VERTEX
  8
0
  6
CONTINUOUS
 10
5.280440
 20
1.716880
  0
SEQEND
  8
0
  0
SOLID
  8
0
 62
    15
 10
5.312560
 20
1.689600
 11
5.312560
 21
2.427040
 12
5.336760
 22
1.657040
 13
5.336760
 23
2.394480
  0
POLYLINE
  8
0
  6
CONTINUOUS
 66
     1
 40
0.000000
 41
0.000000
  0
VERTEX
  8
0
  6
CONTINUOUS
 10
5.312560
 20
1.689600
  0
VERTEX
  8
0
  6
CONTINUOUS
 10
5.312560
 20
2.427040
  0
VERTEX
  8
0
  6
CONTINUOUS
 10
5.336760
 20
2.394480
  0
VERTEX
  8
0
  6
CONTINUOUS
 10
5.336760
 20
1.657040
  0
VERTEX
  8
0
  6
CONTINUOUS
 10
5.312560
 20
1.689600
  0
SEQEND
  8
0
  0
SOLID
  8
0
 62
    15
 10
5.336760
 20
1.657040
 11
5.336760
 21
2.394480
 12
5.351720
 22
1.622280
 13
5.352160
 23
2.359720
  0
POLYLINE
  8
0
  6
CONTINUOUS
 66
     1
 40
0.000000
 41
0.000000
  0
VERTEX
  8
0
  6
CONTINUOUS
 10
5.336760
 20
1.657040
  0
VERTEX
  8
0
  6
CONTINUOUS
 10
5.336760
 20
2.394480
  0
VERTEX
  8
0
  6
CONTINUOUS
 10
5.352160
 20
2.359720
  0
VERTEX
  8
0
  6
CONTINUOUS
 10
5.351720
 20
1.622280
  0
VERTEX
  8
0
  6
CONTINUOUS
 10
5.336760
 20
1.657040
  0
SEQEND
  8
0
  0
SOLID
  8
0
 62
    15
 10
5.351720
 20
1.622280
 11
5.352160
 21
2.359720
 12
5.500440
 22
1.622280
 13
5.500880
 23
2.359720
  0
POLYLINE
  8
0
  6
CONTINUOUS
 66
     1
 40
0.000000
 41
0.000000
  0
VERTEX
  8
0
  6
CONTINUOUS
 10
5.351720
 20
1.622280
  0
VERTEX
  8
0
  6
CONTINUOUS
 10
5.352160
 20
2.359720
  0
VERTEX
  8
0
  6
CONTINUOUS
 10
5.500880
 20
2.359720
  0
VERTEX
  8
0
  6
CONTINUOUS
 10
5.500440
 20
1.622280
  0
VERTEX
  8
0
  6
CONTINUOUS
 10
5.351720
 20
1.622280
  0
SEQEND
  8
0
  0
SOLID
  8
0
 62
    15
 10
5.500440
 20
1.622280
 11
5.500880
 21
2.359720
 12
5.512760
 22
1.548800
 13
5.513200
 23
2.286240
  0
POLYLINE
  8
0
  6
CONTINUOUS
 66
     1
 40
0.000000
 41
0.000000
  0
VERTEX
  8
0
  6
CONTINUOUS
 10
5.500440
 20
1.622280
  0
VERTEX
  8
0
  6
CONTINUOUS
 10
5.500880
 20
2.359720
  0
VERTEX
  8
0
  6
CONTINUOUS
 10
5.513200
 20
2.286240
  0
VERTEX
  8
0
  6
CONTINUOUS
 10
5.512760
 20
1.548800
  0
VERTEX
  8
0
  6
CONTINUOUS
 10
5.500440
 20
1.622280
  0
SEQEND
  8
0
  0
SOLID
  8
0
 62
    15
 10
6.613200
 20
1.459920
 11
6.613640
 21
2.197360
 12
6.657640
 22
1.468280
 13
6.658080
 23
2.205720
  0
POLYLINE
  8
0
  6
CONTINUOUS
 66
     1
 40
0.000000
 41
0.000000
  0
VERTEX
  8
0
  6
CONTINUOUS
 10
6.613200
 20
1.459920
  0
VERTEX
  8
0
  6
CONTINUOUS
 10
6.613640
 20
2.197360
  0
VERTEX
  8
0
  6
CONTINUOUS
 10
6.658080
 20
2.205720
  0
VERTEX
  8
0
  6
CONTINUOUS
 10
6.657640
 20
1.468280
  0
VERTEX
  8
0
  6
CONTINUOUS
 10
6.613200
 20
1.459920
  0
SEQEND
  8
0
  0
SOLID
  8
0
 62
    15
 10
6.596480
 20
1.548800
 11
6.596480
 21
2.286240
 12
6.613200
 22
1.459920
 13
6.613640
 23
2.197360
  0
POLYLINE
  8
0
  6
CONTINUOUS
 66
     1
 40
0.000000
 41
0.000000
  0
VERTEX
  8
0
  6
CONTINUOUS
 10
6.596480
 20
1.548800
  0
VERTEX
  8
0
  6
CONTINUOUS
 10
6.596480
 20
2.286240
  0
VERTEX
  8
0
  6
CONTINUOUS
 10
6.613640
 20
2.197360
  0
VERTEX
  8
0
  6
CONTINUOUS
 10
6.613200
 20
1.459920
  0
VERTEX
  8
0
  6
CONTINUOUS
 10
6.596480
 20
1.548800
  0
SEQEND
  8
0
  0
SOLID
  8
0
 62
    15
 10
5.512760
 20
1.548800
 11
5.513200
 21
2.286240
 12
6.596480
 22
1.548800
 13
6.596480
 23
2.286240
  0
POLYLINE
  8
0
  6
CONTINUOUS
 66
     1
 40
0.000000
 41
0.000000
  0
VERTEX
  8
0
  6
CONTINUOUS
 10
5.512760
 20
1.548800
  0
VERTEX
  8
0
  6
CONTINUOUS
 10
5.513200
 20
2.286240
  0
VERTEX
  8
0
  6
CONTINUOUS
 10
6.596480
 20
2.286240
  0
VERTEX
  8
0
  6
CONTINUOUS
 10
6.596480
 20
1.548800
  0
VERTEX
  8
0
  6
CONTINUOUS
 10
5.512760
 20
1.548800
  0
SEQEND
  8
0
  0
SOLID
  8
0
 62
    15
 10
6.657640
 20
1.468280
 11
6.658080
 21
2.205720
 12
6.702960
 22
1.467840
 13
6.702960
 23
2.205280
  0
POLYLINE
  8
0
  6
CONTINUOUS
 66
     1
 40
0.000000
 41
0.000000
  0
VERTEX
  8
0
  6
CONTINUOUS
 10
6.657640
 20
1.468280
  0
VERTEX
  8
0
  6
CONTINUOUS
 10
6.658080
 20
2.205720
  0
VERTEX
  8
0
  6
CONTINUOUS
 10
6.702960
 20
2.205280
  0
VERTEX
  8
0
  6
CONTINUOUS
 10
6.702960
 20
1.467840
  0
VERTEX
  8
0
  6
CONTINUOUS
 10
6.657640
 20
1.468280
  0
SEQEND
  8
0
  0
SOLID
  8
0
 62
    15
 10
6.702960
 20
1.467840
 11
6.702960
 21
2.205280
 12
6.746520
 22
1.459040
 13
6.746960
 23
2.196480
  0
POLYLINE
  8
0
  6
CONTINUOUS
 66
     1
 40
0.000000
 41
0.000000
  0
VERTEX
  8
0
  6
CONTINUOUS
 10
6.702960
 20
1.467840
  0
VERTEX
  8
0
  6
CONTINUOUS
 10
6.702960
 20
2.205280
  0
VERTEX
  8
0
  6
CONTINUOUS
 10
6.746960
 20
2.196480
  0
VERTEX
  8
0
  6
CONTINUOUS
 10
6.746520
 20
1.459040
  0
VERTEX
  8
0
  6
CONTINUOUS
 10
6.702960
 20
1.467840
  0
SEQEND
  8
0
  0
SOLID
  8
0
 62
    15
 10
6.746520
 20
1.459040
 11
6.746960
 21
2.196480
 12
6.787000
 22
1.441880
 13
6.787000
 23
2.179320
  0
POLYLINE
  8
0
  6
CONTINUOUS
 66
     1
 40
0.000000
 41
0.000000
  0
VERTEX
  8
0
  6
CONTINUOUS
 10
6.746520
 20
1.459040
  0
VERTEX
  8
0
  6
CONTINUOUS
 10
6.746960
 20
2.196480
  0
VERTEX
  8
0
  6
CONTINUOUS
 10
6.787000
 20
2.179320
  0
VERTEX
  8
0
  6
CONTINUOUS
 10
6.787000
 20
1.441880
  0
VERTEX
  8
0
  6
CONTINUOUS
 10
6.746520
 20
1.459040
  0
SEQEND
  8
0
  0
SOLID
  8
0
 62
    15
 10
6.787000
 20
1.441880
 11
6.787000
 21
2.179320
 12
6.821320
 22
1.416360
 13
6.821760
 23
2.153800
  0
POLYLINE
  8
0
  6
CONTINUOUS
 66
     1
 40
0.000000
 41
0.000000
  0
VERTEX
  8
0
  6
CONTINUOUS
 10
6.787000
 20
1.441880
  0
VERTEX
  8
0
  6
CONTINUOUS
 10
6.787000
 20
2.179320
  0
VERTEX
  8
0
  6
CONTINUOUS
 10
6.821760
 20
2.153800
  0
VERTEX
  8
0
  6
CONTINUOUS
 10
6.821320
 20
1.416360
  0
VERTEX
  8
0
  6
CONTINUOUS
 10
6.787000
 20
1.441880
  0
SEQEND
  8
0
  0
SOLID
  8
0
 62
    15
 10
6.821320
 20
1.416360
 11
6.821760
 21
2.153800
 12
6.848160
 22
1.383800
 13
6.848600
 23
2.121240
  0
POLYLINE
  8
0
  6
CONTINUOUS
 66
     1
 40
0.000000
 41
0.000000
  0
VERTEX
  8
0
  6
CONTINUOUS
 10
6.821320
 20
1.416360
  0
VERTEX
  8
0
  6
CONTINUOUS
 10
6.821760
 20
2.153800
  0
VERTEX
  8
0
  6
CONTINUOUS
 10
6.848600
 20
2.121240
  0
VERTEX
  8
0
  6
CONTINUOUS
 10
6.848160
 20
1.383800
  0
VERTEX
  8
0
  6
CONTINUOUS
 10
6.821320
 20
1.416360
  0
SEQEND
  8
0
  0
SOLID
  8
0
 62
    15
 10
6.865320
 20
1.343320
 11
6.865320
 21
2.080760
 12
6.869280
 22
1.320880
 13
6.869720
 23
2.058320
  0
POLYLINE
  8
0
  6
CONTINUOUS
 66
     1
 40
0.000000
 41
0.000000
  0
VERTEX
  8
0
  6
CONTINUOUS
 10
6.865320
 20
1.343320
  0
VERTEX
  8
0
  6
CONTINUOUS
 10
6.865320
 20
2.080760
  0
VERTEX
  8
0
  6
CONTINUOUS
 10
6.869720
 20
2.058320
  0
VERTEX
  8
0
  6
CONTINUOUS
 10
6.869280
 20
1.320880
  0
VERTEX
  8
0
  6
CONTINUOUS
 10
6.865320
 20
1.343320
  0
SEQEND
  8
0
  0
SOLID
  8
0
 62
    15
 10
6.848160
 20
1.383800
 11
6.848600
 21
2.121240
 12
6.865320
 22
1.343320
 13
6.865320
 23
2.080760
  0
POLYLINE
  8
0
  6
CONTINUOUS
 66
     1
 40
0.000000
 41
0.000000
  0
VERTEX
  8
0
  6
CONTINUOUS
 10
6.848160
 20
1.383800
  0
VERTEX
  8
0
  6
CONTINUOUS
 10
6.848600
 20
2.121240
  0
VERTEX
  8
0
  6
CONTINUOUS
 10
6.865320
 20
2.080760
  0
VERTEX
  8
0
  6
CONTINUOUS
 10
6.865320
 20
1.343320
  0
VERTEX
  8
0
  6
CONTINUOUS
 10
6.848160
 20
1.383800
  0
SEQEND
  8
0
  0
SOLID
  8
0
 62
    15
 10
7.135040
 20
1.296240
 11
7.135480
 21
2.033680
 12
7.135040
 22
1.147080
 13
7.135480
 23
1.884520
  0
POLYLINE
  8
0
  6
CONTINUOUS
 66
     1
 40
0.000000
 41
0.000000
  0
VERTEX
  8
0
  6
CONTINUOUS
 10
7.135040
 20
1.296240
  0
VERTEX
  8
0
  6
CONTINUOUS
 10
7.135480
 20
2.033680
  0
VERTEX
  8
0
  6
CONTINUOUS
 10
7.135480
 20
1.884520
  0
VERTEX
  8
0
  6
CONTINUOUS
 10
7.135040
 20
1.147080
  0
VERTEX
  8
0
  6
CONTINUOUS
 10
7.135040
 20
1.296240
  0
SEQEND
  8
0
  0
SOLID
  8
0
 62
    15
 10
6.870160
 20
1.296240
 11
6.870600
 21
2.033680
 12
7.135040
 22
1.296240
 13
7.135480
 23
2.033680
  0
POLYLINE
  8
0
  6
CONTINUOUS
 66
     1
 40
0.000000
 41
0.000000
  0
VERTEX
  8
0
  6
CONTINUOUS
 10
6.870160
 20
1.296240
  0
VERTEX
  8
0
  6
CONTINUOUS
 10
6.870600
 20
2.033680
  0
VERTEX
  8
0
  6
CONTINUOUS
 10
7.135480
 20
2.033680
  0
VERTEX
  8
0
  6
CONTINUOUS
 10
7.135040
 20
1.296240
  0
VERTEX
  8
0
  6
CONTINUOUS
 10
6.870160
 20
1.296240
  0
SEQEND
  8
0
  0
SOLID
  8
0
 62
    15
 10
6.869280
 20
1.320880
 11
6.869720
 21
2.058320
 12
6.870160
 22
1.296240
 13
6.870600
 23
2.033680
  0
POLYLINE
  8
0
  6
CONTINUOUS
 66
     1
 40
0.000000
 41
0.000000
  0
VERTEX
  8
0
  6
CONTINUOUS
 10
6.869280
 20
1.320880
  0
VERTEX
  8
0
  6
CONTINUOUS
 10
6.869720
 20
2.058320
  0
VERTEX
  8
0
  6
CONTINUOUS
 10
6.870600
 20
2.033680
  0
VERTEX
  8
0
  6
CONTINUOUS
 10
6.870160
 20
1.296240
  0
VERTEX
  8
0
  6
CONTINUOUS
 10
6.869280
 20
1.320880
  0
SEQEND
  8
0
  0
SOLID
  8
0
 62
    15
 10
3.524840
 20
1.812360
 11
3.525280
 21
2.549800
 12
3.535400
 22
1.839640
 13
3.535840
 23
2.577080
  0
POLYLINE
  8
0
  6
CONTINUOUS
 66
     1
 40
0.000000
 41
0.000000
  0
VERTEX
  8
0
  6
CONTINUOUS
 10
3.524840
 20
1.812360
  0
VERTEX
  8
0
  6
CONTINUOUS
 10
3.525280
 20
2.549800
  0
VERTEX
  8
0
  6
CONTINUOUS
 10
3.535840
 20
2.577080
  0
VERTEX
  8
0
  6
CONTINUOUS
 10
3.535400
 20
1.839640
  0
VERTEX
  8
0
  6
CONTINUOUS
 10
3.524840
 20
1.812360
  0
SEQEND
  8
0
  0
POLYLINE
  8
0
  6
CONTINUOUS
 66
     1
 40
0.000000
 41
0.000000
  0
VERTEX
  8
0
  6
CONTINUOUS
 10
3.521320
 20
1.776280
  0
VERTEX
  8
0
  6
CONTINUOUS
 10
3.524840
 20
1.812360
  0
VERTEX
  8
0
  6
CONTINUOUS
 10
3.535400
 20
1.839640
  0
VERTEX
  8
0
  6
CONTINUOUS
 10
3.550800
 20
1.859440
  0
VERTEX
  8
0
  6
CONTINUOUS
 10
3.569720
 20
1.873080
  0
VERTEX
  8
0
  6
CONTINUOUS
 10
3.589960
 20
1.881440
  0
VERTEX
  8
0
  6
CONTINUOUS
 10
3.610640
 20
1.886280
  0
VERTEX
  8
0
  6
CONTINUOUS
 10
3.629560
 20
1.888480
  0
VERTEX
  8
0
  6
CONTINUOUS
 10
3.979800
 20
1.888480
  0
VERTEX
  8
0
  6
CONTINUOUS
 10
3.992560
 20
1.859440
  0
VERTEX
  8
0
  6
CONTINUOUS
 10
4.014560
 20
1.827320
  0
VERTEX
  8
0
  6
CONTINUOUS
 10
4.044920
 20
1.793440
  0
VERTEX
  8
0
  6
CONTINUOUS
 10
4.082320
 20
1.759560
  0
VERTEX
  8
0
  6
CONTINUOUS
 10
4.125440
 20
1.728320
  0
VERTEX
  8
0
  6
CONTINUOUS
 10
4.172960
 20
1.700160
  0
VERTEX
  8
0
  6
CONTINUOUS
 10
4.223120
 20
1.677720
  0
VERTEX
  8
0
  6
CONTINUOUS
 10
4.275040
 20
1.662760
  0
VERTEX
  8
0
  6
CONTINUOUS
 10
4.307600
 20
1.703240
  0
VERTEX
  8
0
  6
CONTINUOUS
 10
4.346760
 20
1.738000
  0
VERTEX
  8
0
  6
CONTINUOUS
 10
4.391640
 20
1.767480
  0
VERTEX
  8
0
  6
CONTINUOUS
 10
4.440920
 20
1.791680
  0
VERTEX
  8
0
  6
CONTINUOUS
 10
4.493280
 20
1.810160
  0
VERTEX
  8
0
  6
CONTINUOUS
 10
4.548720
 20
1.823360
  0
VERTEX
  8
0
  6
CONTINUOUS
 10
4.605920
 20
1.830840
  0
VERTEX
  8
0
  6
CONTINUOUS
 10
4.663560
 20
1.833040
  0
VERTEX
  8
0
  6
CONTINUOUS
 10
4.721200
 20
1.829960
  0
VERTEX
  8
0
  6
CONTINUOUS
 10
4.777960
 20
1.821600
  0
VERTEX
  8
0
  6
CONTINUOUS
 10
4.832520
 20
1.807520
  0
VERTEX
  8
0
  6
CONTINUOUS
 10
4.884440
 20
1.788160
  0
VERTEX
  8
0
  6
CONTINUOUS
 10
4.932400
 20
1.763520
  0
VERTEX
  8
0
  6
CONTINUOUS
 10
4.975520
 20
1.733600
  0
VERTEX
  8
0
  6
CONTINUOUS
 10
5.012920
 20
1.698400
  0
VERTEX
  8
0
  6
CONTINUOUS
 10
5.043720
 20
1.657480
  0
VERTEX
  8
0
  6
CONTINUOUS
 10
5.070560
 20
1.684760
  0
VERTEX
  8
0
  6
CONTINUOUS
 10
5.096960
 20
1.706320
  0
VERTEX
  8
0
  6
CONTINUOUS
 10
5.122920
 20
1.722600
  0
VERTEX
  8
0
  6
CONTINUOUS
 10
5.148440
 20
1.733600
  0
VERTEX
  8
0
  6
CONTINUOUS
 10
5.173080
 20
1.739760
  0
VERTEX
  8
0
  6
CONTINUOUS
 10
5.197280
 20
1.741960
  0
VERTEX
  8
0
  6
CONTINUOUS
 10
5.219720
 20
1.740640
  0
VERTEX
  8
0
  6
CONTINUOUS
 10
5.241280
 20
1.735360
  0
VERTEX
  8
0
  6
CONTINUOUS
 10
5.280440
 20
1.716880
  0
VERTEX
  8
0
  6
CONTINUOUS
 10
5.312560
 20
1.689600
  0
VERTEX
  8
0
  6
CONTINUOUS
 10
5.336760
 20
1.657040
  0
VERTEX
  8
0
  6
CONTINUOUS
 10
5.351720
 20
1.622280
  0
VERTEX
  8
0
  6
CONTINUOUS
 10
5.500440
 20
1.622280
  0
VERTEX
  8
0
  6
CONTINUOUS
 10
5.512760
 20
1.548800
  0
VERTEX
  8
0
  6
CONTINUOUS
 10
6.596480
 20
1.548800
  0
VERTEX
  8
0
  6
CONTINUOUS
 10
6.613200
 20
1.459920
  0
VERTEX
  8
0
  6
CONTINUOUS
 10
6.657640
 20
1.468280
  0
VERTEX
  8
0
  6
CONTINUOUS
 10
6.702960
 20
1.467840
  0
VERTEX
  8
0
  6
CONTINUOUS
 10
6.746520
 20
1.459040
  0
VERTEX
  8
0
  6
CONTINUOUS
 10
6.787000
 20
1.441880
  0
VERTEX
  8
0
  6
CONTINUOUS
 10
6.821320
 20
1.416360
  0
VERTEX
  8
0
  6
CONTINUOUS
 10
6.848160
 20
1.383800
  0
VERTEX
  8
0
  6
CONTINUOUS
 10
6.865320
 20
1.343320
  0
VERTEX
  8
0
  6
CONTINUOUS
 10
6.869280
 20
1.320880
  0
VERTEX
  8
0
  6
CONTINUOUS
 10
6.870160
 20
1.296240
  0
VERTEX
  8
0
  6
CONTINUOUS
 10
7.135040
 20
1.296240
  0
VERTEX
  8
0
  6
CONTINUOUS
 10
7.135040
 20
1.147080
  0
VERTEX
  8
0
  6
CONTINUOUS
 10
3.520880
 20
1.147080
  0
VERTEX
  8
0
  6
CONTINUOUS
 10
3.521320
 20
1.776280
  0
SEQEND
  8
0
  0
TEXT
  8
0
 10
5.031400
 20
0.897600
 40
0.138132
  1
BA  548
 41
1.000000
  7
SN0
 71
     0
 72
     5
 11
5.621378
 21
0.897600
  0
TEXT
  8
0
 10
4.875640
 20
0.705760
 40
0.138132
  1
3/4" x 3-5/8"
 41
1.000000
  7
SN0
 71
     0
 72
     5
 11
5.775860
 21
0.705760
  0
ENDSEC
  0
EOF
