  0
SECTION
  2
HEADER
  9
$ACADVER
  1
AC1006
  9
$EXTMIN
 10
0.833360
 20
0.731280
  9
$EXTMAX
 10
7.145600
 20
4.193640
  9
$LTSCALE
 40
0.044000
  9
$PDMODE
 70
    35
  9
$PDSIZE
 40
0.035200
  0
ENDSEC
  0
SECTION
  2
TABLES
  0
TABLE
  2
LTYPE
 70
     9
  0
LTYPE
  2
CONTINUOUS
 70
    64
  3
Solid line
 72
    65
 73
     0
 40
0.000000
  0
LTYPE
  2
DASHED
 70
    64
  3
__ __ __ __ __ __ __ __ __ __ __ __ __ __ __
 72
    65
 73
     2
 40
0.000330
 49
0.000220
 49
-0.000110
  0
LTYPE
  2
HIDDEN
 70
    64
  3
 _ _ _ _ _ _ _ _ _ _ _ _ _ _ _ _ _ _ _ _ _ _
 72
    65
 73
     2
 40
0.000165
 49
0.000110
 49
-0.000055
  0
LTYPE
  2
CENTER
 70
    64
  3
____ _ ____ _ ____ _ ____ _ ____ _ ____ _ ____
 72
    65
 73
     4
 40
0.000880
 49
0.000550
 49
-0.000110
 49
0.000110
 49
-0.000110
  0
LTYPE
  2
PHANTOM
 70
    64
  3
_____ _ _ _____ _ _ _____ _ _ _____ _ _ ____
 72
    65
 73
     6
 40
0.001100
 49
0.000550
 49
-0.000110
 49
0.000110
 49
-0.000110
 49
0.000110
 49
-0.000110
  0
LTYPE
  2
DOT
 70
    64
  3
...............................................
 72
    65
 73
     2
 40
0.000110
 49
0.000000
 49
-0.000110
  0
LTYPE
  2
DASHDOT
 70
    64
  3
__ . __ . __ . __ . __ . __ . __ . __ . __ . __
 72
    65
 73
     4
 40
0.000440
 49
0.000220
 49
-0.000110
 49
0.000000
 49
-0.000110
  0
LTYPE
  2
BORDER
 70
    64
  3
__ __ . __ __ . __ __ . __ __ . __ __ . __ __
 72
    65
 73
     6
 40
0.000770
 49
0.000220
 49
-0.000110
 49
0.000220
 49
-0.000110
 49
0.000000
 49
-0.000110
  0
LTYPE
  2
DIVIDE
 70
    64
  3
__ . . __ . . __ . . __ . . __ . . __ . . __
 72
    65
 73
     6
 40
0.000550
 49
0.000220
 49
-0.000110
 49
0.000000
 49
-0.000110
 49
0.000000
 49
-0.000110
  0
LTYPE
  2
DOTDOT
 70
    64
  3
 . .  . .  . .  . .  . .  . . 
 72
    65
 73
     5
 40
0.000242
 49
-0.000110
 49
0.000000
 49
-0.000110
 49
0.000000
 49
-0.000110
  0
ENDTAB
  0
TABLE
  2
STYLE
 70
     2
  0
STYLE
 70
     0
  2
SN0
 40
0.000000
 41
0.000440
 50
0.000000
 71
     0
 42
0.000000
  3
ROMAND
  0
STYLE
 70
    68
  2
SV0
 40
0.000000
 41
0.000440
 50
0.000000
 71
     0
 42
0.000000
  3
ROMAND
  0
ENDTAB
  0
TABLE
  2
LAYER
 70
     3
  0
LAYER
  2
FOREGROUND
 70
    64
 62
     7
  6
CONTINUOUS
  0
LAYER
  2
BACKGROUND
 70
    65
 62
    -7
  6
CONTINUOUS
  0
LAYER
  2
0
 70
    64
 62
     7
  6
CONTINUOUS
  0
ENDTAB
  0
ENDSEC
  0
SECTION
  2
ENTITIES
  0
POLYLINE
  8
FOREGROUND
  6
CONTINUOUS
 66
     1
 40
0.000000
 41
0.000000
  0
VERTEX
  8
FOREGROUND
  6
CONTINUOUS
 10
0.000000
 20
4.924920
  0
VERTEX
  8
FOREGROUND
  6
CONTINUOUS
 10
8.499920
 20
4.924920
  0
VERTEX
  8
FOREGROUND
  6
CONTINUOUS
 10
8.499920
 20
-6.075080
  0
VERTEX
  8
FOREGROUND
  6
CONTINUOUS
 10
0.000000
 20
-6.075080
  0
VERTEX
  8
FOREGROUND
  6
CONTINUOUS
 10
0.000000
 20
4.924920
  0
SEQEND
  8
0
  0
POLYLINE
  8
FOREGROUND
  6
CONTINUOUS
 66
     1
 40
0.000000
 41
0.000000
  0
VERTEX
  8
FOREGROUND
  6
CONTINUOUS
 10
0.000000
 20
4.924920
  0
VERTEX
  8
FOREGROUND
  6
CONTINUOUS
 10
8.499920
 20
4.924920
  0
VERTEX
  8
FOREGROUND
  6
CONTINUOUS
 10
8.499920
 20
-6.075080
  0
VERTEX
  8
FOREGROUND
  6
CONTINUOUS
 10
0.000000
 20
-6.075080
  0
VERTEX
  8
FOREGROUND
  6
CONTINUOUS
 10
0.000000
 20
4.924920
  0
SEQEND
  8
0
  0
POLYLINE
  8
0
  6
CONTINUOUS
 66
     1
 40
0.014080
 41
0.014080
  0
VERTEX
  8
0
  6
CONTINUOUS
 10
2.292840
 20
3.756720
  0
VERTEX
  8
0
  6
CONTINUOUS
 10
5.640800
 20
3.756720
  0
VERTEX
  8
0
  6
CONTINUOUS
 10
5.643000
 20
3.765080
  0
VERTEX
  8
0
  6
CONTINUOUS
 10
5.643000
 20
3.863640
  0
VERTEX
  8
0
  6
CONTINUOUS
 10
5.719120
 20
3.857920
  0
VERTEX
  8
0
  6
CONTINUOUS
 10
5.764880
 20
3.856600
  0
VERTEX
  8
0
  6
CONTINUOUS
 10
5.827360
 20
3.858800
  0
VERTEX
  8
0
  6
CONTINUOUS
 10
5.882800
 20
3.865400
  0
VERTEX
  8
0
  6
CONTINUOUS
 10
5.931640
 20
3.875520
  0
VERTEX
  8
0
  6
CONTINUOUS
 10
5.988400
 20
3.893120
  0
VERTEX
  8
0
  6
CONTINUOUS
 10
6.036800
 20
3.915560
  0
VERTEX
  8
0
  6
CONTINUOUS
 10
6.079040
 20
3.940200
  0
VERTEX
  8
0
  6
CONTINUOUS
 10
6.117320
 20
3.967040
  0
VERTEX
  8
0
  6
CONTINUOUS
 10
6.204440
 20
4.031280
  0
VERTEX
  8
0
  6
CONTINUOUS
 10
6.241400
 20
4.052840
  0
VERTEX
  8
0
  6
CONTINUOUS
 10
6.281880
 20
4.070000
  0
VERTEX
  8
0
  6
CONTINUOUS
 10
6.328080
 20
4.081440
  0
VERTEX
  8
0
  6
CONTINUOUS
 10
6.367240
 20
4.085400
  0
VERTEX
  8
0
  6
CONTINUOUS
 10
6.411680
 20
4.085400
  0
VERTEX
  8
0
  6
CONTINUOUS
 10
6.461840
 20
4.080120
  0
VERTEX
  8
0
  6
CONTINUOUS
 10
6.518160
 20
4.069120
  0
VERTEX
  8
0
  6
CONTINUOUS
 10
6.518160
 20
4.167240
  0
VERTEX
  8
0
  6
CONTINUOUS
 10
6.518160
 20
4.162840
  0
VERTEX
  8
0
  6
CONTINUOUS
 10
6.518160
 20
4.185720
  0
VERTEX
  8
0
  6
CONTINUOUS
 10
7.101160
 20
4.185720
  0
VERTEX
  8
0
  6
CONTINUOUS
 10
7.101160
 20
3.323320
  0
VERTEX
  8
0
  6
CONTINUOUS
 10
7.097200
 20
3.314960
  0
VERTEX
  8
0
  6
CONTINUOUS
 10
0.836880
 20
3.314960
  0
VERTEX
  8
0
  6
CONTINUOUS
 10
0.840840
 20
3.323320
  0
VERTEX
  8
0
  6
CONTINUOUS
 10
0.840840
 20
4.185720
  0
VERTEX
  8
0
  6
CONTINUOUS
 10
1.424280
 20
4.185720
  0
VERTEX
  8
0
  6
CONTINUOUS
 10
1.424280
 20
4.162840
  0
VERTEX
  8
0
  6
CONTINUOUS
 10
1.424280
 20
4.167240
  0
VERTEX
  8
0
  6
CONTINUOUS
 10
1.424280
 20
4.069120
  0
VERTEX
  8
0
  6
CONTINUOUS
 10
1.480600
 20
4.080120
  0
VERTEX
  8
0
  6
CONTINUOUS
 10
1.530760
 20
4.085400
  0
VERTEX
  8
0
  6
CONTINUOUS
 10
1.575200
 20
4.085400
  0
VERTEX
  8
0
  6
CONTINUOUS
 10
1.614360
 20
4.081440
  0
VERTEX
  8
0
  6
CONTINUOUS
 10
1.660560
 20
4.070000
  0
VERTEX
  8
0
  6
CONTINUOUS
 10
1.701040
 20
4.052840
  0
VERTEX
  8
0
  6
CONTINUOUS
 10
1.738000
 20
4.031280
  0
VERTEX
  8
0
  6
CONTINUOUS
 10
1.862960
 20
3.940200
  0
VERTEX
  8
0
  6
CONTINUOUS
 10
1.905200
 20
3.915560
  0
VERTEX
  8
0
  6
CONTINUOUS
 10
1.953600
 20
3.893120
  0
VERTEX
  8
0
  6
CONTINUOUS
 10
2.010360
 20
3.875520
  0
VERTEX
  8
0
  6
CONTINUOUS
 10
2.059200
 20
3.865400
  0
VERTEX
  8
0
  6
CONTINUOUS
 10
2.114640
 20
3.858800
  0
VERTEX
  8
0
  6
CONTINUOUS
 10
2.177120
 20
3.856600
  0
VERTEX
  8
0
  6
CONTINUOUS
 10
2.247520
 20
3.859240
  0
VERTEX
  8
0
  6
CONTINUOUS
 10
2.299000
 20
3.863640
  0
VERTEX
  8
0
  6
CONTINUOUS
 10
2.299440
 20
3.765080
  0
VERTEX
  8
0
  6
CONTINUOUS
 10
2.292840
 20
3.756720
  0
SEQEND
  8
0
  0
SOLID
  8
0
 62
    15
 10
0.868120
 20
1.248720
 11
0.880880
 21
2.006400
 12
0.872520
 22
1.257080
 13
0.884840
 23
2.014320
  0
POLYLINE
  8
0
  6
CONTINUOUS
 66
     1
 40
0.000000
 41
0.000000
  0
VERTEX
  8
0
  6
CONTINUOUS
 10
0.868120
 20
1.248720
  0
VERTEX
  8
0
  6
CONTINUOUS
 10
0.880880
 20
2.006400
  0
VERTEX
  8
0
  6
CONTINUOUS
 10
0.884840
 20
2.014320
  0
VERTEX
  8
0
  6
CONTINUOUS
 10
0.872520
 20
1.257080
  0
VERTEX
  8
0
  6
CONTINUOUS
 10
0.868120
 20
1.248720
  0
SEQEND
  8
0
  0
SOLID
  8
0
 62
    15
 10
5.672480
 20
1.690480
 11
5.684800
 21
2.447720
 12
5.674240
 22
1.698840
 13
5.687000
 23
2.456080
  0
POLYLINE
  8
0
  6
CONTINUOUS
 66
     1
 40
0.000000
 41
0.000000
  0
VERTEX
  8
0
  6
CONTINUOUS
 10
5.672480
 20
1.690480
  0
VERTEX
  8
0
  6
CONTINUOUS
 10
5.684800
 20
2.447720
  0
VERTEX
  8
0
  6
CONTINUOUS
 10
5.687000
 20
2.456080
  0
VERTEX
  8
0
  6
CONTINUOUS
 10
5.674240
 20
1.698840
  0
VERTEX
  8
0
  6
CONTINUOUS
 10
5.672480
 20
1.690480
  0
SEQEND
  8
0
  0
SOLID
  8
0
 62
    15
 10
5.674240
 20
1.797400
 11
5.687000
 21
2.555080
 12
5.726160
 22
1.793000
 13
5.738480
 23
2.550680
  0
POLYLINE
  8
0
  6
CONTINUOUS
 66
     1
 40
0.000000
 41
0.000000
  0
VERTEX
  8
0
  6
CONTINUOUS
 10
5.674240
 20
1.797400
  0
VERTEX
  8
0
  6
CONTINUOUS
 10
5.687000
 20
2.555080
  0
VERTEX
  8
0
  6
CONTINUOUS
 10
5.738480
 20
2.550680
  0
VERTEX
  8
0
  6
CONTINUOUS
 10
5.726160
 20
1.793000
  0
VERTEX
  8
0
  6
CONTINUOUS
 10
5.674240
 20
1.797400
  0
SEQEND
  8
0
  0
SOLID
  8
0
 62
    15
 10
5.726160
 20
1.793000
 11
5.738480
 21
2.550680
 12
5.773680
 22
1.790800
 13
5.786440
 23
2.548480
  0
POLYLINE
  8
0
  6
CONTINUOUS
 66
     1
 40
0.000000
 41
0.000000
  0
VERTEX
  8
0
  6
CONTINUOUS
 10
5.726160
 20
1.793000
  0
VERTEX
  8
0
  6
CONTINUOUS
 10
5.738480
 20
2.550680
  0
VERTEX
  8
0
  6
CONTINUOUS
 10
5.786440
 20
2.548480
  0
VERTEX
  8
0
  6
CONTINUOUS
 10
5.773680
 20
1.790800
  0
VERTEX
  8
0
  6
CONTINUOUS
 10
5.726160
 20
1.793000
  0
SEQEND
  8
0
  0
SOLID
  8
0
 62
    15
 10
5.773680
 20
1.790800
 11
5.786440
 21
2.548480
 12
5.858600
 22
1.792560
 13
5.871360
 23
2.550240
  0
POLYLINE
  8
0
  6
CONTINUOUS
 66
     1
 40
0.000000
 41
0.000000
  0
VERTEX
  8
0
  6
CONTINUOUS
 10
5.773680
 20
1.790800
  0
VERTEX
  8
0
  6
CONTINUOUS
 10
5.786440
 20
2.548480
  0
VERTEX
  8
0
  6
CONTINUOUS
 10
5.871360
 20
2.550240
  0
VERTEX
  8
0
  6
CONTINUOUS
 10
5.858600
 20
1.792560
  0
VERTEX
  8
0
  6
CONTINUOUS
 10
5.773680
 20
1.790800
  0
SEQEND
  8
0
  0
SOLID
  8
0
 62
    15
 10
5.858600
 20
1.792560
 11
5.871360
 21
2.550240
 12
5.931200
 22
1.802240
 13
5.943520
 23
2.559480
  0
POLYLINE
  8
0
  6
CONTINUOUS
 66
     1
 40
0.000000
 41
0.000000
  0
VERTEX
  8
0
  6
CONTINUOUS
 10
5.858600
 20
1.792560
  0
VERTEX
  8
0
  6
CONTINUOUS
 10
5.871360
 20
2.550240
  0
VERTEX
  8
0
  6
CONTINUOUS
 10
5.943520
 20
2.559480
  0
VERTEX
  8
0
  6
CONTINUOUS
 10
5.931200
 20
1.802240
  0
VERTEX
  8
0
  6
CONTINUOUS
 10
5.858600
 20
1.792560
  0
SEQEND
  8
0
  0
SOLID
  8
0
 62
    15
 10
5.931200
 20
1.802240
 11
5.943520
 21
2.559480
 12
5.992360
 22
1.817640
 13
6.005120
 23
2.574880
  0
POLYLINE
  8
0
  6
CONTINUOUS
 66
     1
 40
0.000000
 41
0.000000
  0
VERTEX
  8
0
  6
CONTINUOUS
 10
5.931200
 20
1.802240
  0
VERTEX
  8
0
  6
CONTINUOUS
 10
5.943520
 20
2.559480
  0
VERTEX
  8
0
  6
CONTINUOUS
 10
6.005120
 20
2.574880
  0
VERTEX
  8
0
  6
CONTINUOUS
 10
5.992360
 20
1.817640
  0
VERTEX
  8
0
  6
CONTINUOUS
 10
5.931200
 20
1.802240
  0
SEQEND
  8
0
  0
SOLID
  8
0
 62
    15
 10
5.992360
 20
1.817640
 11
6.005120
 21
2.574880
 12
6.044720
 22
1.837880
 13
6.057480
 23
2.595120
  0
POLYLINE
  8
0
  6
CONTINUOUS
 66
     1
 40
0.000000
 41
0.000000
  0
VERTEX
  8
0
  6
CONTINUOUS
 10
5.992360
 20
1.817640
  0
VERTEX
  8
0
  6
CONTINUOUS
 10
6.005120
 20
2.574880
  0
VERTEX
  8
0
  6
CONTINUOUS
 10
6.057480
 20
2.595120
  0
VERTEX
  8
0
  6
CONTINUOUS
 10
6.044720
 20
1.837880
  0
VERTEX
  8
0
  6
CONTINUOUS
 10
5.992360
 20
1.817640
  0
SEQEND
  8
0
  0
SOLID
  8
0
 62
    15
 10
6.044720
 20
1.837880
 11
6.057480
 21
2.595120
 12
6.090040
 22
1.861200
 13
6.102800
 23
2.618880
  0
POLYLINE
  8
0
  6
CONTINUOUS
 66
     1
 40
0.000000
 41
0.000000
  0
VERTEX
  8
0
  6
CONTINUOUS
 10
6.044720
 20
1.837880
  0
VERTEX
  8
0
  6
CONTINUOUS
 10
6.057480
 20
2.595120
  0
VERTEX
  8
0
  6
CONTINUOUS
 10
6.102800
 20
2.618880
  0
VERTEX
  8
0
  6
CONTINUOUS
 10
6.090040
 20
1.861200
  0
VERTEX
  8
0
  6
CONTINUOUS
 10
6.044720
 20
1.837880
  0
SEQEND
  8
0
  0
SOLID
  8
0
 62
    15
 10
6.090040
 20
1.861200
 11
6.102800
 21
2.618880
 12
6.166160
 22
1.914000
 13
6.178920
 23
2.671680
  0
POLYLINE
  8
0
  6
CONTINUOUS
 66
     1
 40
0.000000
 41
0.000000
  0
VERTEX
  8
0
  6
CONTINUOUS
 10
6.090040
 20
1.861200
  0
VERTEX
  8
0
  6
CONTINUOUS
 10
6.102800
 20
2.618880
  0
VERTEX
  8
0
  6
CONTINUOUS
 10
6.178920
 20
2.671680
  0
VERTEX
  8
0
  6
CONTINUOUS
 10
6.166160
 20
1.914000
  0
VERTEX
  8
0
  6
CONTINUOUS
 10
6.090040
 20
1.861200
  0
SEQEND
  8
0
  0
SOLID
  8
0
 62
    15
 10
6.166160
 20
1.914000
 11
6.178920
 21
2.671680
 12
6.235680
 22
1.965040
 13
6.248440
 23
2.722280
  0
POLYLINE
  8
0
  6
CONTINUOUS
 66
     1
 40
0.000000
 41
0.000000
  0
VERTEX
  8
0
  6
CONTINUOUS
 10
6.166160
 20
1.914000
  0
VERTEX
  8
0
  6
CONTINUOUS
 10
6.178920
 20
2.671680
  0
VERTEX
  8
0
  6
CONTINUOUS
 10
6.248440
 20
2.722280
  0
VERTEX
  8
0
  6
CONTINUOUS
 10
6.235680
 20
1.965040
  0
VERTEX
  8
0
  6
CONTINUOUS
 10
6.166160
 20
1.914000
  0
SEQEND
  8
0
  0
SOLID
  8
0
 62
    15
 10
6.235680
 20
1.965040
 11
6.248440
 21
2.722280
 12
6.272640
 22
1.986600
 13
6.284960
 23
2.743840
  0
POLYLINE
  8
0
  6
CONTINUOUS
 66
     1
 40
0.000000
 41
0.000000
  0
VERTEX
  8
0
  6
CONTINUOUS
 10
6.235680
 20
1.965040
  0
VERTEX
  8
0
  6
CONTINUOUS
 10
6.248440
 20
2.722280
  0
VERTEX
  8
0
  6
CONTINUOUS
 10
6.284960
 20
2.743840
  0
VERTEX
  8
0
  6
CONTINUOUS
 10
6.272640
 20
1.986600
  0
VERTEX
  8
0
  6
CONTINUOUS
 10
6.235680
 20
1.965040
  0
SEQEND
  8
0
  0
SOLID
  8
0
 62
    15
 10
6.272640
 20
1.986600
 11
6.284960
 21
2.743840
 12
6.313120
 22
2.003760
 13
6.325440
 23
2.761000
  0
POLYLINE
  8
0
  6
CONTINUOUS
 66
     1
 40
0.000000
 41
0.000000
  0
VERTEX
  8
0
  6
CONTINUOUS
 10
6.272640
 20
1.986600
  0
VERTEX
  8
0
  6
CONTINUOUS
 10
6.284960
 20
2.743840
  0
VERTEX
  8
0
  6
CONTINUOUS
 10
6.325440
 20
2.761000
  0
VERTEX
  8
0
  6
CONTINUOUS
 10
6.313120
 20
2.003760
  0
VERTEX
  8
0
  6
CONTINUOUS
 10
6.272640
 20
1.986600
  0
SEQEND
  8
0
  0
SOLID
  8
0
 62
    15
 10
6.313120
 20
2.003760
 11
6.325440
 21
2.761000
 12
6.358880
 22
2.015200
 13
6.371640
 23
2.772880
  0
POLYLINE
  8
0
  6
CONTINUOUS
 66
     1
 40
0.000000
 41
0.000000
  0
VERTEX
  8
0
  6
CONTINUOUS
 10
6.313120
 20
2.003760
  0
VERTEX
  8
0
  6
CONTINUOUS
 10
6.325440
 20
2.761000
  0
VERTEX
  8
0
  6
CONTINUOUS
 10
6.371640
 20
2.772880
  0
VERTEX
  8
0
  6
CONTINUOUS
 10
6.358880
 20
2.015200
  0
VERTEX
  8
0
  6
CONTINUOUS
 10
6.313120
 20
2.003760
  0
SEQEND
  8
0
  0
SOLID
  8
0
 62
    15
 10
6.358880
 20
2.015200
 11
6.371640
 21
2.772880
 12
6.412560
 22
2.020040
 13
6.425320
 23
2.777280
  0
POLYLINE
  8
0
  6
CONTINUOUS
 66
     1
 40
0.000000
 41
0.000000
  0
VERTEX
  8
0
  6
CONTINUOUS
 10
6.358880
 20
2.015200
  0
VERTEX
  8
0
  6
CONTINUOUS
 10
6.371640
 20
2.772880
  0
VERTEX
  8
0
  6
CONTINUOUS
 10
6.425320
 20
2.777280
  0
VERTEX
  8
0
  6
CONTINUOUS
 10
6.412560
 20
2.020040
  0
VERTEX
  8
0
  6
CONTINUOUS
 10
6.358880
 20
2.015200
  0
SEQEND
  8
0
  0
SOLID
  8
0
 62
    15
 10
6.412560
 20
2.020040
 11
6.425320
 21
2.777280
 12
6.475480
 22
2.016080
 13
6.488240
 23
2.773760
  0
POLYLINE
  8
0
  6
CONTINUOUS
 66
     1
 40
0.000000
 41
0.000000
  0
VERTEX
  8
0
  6
CONTINUOUS
 10
6.412560
 20
2.020040
  0
VERTEX
  8
0
  6
CONTINUOUS
 10
6.425320
 20
2.777280
  0
VERTEX
  8
0
  6
CONTINUOUS
 10
6.488240
 20
2.773760
  0
VERTEX
  8
0
  6
CONTINUOUS
 10
6.475480
 20
2.016080
  0
VERTEX
  8
0
  6
CONTINUOUS
 10
6.412560
 20
2.020040
  0
SEQEND
  8
0
  0
SOLID
  8
0
 62
    15
 10
6.475480
 20
2.016080
 11
6.488240
 21
2.773760
 12
6.549400
 22
2.002880
 13
6.562160
 23
2.760560
  0
POLYLINE
  8
0
  6
CONTINUOUS
 66
     1
 40
0.000000
 41
0.000000
  0
VERTEX
  8
0
  6
CONTINUOUS
 10
6.475480
 20
2.016080
  0
VERTEX
  8
0
  6
CONTINUOUS
 10
6.488240
 20
2.773760
  0
VERTEX
  8
0
  6
CONTINUOUS
 10
6.562160
 20
2.760560
  0
VERTEX
  8
0
  6
CONTINUOUS
 10
6.549400
 20
2.002880
  0
VERTEX
  8
0
  6
CONTINUOUS
 10
6.475480
 20
2.016080
  0
SEQEND
  8
0
  0
SOLID
  8
0
 62
    15
 10
7.132840
 20
2.119480
 11
7.145160
 21
2.877160
 12
7.132840
 22
1.257080
 13
7.145160
 23
2.014320
  0
POLYLINE
  8
0
  6
CONTINUOUS
 66
     1
 40
0.000000
 41
0.000000
  0
VERTEX
  8
0
  6
CONTINUOUS
 10
7.132840
 20
2.119480
  0
VERTEX
  8
0
  6
CONTINUOUS
 10
7.145160
 20
2.877160
  0
VERTEX
  8
0
  6
CONTINUOUS
 10
7.145160
 20
2.014320
  0
VERTEX
  8
0
  6
CONTINUOUS
 10
7.132840
 20
1.257080
  0
VERTEX
  8
0
  6
CONTINUOUS
 10
7.132840
 20
2.119480
  0
SEQEND
  8
0
  0
SOLID
  8
0
 62
    15
 10
6.549400
 20
2.119480
 11
6.562160
 21
2.877160
 12
7.132840
 22
2.119480
 13
7.145160
 23
2.877160
  0
POLYLINE
  8
0
  6
CONTINUOUS
 66
     1
 40
0.000000
 41
0.000000
  0
VERTEX
  8
0
  6
CONTINUOUS
 10
6.549400
 20
2.119480
  0
VERTEX
  8
0
  6
CONTINUOUS
 10
6.562160
 20
2.877160
  0
VERTEX
  8
0
  6
CONTINUOUS
 10
7.145160
 20
2.877160
  0
VERTEX
  8
0
  6
CONTINUOUS
 10
7.132840
 20
2.119480
  0
VERTEX
  8
0
  6
CONTINUOUS
 10
6.549400
 20
2.119480
  0
SEQEND
  8
0
  0
SOLID
  8
0
 62
    15
 10
2.330240
 20
1.688720
 11
2.342560
 21
2.446400
 12
5.672480
 22
1.690480
 13
5.684800
 23
2.447720
  0
POLYLINE
  8
0
  6
CONTINUOUS
 66
     1
 40
0.000000
 41
0.000000
  0
VERTEX
  8
0
  6
CONTINUOUS
 10
2.330240
 20
1.688720
  0
VERTEX
  8
0
  6
CONTINUOUS
 10
2.342560
 20
2.446400
  0
VERTEX
  8
0
  6
CONTINUOUS
 10
5.684800
 20
2.447720
  0
VERTEX
  8
0
  6
CONTINUOUS
 10
5.672480
 20
1.690480
  0
VERTEX
  8
0
  6
CONTINUOUS
 10
2.330240
 20
1.688720
  0
SEQEND
  8
0
  0
SOLID
  8
0
 62
    15
 10
0.872520
 20
2.119480
 11
0.884840
 21
2.877160
 12
1.455520
 22
2.119480
 13
1.468280
 23
2.877160
  0
POLYLINE
  8
0
  6
CONTINUOUS
 66
     1
 40
0.000000
 41
0.000000
  0
VERTEX
  8
0
  6
CONTINUOUS
 10
0.872520
 20
2.119480
  0
VERTEX
  8
0
  6
CONTINUOUS
 10
0.884840
 20
2.877160
  0
VERTEX
  8
0
  6
CONTINUOUS
 10
1.468280
 20
2.877160
  0
VERTEX
  8
0
  6
CONTINUOUS
 10
1.455520
 20
2.119480
  0
VERTEX
  8
0
  6
CONTINUOUS
 10
0.872520
 20
2.119480
  0
SEQEND
  8
0
  0
SOLID
  8
0
 62
    15
 10
1.455520
 20
2.119480
 11
1.468280
 21
2.877160
 12
1.455520
 22
2.002880
 13
1.468280
 23
2.760560
  0
POLYLINE
  8
0
  6
CONTINUOUS
 66
     1
 40
0.000000
 41
0.000000
  0
VERTEX
  8
0
  6
CONTINUOUS
 10
1.455520
 20
2.119480
  0
VERTEX
  8
0
  6
CONTINUOUS
 10
1.468280
 20
2.877160
  0
VERTEX
  8
0
  6
CONTINUOUS
 10
1.468280
 20
2.760560
  0
VERTEX
  8
0
  6
CONTINUOUS
 10
1.455520
 20
2.002880
  0
VERTEX
  8
0
  6
CONTINUOUS
 10
1.455520
 20
2.119480
  0
SEQEND
  8
0
  0
SOLID
  8
0
 62
    15
 10
1.455520
 20
2.002880
 11
1.468280
 21
2.760560
 12
1.529440
 22
2.016080
 13
1.542200
 23
2.773760
  0
POLYLINE
  8
0
  6
CONTINUOUS
 66
     1
 40
0.000000
 41
0.000000
  0
VERTEX
  8
0
  6
CONTINUOUS
 10
1.455520
 20
2.002880
  0
VERTEX
  8
0
  6
CONTINUOUS
 10
1.468280
 20
2.760560
  0
VERTEX
  8
0
  6
CONTINUOUS
 10
1.542200
 20
2.773760
  0
VERTEX
  8
0
  6
CONTINUOUS
 10
1.529440
 20
2.016080
  0
VERTEX
  8
0
  6
CONTINUOUS
 10
1.455520
 20
2.002880
  0
SEQEND
  8
0
  0
SOLID
  8
0
 62
    15
 10
1.529440
 20
2.016080
 11
1.542200
 21
2.773760
 12
1.592360
 22
2.020040
 13
1.604680
 23
2.777280
  0
POLYLINE
  8
0
  6
CONTINUOUS
 66
     1
 40
0.000000
 41
0.000000
  0
VERTEX
  8
0
  6
CONTINUOUS
 10
1.529440
 20
2.016080
  0
VERTEX
  8
0
  6
CONTINUOUS
 10
1.542200
 20
2.773760
  0
VERTEX
  8
0
  6
CONTINUOUS
 10
1.604680
 20
2.777280
  0
VERTEX
  8
0
  6
CONTINUOUS
 10
1.592360
 20
2.020040
  0
VERTEX
  8
0
  6
CONTINUOUS
 10
1.529440
 20
2.016080
  0
SEQEND
  8
0
  0
SOLID
  8
0
 62
    15
 10
1.592360
 20
2.020040
 11
1.604680
 21
2.777280
 12
1.645600
 22
2.015200
 13
1.658360
 23
2.772880
  0
POLYLINE
  8
0
  6
CONTINUOUS
 66
     1
 40
0.000000
 41
0.000000
  0
VERTEX
  8
0
  6
CONTINUOUS
 10
1.592360
 20
2.020040
  0
VERTEX
  8
0
  6
CONTINUOUS
 10
1.604680
 20
2.777280
  0
VERTEX
  8
0
  6
CONTINUOUS
 10
1.658360
 20
2.772880
  0
VERTEX
  8
0
  6
CONTINUOUS
 10
1.645600
 20
2.015200
  0
VERTEX
  8
0
  6
CONTINUOUS
 10
1.592360
 20
2.020040
  0
SEQEND
  8
0
  0
SOLID
  8
0
 62
    15
 10
1.645600
 20
2.015200
 11
1.658360
 21
2.772880
 12
1.691800
 22
2.003760
 13
1.704560
 23
2.761000
  0
POLYLINE
  8
0
  6
CONTINUOUS
 66
     1
 40
0.000000
 41
0.000000
  0
VERTEX
  8
0
  6
CONTINUOUS
 10
1.645600
 20
2.015200
  0
VERTEX
  8
0
  6
CONTINUOUS
 10
1.658360
 20
2.772880
  0
VERTEX
  8
0
  6
CONTINUOUS
 10
1.704560
 20
2.761000
  0
VERTEX
  8
0
  6
CONTINUOUS
 10
1.691800
 20
2.003760
  0
VERTEX
  8
0
  6
CONTINUOUS
 10
1.645600
 20
2.015200
  0
SEQEND
  8
0
  0
SOLID
  8
0
 62
    15
 10
1.691800
 20
2.003760
 11
1.704560
 21
2.761000
 12
1.732280
 22
1.986600
 13
1.745040
 23
2.743840
  0
POLYLINE
  8
0
  6
CONTINUOUS
 66
     1
 40
0.000000
 41
0.000000
  0
VERTEX
  8
0
  6
CONTINUOUS
 10
1.691800
 20
2.003760
  0
VERTEX
  8
0
  6
CONTINUOUS
 10
1.704560
 20
2.761000
  0
VERTEX
  8
0
  6
CONTINUOUS
 10
1.745040
 20
2.743840
  0
VERTEX
  8
0
  6
CONTINUOUS
 10
1.732280
 20
1.986600
  0
VERTEX
  8
0
  6
CONTINUOUS
 10
1.691800
 20
2.003760
  0
SEQEND
  8
0
  0
SOLID
  8
0
 62
    15
 10
1.732280
 20
1.986600
 11
1.745040
 21
2.743840
 12
1.769240
 22
1.965040
 13
1.781560
 23
2.722280
  0
POLYLINE
  8
0
  6
CONTINUOUS
 66
     1
 40
0.000000
 41
0.000000
  0
VERTEX
  8
0
  6
CONTINUOUS
 10
1.732280
 20
1.986600
  0
VERTEX
  8
0
  6
CONTINUOUS
 10
1.745040
 20
2.743840
  0
VERTEX
  8
0
  6
CONTINUOUS
 10
1.781560
 20
2.722280
  0
VERTEX
  8
0
  6
CONTINUOUS
 10
1.769240
 20
1.965040
  0
VERTEX
  8
0
  6
CONTINUOUS
 10
1.732280
 20
1.986600
  0
SEQEND
  8
0
  0
SOLID
  8
0
 62
    15
 10
1.769240
 20
1.965040
 11
1.781560
 21
2.722280
 12
1.838760
 22
1.914000
 13
1.851080
 23
2.671680
  0
POLYLINE
  8
0
  6
CONTINUOUS
 66
     1
 40
0.000000
 41
0.000000
  0
VERTEX
  8
0
  6
CONTINUOUS
 10
1.769240
 20
1.965040
  0
VERTEX
  8
0
  6
CONTINUOUS
 10
1.781560
 20
2.722280
  0
VERTEX
  8
0
  6
CONTINUOUS
 10
1.851080
 20
2.671680
  0
VERTEX
  8
0
  6
CONTINUOUS
 10
1.838760
 20
1.914000
  0
VERTEX
  8
0
  6
CONTINUOUS
 10
1.769240
 20
1.965040
  0
SEQEND
  8
0
  0
SOLID
  8
0
 62
    15
 10
1.838760
 20
1.914000
 11
1.851080
 21
2.671680
 12
1.914880
 22
1.861200
 13
1.927200
 23
2.618880
  0
POLYLINE
  8
0
  6
CONTINUOUS
 66
     1
 40
0.000000
 41
0.000000
  0
VERTEX
  8
0
  6
CONTINUOUS
 10
1.838760
 20
1.914000
  0
VERTEX
  8
0
  6
CONTINUOUS
 10
1.851080
 20
2.671680
  0
VERTEX
  8
0
  6
CONTINUOUS
 10
1.927200
 20
2.618880
  0
VERTEX
  8
0
  6
CONTINUOUS
 10
1.914880
 20
1.861200
  0
VERTEX
  8
0
  6
CONTINUOUS
 10
1.838760
 20
1.914000
  0
SEQEND
  8
0
  0
SOLID
  8
0
 62
    15
 10
1.914880
 20
1.861200
 11
1.927200
 21
2.618880
 12
1.960200
 22
1.837880
 13
1.972520
 23
2.595120
  0
POLYLINE
  8
0
  6
CONTINUOUS
 66
     1
 40
0.000000
 41
0.000000
  0
VERTEX
  8
0
  6
CONTINUOUS
 10
1.914880
 20
1.861200
  0
VERTEX
  8
0
  6
CONTINUOUS
 10
1.927200
 20
2.618880
  0
VERTEX
  8
0
  6
CONTINUOUS
 10
1.972520
 20
2.595120
  0
VERTEX
  8
0
  6
CONTINUOUS
 10
1.960200
 20
1.837880
  0
VERTEX
  8
0
  6
CONTINUOUS
 10
1.914880
 20
1.861200
  0
SEQEND
  8
0
  0
SOLID
  8
0
 62
    15
 10
1.960200
 20
1.837880
 11
1.972520
 21
2.595120
 12
2.012560
 22
1.817640
 13
2.025320
 23
2.574880
  0
POLYLINE
  8
0
  6
CONTINUOUS
 66
     1
 40
0.000000
 41
0.000000
  0
VERTEX
  8
0
  6
CONTINUOUS
 10
1.960200
 20
1.837880
  0
VERTEX
  8
0
  6
CONTINUOUS
 10
1.972520
 20
2.595120
  0
VERTEX
  8
0
  6
CONTINUOUS
 10
2.025320
 20
2.574880
  0
VERTEX
  8
0
  6
CONTINUOUS
 10
2.012560
 20
1.817640
  0
VERTEX
  8
0
  6
CONTINUOUS
 10
1.960200
 20
1.837880
  0
SEQEND
  8
0
  0
SOLID
  8
0
 62
    15
 10
2.012560
 20
1.817640
 11
2.025320
 21
2.574880
 12
2.073720
 22
1.802240
 13
2.086480
 23
2.559480
  0
POLYLINE
  8
0
  6
CONTINUOUS
 66
     1
 40
0.000000
 41
0.000000
  0
VERTEX
  8
0
  6
CONTINUOUS
 10
2.012560
 20
1.817640
  0
VERTEX
  8
0
  6
CONTINUOUS
 10
2.025320
 20
2.574880
  0
VERTEX
  8
0
  6
CONTINUOUS
 10
2.086480
 20
2.559480
  0
VERTEX
  8
0
  6
CONTINUOUS
 10
2.073720
 20
1.802240
  0
VERTEX
  8
0
  6
CONTINUOUS
 10
2.012560
 20
1.817640
  0
SEQEND
  8
0
  0
SOLID
  8
0
 62
    15
 10
2.073720
 20
1.802240
 11
2.086480
 21
2.559480
 12
2.146320
 22
1.792560
 13
2.158640
 23
2.550240
  0
POLYLINE
  8
0
  6
CONTINUOUS
 66
     1
 40
0.000000
 41
0.000000
  0
VERTEX
  8
0
  6
CONTINUOUS
 10
2.073720
 20
1.802240
  0
VERTEX
  8
0
  6
CONTINUOUS
 10
2.086480
 20
2.559480
  0
VERTEX
  8
0
  6
CONTINUOUS
 10
2.158640
 20
2.550240
  0
VERTEX
  8
0
  6
CONTINUOUS
 10
2.146320
 20
1.792560
  0
VERTEX
  8
0
  6
CONTINUOUS
 10
2.073720
 20
1.802240
  0
SEQEND
  8
0
  0
SOLID
  8
0
 62
    15
 10
2.146320
 20
1.792560
 11
2.158640
 21
2.550240
 12
2.231240
 22
1.790800
 13
2.243560
 23
2.548480
  0
POLYLINE
  8
0
  6
CONTINUOUS
 66
     1
 40
0.000000
 41
0.000000
  0
VERTEX
  8
0
  6
CONTINUOUS
 10
2.146320
 20
1.792560
  0
VERTEX
  8
0
  6
CONTINUOUS
 10
2.158640
 20
2.550240
  0
VERTEX
  8
0
  6
CONTINUOUS
 10
2.243560
 20
2.548480
  0
VERTEX
  8
0
  6
CONTINUOUS
 10
2.231240
 20
1.790800
  0
VERTEX
  8
0
  6
CONTINUOUS
 10
2.146320
 20
1.792560
  0
SEQEND
  8
0
  0
SOLID
  8
0
 62
    15
 10
2.231240
 20
1.790800
 11
2.243560
 21
2.548480
 12
2.278760
 22
1.793000
 13
2.291520
 23
2.550680
  0
POLYLINE
  8
0
  6
CONTINUOUS
 66
     1
 40
0.000000
 41
0.000000
  0
VERTEX
  8
0
  6
CONTINUOUS
 10
2.231240
 20
1.790800
  0
VERTEX
  8
0
  6
CONTINUOUS
 10
2.243560
 20
2.548480
  0
VERTEX
  8
0
  6
CONTINUOUS
 10
2.291520
 20
2.550680
  0
VERTEX
  8
0
  6
CONTINUOUS
 10
2.278760
 20
1.793000
  0
VERTEX
  8
0
  6
CONTINUOUS
 10
2.231240
 20
1.790800
  0
SEQEND
  8
0
  0
SOLID
  8
0
 62
    15
 10
2.278760
 20
1.793000
 11
2.291520
 21
2.550680
 12
2.330680
 22
1.797400
 13
2.343440
 23
2.555080
  0
POLYLINE
  8
0
  6
CONTINUOUS
 66
     1
 40
0.000000
 41
0.000000
  0
VERTEX
  8
0
  6
CONTINUOUS
 10
2.278760
 20
1.793000
  0
VERTEX
  8
0
  6
CONTINUOUS
 10
2.291520
 20
2.550680
  0
VERTEX
  8
0
  6
CONTINUOUS
 10
2.343440
 20
2.555080
  0
VERTEX
  8
0
  6
CONTINUOUS
 10
2.330680
 20
1.797400
  0
VERTEX
  8
0
  6
CONTINUOUS
 10
2.278760
 20
1.793000
  0
SEQEND
  8
0
  0
SOLID
  8
0
 62
    15
 10
2.330680
 20
1.797400
 11
2.343440
 21
2.555080
 12
2.330680
 22
1.698840
 13
2.343440
 23
2.456080
  0
POLYLINE
  8
0
  6
CONTINUOUS
 66
     1
 40
0.000000
 41
0.000000
  0
VERTEX
  8
0
  6
CONTINUOUS
 10
2.330680
 20
1.797400
  0
VERTEX
  8
0
  6
CONTINUOUS
 10
2.343440
 20
2.555080
  0
VERTEX
  8
0
  6
CONTINUOUS
 10
2.343440
 20
2.456080
  0
VERTEX
  8
0
  6
CONTINUOUS
 10
2.330680
 20
1.698840
  0
VERTEX
  8
0
  6
CONTINUOUS
 10
2.330680
 20
1.797400
  0
SEQEND
  8
0
  0
POLYLINE
  8
0
  6
CONTINUOUS
 66
     1
 40
0.000000
 41
0.000000
  0
VERTEX
  8
0
  6
CONTINUOUS
 10
2.330240
 20
1.688720
  0
VERTEX
  8
0
  6
CONTINUOUS
 10
5.672480
 20
1.690480
  0
VERTEX
  8
0
  6
CONTINUOUS
 10
5.674240
 20
1.698840
  0
VERTEX
  8
0
  6
CONTINUOUS
 10
5.674240
 20
1.797400
  0
VERTEX
  8
0
  6
CONTINUOUS
 10
5.726160
 20
1.793000
  0
VERTEX
  8
0
  6
CONTINUOUS
 10
5.773680
 20
1.790800
  0
VERTEX
  8
0
  6
CONTINUOUS
 10
5.858600
 20
1.792560
  0
VERTEX
  8
0
  6
CONTINUOUS
 10
5.931200
 20
1.802240
  0
VERTEX
  8
0
  6
CONTINUOUS
 10
5.992360
 20
1.817640
  0
VERTEX
  8
0
  6
CONTINUOUS
 10
6.044720
 20
1.837880
  0
VERTEX
  8
0
  6
CONTINUOUS
 10
6.090040
 20
1.861200
  0
VERTEX
  8
0
  6
CONTINUOUS
 10
6.166160
 20
1.914000
  0
VERTEX
  8
0
  6
CONTINUOUS
 10
6.235680
 20
1.965040
  0
VERTEX
  8
0
  6
CONTINUOUS
 10
6.272640
 20
1.986600
  0
VERTEX
  8
0
  6
CONTINUOUS
 10
6.313120
 20
2.003760
  0
VERTEX
  8
0
  6
CONTINUOUS
 10
6.358880
 20
2.015200
  0
VERTEX
  8
0
  6
CONTINUOUS
 10
6.412560
 20
2.020040
  0
VERTEX
  8
0
  6
CONTINUOUS
 10
6.475480
 20
2.016080
  0
VERTEX
  8
0
  6
CONTINUOUS
 10
6.549400
 20
2.002880
  0
VERTEX
  8
0
  6
CONTINUOUS
 10
6.549400
 20
2.119480
  0
VERTEX
  8
0
  6
CONTINUOUS
 10
7.132840
 20
2.119480
  0
VERTEX
  8
0
  6
CONTINUOUS
 10
7.132840
 20
1.257080
  0
VERTEX
  8
0
  6
CONTINUOUS
 10
7.128440
 20
1.248720
  0
VERTEX
  8
0
  6
CONTINUOUS
 10
0.868120
 20
1.248720
  0
VERTEX
  8
0
  6
CONTINUOUS
 10
0.872520
 20
1.257080
  0
VERTEX
  8
0
  6
CONTINUOUS
 10
0.872520
 20
2.119480
  0
VERTEX
  8
0
  6
CONTINUOUS
 10
1.455520
 20
2.119480
  0
VERTEX
  8
0
  6
CONTINUOUS
 10
1.455520
 20
2.002880
  0
VERTEX
  8
0
  6
CONTINUOUS
 10
1.529440
 20
2.016080
  0
VERTEX
  8
0
  6
CONTINUOUS
 10
1.592360
 20
2.020040
  0
VERTEX
  8
0
  6
CONTINUOUS
 10
1.645600
 20
2.015200
  0
VERTEX
  8
0
  6
CONTINUOUS
 10
1.691800
 20
2.003760
  0
VERTEX
  8
0
  6
CONTINUOUS
 10
1.732280
 20
1.986600
  0
VERTEX
  8
0
  6
CONTINUOUS
 10
1.769240
 20
1.965040
  0
VERTEX
  8
0
  6
CONTINUOUS
 10
1.838760
 20
1.914000
  0
VERTEX
  8
0
  6
CONTINUOUS
 10
1.914880
 20
1.861200
  0
VERTEX
  8
0
  6
CONTINUOUS
 10
1.960200
 20
1.837880
  0
VERTEX
  8
0
  6
CONTINUOUS
 10
2.012560
 20
1.817640
  0
VERTEX
  8
0
  6
CONTINUOUS
 10
2.073720
 20
1.802240
  0
VERTEX
  8
0
  6
CONTINUOUS
 10
2.146320
 20
1.792560
  0
VERTEX
  8
0
  6
CONTINUOUS
 10
2.231240
 20
1.790800
  0
VERTEX
  8
0
  6
CONTINUOUS
 10
2.278760
 20
1.793000
  0
VERTEX
  8
0
  6
CONTINUOUS
 10
2.330680
 20
1.797400
  0
VERTEX
  8
0
  6
CONTINUOUS
 10
2.330680
 20
1.698840
  0
VERTEX
  8
0
  6
CONTINUOUS
 10
2.330240
 20
1.688720
  0
SEQEND
  8
0
  0
TEXT
  8
0
 10
3.710520
 20
0.966680
 40
0.138006
  1
BA  547
 41
1.000000
  7
SN0
 71
     0
 72
     5
 11
4.300399
 21
0.966680
  0
TEXT
  8
0
 10
3.554760
 20
0.774840
 40
0.138006
  1
7/8" x 6-1/4"
 41
1.000000
  7
SN0
 71
     0
 72
     5
 11
4.454254
 21
0.774840
  0
ENDSEC
  0
EOF
