  0
SECTION
  2
HEADER
  9
$ACADVER
  1
AC1006
  9
$EXTMIN
 10
1.222760
 20
0.732600
  9
$EXTMAX
 10
7.536760
 20
4.143920
  9
$LTSCALE
 40
0.044000
  9
$PDMODE
 70
    35
  9
$PDSIZE
 40
0.035200
  0
ENDSEC
  0
SECTION
  2
TABLES
  0
TABLE
  2
LTYPE
 70
     9
  0
LTYPE
  2
CONTINUOUS
 70
    64
  3
Solid line
 72
    65
 73
     0
 40
0.000000
  0
LTYPE
  2
DASHED
 70
    64
  3
__ __ __ __ __ __ __ __ __ __ __ __ __ __ __
 72
    65
 73
     2
 40
0.000330
 49
0.000220
 49
-0.000110
  0
LTYPE
  2
HIDDEN
 70
    64
  3
 _ _ _ _ _ _ _ _ _ _ _ _ _ _ _ _ _ _ _ _ _ _
 72
    65
 73
     2
 40
0.000165
 49
0.000110
 49
-0.000055
  0
LTYPE
  2
CENTER
 70
    64
  3
____ _ ____ _ ____ _ ____ _ ____ _ ____ _ ____
 72
    65
 73
     4
 40
0.000880
 49
0.000550
 49
-0.000110
 49
0.000110
 49
-0.000110
  0
LTYPE
  2
PHANTOM
 70
    64
  3
_____ _ _ _____ _ _ _____ _ _ _____ _ _ ____
 72
    65
 73
     6
 40
0.001100
 49
0.000550
 49
-0.000110
 49
0.000110
 49
-0.000110
 49
0.000110
 49
-0.000110
  0
LTYPE
  2
DOT
 70
    64
  3
...............................................
 72
    65
 73
     2
 40
0.000110
 49
0.000000
 49
-0.000110
  0
LTYPE
  2
DASHDOT
 70
    64
  3
__ . __ . __ . __ . __ . __ . __ . __ . __ . __
 72
    65
 73
     4
 40
0.000440
 49
0.000220
 49
-0.000110
 49
0.000000
 49
-0.000110
  0
LTYPE
  2
BORDER
 70
    64
  3
__ __ . __ __ . __ __ . __ __ . __ __ . __ __
 72
    65
 73
     6
 40
0.000770
 49
0.000220
 49
-0.000110
 49
0.000220
 49
-0.000110
 49
0.000000
 49
-0.000110
  0
LTYPE
  2
DIVIDE
 70
    64
  3
__ . . __ . . __ . . __ . . __ . . __ . . __
 72
    65
 73
     6
 40
0.000550
 49
0.000220
 49
-0.000110
 49
0.000000
 49
-0.000110
 49
0.000000
 49
-0.000110
  0
LTYPE
  2
DOTDOT
 70
    64
  3
 . .  . .  . .  . .  . .  . . 
 72
    65
 73
     5
 40
0.000242
 49
-0.000110
 49
0.000000
 49
-0.000110
 49
0.000000
 49
-0.000110
  0
ENDTAB
  0
TABLE
  2
STYLE
 70
     2
  0
STYLE
 70
     0
  2
SN0
 40
0.000000
 41
0.000440
 50
0.000000
 71
     0
 42
0.000000
  3
ROMAND
  0
STYLE
 70
    68
  2
SV0
 40
0.000000
 41
0.000440
 50
0.000000
 71
     0
 42
0.000000
  3
ROMAND
  0
ENDTAB
  0
TABLE
  2
LAYER
 70
     3
  0
LAYER
  2
FOREGROUND
 70
    64
 62
     7
  6
CONTINUOUS
  0
LAYER
  2
BACKGROUND
 70
    65
 62
    -7
  6
CONTINUOUS
  0
LAYER
  2
0
 70
    64
 62
     7
  6
CONTINUOUS
  0
ENDTAB
  0
ENDSEC
  0
SECTION
  2
ENTITIES
  0
POLYLINE
  8
FOREGROUND
  6
CONTINUOUS
 66
     1
 40
0.000000
 41
0.000000
  0
VERTEX
  8
FOREGROUND
  6
CONTINUOUS
 10
0.000000
 20
4.876520
  0
VERTEX
  8
FOREGROUND
  6
CONTINUOUS
 10
8.499920
 20
4.876520
  0
VERTEX
  8
FOREGROUND
  6
CONTINUOUS
 10
8.499920
 20
-6.123480
  0
VERTEX
  8
FOREGROUND
  6
CONTINUOUS
 10
0.000000
 20
-6.123480
  0
VERTEX
  8
FOREGROUND
  6
CONTINUOUS
 10
0.000000
 20
4.876520
  0
SEQEND
  8
0
  0
POLYLINE
  8
FOREGROUND
  6
CONTINUOUS
 66
     1
 40
0.000000
 41
0.000000
  0
VERTEX
  8
FOREGROUND
  6
CONTINUOUS
 10
0.000000
 20
4.876520
  0
VERTEX
  8
FOREGROUND
  6
CONTINUOUS
 10
8.499920
 20
4.876520
  0
VERTEX
  8
FOREGROUND
  6
CONTINUOUS
 10
8.499920
 20
-6.123480
  0
VERTEX
  8
FOREGROUND
  6
CONTINUOUS
 10
0.000000
 20
-6.123480
  0
VERTEX
  8
FOREGROUND
  6
CONTINUOUS
 10
0.000000
 20
4.876520
  0
SEQEND
  8
0
  0
POLYLINE
  8
0
  6
CONTINUOUS
 66
     1
 40
0.014080
 41
0.014080
  0
VERTEX
  8
0
  6
CONTINUOUS
 10
4.991360
 20
3.377000
  0
VERTEX
  8
0
  6
CONTINUOUS
 10
1.269840
 20
3.377000
  0
VERTEX
  8
0
  6
CONTINUOUS
 10
1.269840
 20
4.134240
  0
VERTEX
  8
0
  6
CONTINUOUS
 10
1.891560
 20
4.134240
  0
VERTEX
  8
0
  6
CONTINUOUS
 10
1.891560
 20
4.115760
  0
VERTEX
  8
0
  6
CONTINUOUS
 10
1.895080
 20
4.098160
  0
VERTEX
  8
0
  6
CONTINUOUS
 10
1.906080
 20
4.074400
  0
VERTEX
  8
0
  6
CONTINUOUS
 10
1.922800
 20
4.053280
  0
VERTEX
  8
0
  6
CONTINUOUS
 10
1.937320
 20
4.040520
  0
VERTEX
  8
0
  6
CONTINUOUS
 10
1.953600
 20
4.029080
  0
VERTEX
  8
0
  6
CONTINUOUS
 10
1.972080
 20
4.018520
  0
VERTEX
  8
0
  6
CONTINUOUS
 10
2.014320
 20
4.001800
  0
VERTEX
  8
0
  6
CONTINUOUS
 10
2.061400
 20
3.989040
  0
VERTEX
  8
0
  6
CONTINUOUS
 10
2.112440
 20
3.981560
  0
VERTEX
  8
0
  6
CONTINUOUS
 10
2.164800
 20
3.978920
  0
VERTEX
  8
0
  6
CONTINUOUS
 10
2.217160
 20
3.981120
  0
VERTEX
  8
0
  6
CONTINUOUS
 10
2.268200
 20
3.988160
  0
VERTEX
  8
0
  6
CONTINUOUS
 10
2.315720
 20
4.000040
  0
VERTEX
  8
0
  6
CONTINUOUS
 10
2.357960
 20
4.016760
  0
VERTEX
  8
0
  6
CONTINUOUS
 10
2.393160
 20
4.038760
  0
VERTEX
  8
0
  6
CONTINUOUS
 10
2.413840
 20
4.058120
  0
VERTEX
  8
0
  6
CONTINUOUS
 10
2.424840
 20
4.073080
  0
VERTEX
  8
0
  6
CONTINUOUS
 10
2.436280
 20
4.097280
  0
VERTEX
  8
0
  6
CONTINUOUS
 10
2.439800
 20
4.115320
  0
VERTEX
  8
0
  6
CONTINUOUS
 10
2.440240
 20
4.134240
  0
VERTEX
  8
0
  6
CONTINUOUS
 10
2.631640
 20
4.134240
  0
VERTEX
  8
0
  6
CONTINUOUS
 10
2.635160
 20
4.133360
  0
VERTEX
  8
0
  6
CONTINUOUS
 10
2.635160
 20
4.114880
  0
VERTEX
  8
0
  6
CONTINUOUS
 10
2.638680
 20
4.097720
  0
VERTEX
  8
0
  6
CONTINUOUS
 10
2.649680
 20
4.073520
  0
VERTEX
  8
0
  6
CONTINUOUS
 10
2.666400
 20
4.052400
  0
VERTEX
  8
0
  6
CONTINUOUS
 10
2.680920
 20
4.040080
  0
VERTEX
  8
0
  6
CONTINUOUS
 10
2.716120
 20
4.018080
  0
VERTEX
  8
0
  6
CONTINUOUS
 10
2.757920
 20
4.001360
  0
VERTEX
  8
0
  6
CONTINUOUS
 10
2.805440
 20
3.989040
  0
VERTEX
  8
0
  6
CONTINUOUS
 10
2.856040
 20
3.982000
  0
VERTEX
  8
0
  6
CONTINUOUS
 10
2.908400
 20
3.979360
  0
VERTEX
  8
0
  6
CONTINUOUS
 10
2.934800
 20
3.979800
  0
VERTEX
  8
0
  6
CONTINUOUS
 10
2.986720
 20
3.984640
  0
VERTEX
  8
0
  6
CONTINUOUS
 10
3.036440
 20
3.994320
  0
VERTEX
  8
0
  6
CONTINUOUS
 10
3.081320
 20
4.009280
  0
VERTEX
  8
0
  6
CONTINUOUS
 10
3.101560
 20
4.018080
  0
VERTEX
  8
0
  6
CONTINUOUS
 10
3.120480
 20
4.028640
  0
VERTEX
  8
0
  6
CONTINUOUS
 10
3.144680
 20
4.046680
  0
VERTEX
  8
0
  6
CONTINUOUS
 10
3.157880
 20
4.059880
  0
VERTEX
  8
0
  6
CONTINUOUS
 10
3.173280
 20
4.082320
  0
VERTEX
  8
0
  6
CONTINUOUS
 10
3.180320
 20
4.099040
  0
VERTEX
  8
0
  6
CONTINUOUS
 10
3.183840
 20
4.117080
  0
VERTEX
  8
0
  6
CONTINUOUS
 10
3.184280
 20
4.136000
  0
VERTEX
  8
0
  6
CONTINUOUS
 10
3.383160
 20
4.136000
  0
VERTEX
  8
0
  6
CONTINUOUS
 10
3.383160
 20
4.117520
  0
VERTEX
  8
0
  6
CONTINUOUS
 10
3.386680
 20
4.099920
  0
VERTEX
  8
0
  6
CONTINUOUS
 10
3.397680
 20
4.076160
  0
VERTEX
  8
0
  6
CONTINUOUS
 10
3.414400
 20
4.055040
  0
VERTEX
  8
0
  6
CONTINUOUS
 10
3.428920
 20
4.042280
  0
VERTEX
  8
0
  6
CONTINUOUS
 10
3.445200
 20
4.030840
  0
VERTEX
  8
0
  6
CONTINUOUS
 10
3.463680
 20
4.020280
  0
VERTEX
  8
0
  6
CONTINUOUS
 10
3.505920
 20
4.003560
  0
VERTEX
  8
0
  6
CONTINUOUS
 10
3.553000
 20
3.990800
  0
VERTEX
  8
0
  6
CONTINUOUS
 10
3.604040
 20
3.983320
  0
VERTEX
  8
0
  6
CONTINUOUS
 10
3.656400
 20
3.980680
  0
VERTEX
  8
0
  6
CONTINUOUS
 10
3.708760
 20
3.982880
  0
VERTEX
  8
0
  6
CONTINUOUS
 10
3.759800
 20
3.989920
  0
VERTEX
  8
0
  6
CONTINUOUS
 10
3.807320
 20
4.001800
  0
VERTEX
  8
0
  6
CONTINUOUS
 10
3.849560
 20
4.018520
  0
VERTEX
  8
0
  6
CONTINUOUS
 10
3.884760
 20
4.040520
  0
VERTEX
  8
0
  6
CONTINUOUS
 10
3.905440
 20
4.059880
  0
VERTEX
  8
0
  6
CONTINUOUS
 10
3.916440
 20
4.074840
  0
VERTEX
  8
0
  6
CONTINUOUS
 10
3.927880
 20
4.099040
  0
VERTEX
  8
0
  6
CONTINUOUS
 10
3.931400
 20
4.117080
  0
VERTEX
  8
0
  6
CONTINUOUS
 10
3.931840
 20
4.136000
  0
VERTEX
  8
0
  6
CONTINUOUS
 10
3.932720
 20
4.133360
  0
VERTEX
  8
0
  6
CONTINUOUS
 10
4.127200
 20
4.133360
  0
VERTEX
  8
0
  6
CONTINUOUS
 10
4.123680
 20
4.129840
  0
VERTEX
  8
0
  6
CONTINUOUS
 10
4.123680
 20
4.111360
  0
VERTEX
  8
0
  6
CONTINUOUS
 10
4.127200
 20
4.094200
  0
VERTEX
  8
0
  6
CONTINUOUS
 10
4.138200
 20
4.070440
  0
VERTEX
  8
0
  6
CONTINUOUS
 10
4.154920
 20
4.049320
  0
VERTEX
  8
0
  6
CONTINUOUS
 10
4.169440
 20
4.036560
  0
VERTEX
  8
0
  6
CONTINUOUS
 10
4.204640
 20
4.015440
  0
VERTEX
  8
0
  6
CONTINUOUS
 10
4.224880
 20
4.006200
  0
VERTEX
  8
0
  6
CONTINUOUS
 10
4.269760
 20
3.992120
  0
VERTEX
  8
0
  6
CONTINUOUS
 10
4.318600
 20
3.982880
  0
VERTEX
  8
0
  6
CONTINUOUS
 10
4.370520
 20
3.978040
  0
VERTEX
  8
0
  6
CONTINUOUS
 10
4.396920
 20
3.977600
  0
VERTEX
  8
0
  6
CONTINUOUS
 10
4.449720
 20
3.980240
  0
VERTEX
  8
0
  6
CONTINUOUS
 10
4.500760
 20
3.987720
  0
VERTEX
  8
0
  6
CONTINUOUS
 10
4.547840
 20
4.000480
  0
VERTEX
  8
0
  6
CONTINUOUS
 10
4.569840
 20
4.008400
  0
VERTEX
  8
0
  6
CONTINUOUS
 10
4.609000
 20
4.028200
  0
VERTEX
  8
0
  6
CONTINUOUS
 10
4.633200
 20
4.046240
  0
VERTEX
  8
0
  6
CONTINUOUS
 10
4.652120
 20
4.066920
  0
VERTEX
  8
0
  6
CONTINUOUS
 10
4.665760
 20
4.090680
  0
VERTEX
  8
0
  6
CONTINUOUS
 10
4.671040
 20
4.107840
  0
VERTEX
  8
0
  6
CONTINUOUS
 10
4.672800
 20
4.126320
  0
VERTEX
  8
0
  6
CONTINUOUS
 10
4.672800
 20
4.136000
  0
VERTEX
  8
0
  6
CONTINUOUS
 10
4.858040
 20
4.136000
  0
VERTEX
  8
0
  6
CONTINUOUS
 10
4.858040
 20
4.117520
  0
VERTEX
  8
0
  6
CONTINUOUS
 10
4.861560
 20
4.099920
  0
VERTEX
  8
0
  6
CONTINUOUS
 10
4.872560
 20
4.076160
  0
VERTEX
  8
0
  6
CONTINUOUS
 10
4.889280
 20
4.055040
  0
VERTEX
  8
0
  6
CONTINUOUS
 10
4.903800
 20
4.042280
  0
VERTEX
  8
0
  6
CONTINUOUS
 10
4.920080
 20
4.030840
  0
VERTEX
  8
0
  6
CONTINUOUS
 10
4.938560
 20
4.020280
  0
VERTEX
  8
0
  6
CONTINUOUS
 10
4.980800
 20
4.003560
  0
VERTEX
  8
0
  6
CONTINUOUS
 10
5.027880
 20
3.990800
  0
VERTEX
  8
0
  6
CONTINUOUS
 10
5.078920
 20
3.983320
  0
VERTEX
  8
0
  6
CONTINUOUS
 10
5.131280
 20
3.980680
  0
VERTEX
  8
0
  6
CONTINUOUS
 10
5.183640
 20
3.982880
  0
VERTEX
  8
0
  6
CONTINUOUS
 10
5.234680
 20
3.989920
  0
VERTEX
  8
0
  6
CONTINUOUS
 10
5.282200
 20
4.001800
  0
VERTEX
  8
0
  6
CONTINUOUS
 10
5.324440
 20
4.018520
  0
VERTEX
  8
0
  6
CONTINUOUS
 10
5.359640
 20
4.040520
  0
VERTEX
  8
0
  6
CONTINUOUS
 10
5.380320
 20
4.059880
  0
VERTEX
  8
0
  6
CONTINUOUS
 10
5.391320
 20
4.074840
  0
VERTEX
  8
0
  6
CONTINUOUS
 10
5.402760
 20
4.099040
  0
VERTEX
  8
0
  6
CONTINUOUS
 10
5.406280
 20
4.117080
  0
VERTEX
  8
0
  6
CONTINUOUS
 10
5.406720
 20
4.136000
  0
VERTEX
  8
0
  6
CONTINUOUS
 10
5.619240
 20
4.136000
  0
VERTEX
  8
0
  6
CONTINUOUS
 10
5.617040
 20
4.136000
  0
VERTEX
  8
0
  6
CONTINUOUS
 10
5.617040
 20
4.117520
  0
VERTEX
  8
0
  6
CONTINUOUS
 10
5.620560
 20
4.099920
  0
VERTEX
  8
0
  6
CONTINUOUS
 10
5.631560
 20
4.076160
  0
VERTEX
  8
0
  6
CONTINUOUS
 10
5.648280
 20
4.055040
  0
VERTEX
  8
0
  6
CONTINUOUS
 10
5.662800
 20
4.042280
  0
VERTEX
  8
0
  6
CONTINUOUS
 10
5.679080
 20
4.030840
  0
VERTEX
  8
0
  6
CONTINUOUS
 10
5.697560
 20
4.020280
  0
VERTEX
  8
0
  6
CONTINUOUS
 10
5.739800
 20
4.003560
  0
VERTEX
  8
0
  6
CONTINUOUS
 10
5.786880
 20
3.990800
  0
VERTEX
  8
0
  6
CONTINUOUS
 10
5.837920
 20
3.983320
  0
VERTEX
  8
0
  6
CONTINUOUS
 10
5.890280
 20
3.980680
  0
VERTEX
  8
0
  6
CONTINUOUS
 10
5.942640
 20
3.982880
  0
VERTEX
  8
0
  6
CONTINUOUS
 10
5.993680
 20
3.989920
  0
VERTEX
  8
0
  6
CONTINUOUS
 10
6.041200
 20
4.001800
  0
VERTEX
  8
0
  6
CONTINUOUS
 10
6.083440
 20
4.018520
  0
VERTEX
  8
0
  6
CONTINUOUS
 10
6.118640
 20
4.040520
  0
VERTEX
  8
0
  6
CONTINUOUS
 10
6.139320
 20
4.059880
  0
VERTEX
  8
0
  6
CONTINUOUS
 10
6.150320
 20
4.074840
  0
VERTEX
  8
0
  6
CONTINUOUS
 10
6.161760
 20
4.099040
  0
VERTEX
  8
0
  6
CONTINUOUS
 10
6.165280
 20
4.117080
  0
VERTEX
  8
0
  6
CONTINUOUS
 10
6.165720
 20
4.136000
  0
VERTEX
  8
0
  6
CONTINUOUS
 10
6.366800
 20
4.136000
  0
VERTEX
  8
0
  6
CONTINUOUS
 10
6.363280
 20
4.136000
  0
VERTEX
  8
0
  6
CONTINUOUS
 10
6.363280
 20
4.117520
  0
VERTEX
  8
0
  6
CONTINUOUS
 10
6.366800
 20
4.099920
  0
VERTEX
  8
0
  6
CONTINUOUS
 10
6.377800
 20
4.076160
  0
VERTEX
  8
0
  6
CONTINUOUS
 10
6.394520
 20
4.055040
  0
VERTEX
  8
0
  6
CONTINUOUS
 10
6.409040
 20
4.042280
  0
VERTEX
  8
0
  6
CONTINUOUS
 10
6.425320
 20
4.030840
  0
VERTEX
  8
0
  6
CONTINUOUS
 10
6.443800
 20
4.020280
  0
VERTEX
  8
0
  6
CONTINUOUS
 10
6.486040
 20
4.003560
  0
VERTEX
  8
0
  6
CONTINUOUS
 10
6.533120
 20
3.990800
  0
VERTEX
  8
0
  6
CONTINUOUS
 10
6.584160
 20
3.983320
  0
VERTEX
  8
0
  6
CONTINUOUS
 10
6.636520
 20
3.980680
  0
VERTEX
  8
0
  6
CONTINUOUS
 10
6.688880
 20
3.982880
  0
VERTEX
  8
0
  6
CONTINUOUS
 10
6.739920
 20
3.989920
  0
VERTEX
  8
0
  6
CONTINUOUS
 10
6.787440
 20
4.001800
  0
VERTEX
  8
0
  6
CONTINUOUS
 10
6.829680
 20
4.018520
  0
VERTEX
  8
0
  6
CONTINUOUS
 10
6.864880
 20
4.040520
  0
VERTEX
  8
0
  6
CONTINUOUS
 10
6.885560
 20
4.059880
  0
VERTEX
  8
0
  6
CONTINUOUS
 10
6.896560
 20
4.074840
  0
VERTEX
  8
0
  6
CONTINUOUS
 10
6.908000
 20
4.099040
  0
VERTEX
  8
0
  6
CONTINUOUS
 10
6.911520
 20
4.117080
  0
VERTEX
  8
0
  6
CONTINUOUS
 10
6.911960
 20
4.136000
  0
VERTEX
  8
0
  6
CONTINUOUS
 10
7.529280
 20
4.136000
  0
VERTEX
  8
0
  6
CONTINUOUS
 10
7.529280
 20
3.377000
  0
VERTEX
  8
0
  6
CONTINUOUS
 10
4.833840
 20
3.377000
  0
VERTEX
  8
0
  6
CONTINUOUS
 10
4.991360
 20
3.377000
  0
SEQEND
  8
0
  0
SOLID
  8
0
 62
    15
 10
4.298360
 20
1.901240
 11
4.297920
 21
2.657600
 12
4.350720
 22
1.899040
 13
4.350280
 23
2.655400
  0
POLYLINE
  8
0
  6
CONTINUOUS
 66
     1
 40
0.000000
 41
0.000000
  0
VERTEX
  8
0
  6
CONTINUOUS
 10
4.298360
 20
1.901240
  0
VERTEX
  8
0
  6
CONTINUOUS
 10
4.297920
 20
2.657600
  0
VERTEX
  8
0
  6
CONTINUOUS
 10
4.350280
 20
2.655400
  0
VERTEX
  8
0
  6
CONTINUOUS
 10
4.350720
 20
1.899040
  0
VERTEX
  8
0
  6
CONTINUOUS
 10
4.298360
 20
1.901240
  0
SEQEND
  8
0
  0
SOLID
  8
0
 62
    15
 10
1.223640
 20
1.298440
 11
1.223200
 21
2.054800
 12
1.223640
 22
2.055680
 13
1.223200
 23
2.812040
  0
POLYLINE
  8
0
  6
CONTINUOUS
 66
     1
 40
0.000000
 41
0.000000
  0
VERTEX
  8
0
  6
CONTINUOUS
 10
1.223640
 20
1.298440
  0
VERTEX
  8
0
  6
CONTINUOUS
 10
1.223200
 20
2.054800
  0
VERTEX
  8
0
  6
CONTINUOUS
 10
1.223200
 20
2.812040
  0
VERTEX
  8
0
  6
CONTINUOUS
 10
1.223640
 20
2.055680
  0
VERTEX
  8
0
  6
CONTINUOUS
 10
1.223640
 20
1.298440
  0
SEQEND
  8
0
  0
SOLID
  8
0
 62
    15
 10
1.845360
 20
2.055680
 11
1.845360
 21
2.812040
 12
1.848880
 22
2.019600
 13
1.848880
 23
2.775960
  0
POLYLINE
  8
0
  6
CONTINUOUS
 66
     1
 40
0.000000
 41
0.000000
  0
VERTEX
  8
0
  6
CONTINUOUS
 10
1.845360
 20
2.055680
  0
VERTEX
  8
0
  6
CONTINUOUS
 10
1.845360
 20
2.812040
  0
VERTEX
  8
0
  6
CONTINUOUS
 10
1.848880
 20
2.775960
  0
VERTEX
  8
0
  6
CONTINUOUS
 10
1.848880
 20
2.019600
  0
VERTEX
  8
0
  6
CONTINUOUS
 10
1.845360
 20
2.055680
  0
SEQEND
  8
0
  0
SOLID
  8
0
 62
    15
 10
1.848880
 20
2.019600
 11
1.848880
 21
2.775960
 12
1.864720
 22
1.988360
 13
1.864280
 23
2.744720
  0
POLYLINE
  8
0
  6
CONTINUOUS
 66
     1
 40
0.000000
 41
0.000000
  0
VERTEX
  8
0
  6
CONTINUOUS
 10
1.848880
 20
2.019600
  0
VERTEX
  8
0
  6
CONTINUOUS
 10
1.848880
 20
2.775960
  0
VERTEX
  8
0
  6
CONTINUOUS
 10
1.864280
 20
2.744720
  0
VERTEX
  8
0
  6
CONTINUOUS
 10
1.864720
 20
1.988360
  0
VERTEX
  8
0
  6
CONTINUOUS
 10
1.848880
 20
2.019600
  0
SEQEND
  8
0
  0
SOLID
  8
0
 62
    15
 10
1.864720
 20
1.988360
 11
1.864280
 21
2.744720
 12
1.891120
 22
1.961960
 13
1.890680
 23
2.718320
  0
POLYLINE
  8
0
  6
CONTINUOUS
 66
     1
 40
0.000000
 41
0.000000
  0
VERTEX
  8
0
  6
CONTINUOUS
 10
1.864720
 20
1.988360
  0
VERTEX
  8
0
  6
CONTINUOUS
 10
1.864280
 20
2.744720
  0
VERTEX
  8
0
  6
CONTINUOUS
 10
1.890680
 20
2.718320
  0
VERTEX
  8
0
  6
CONTINUOUS
 10
1.891120
 20
1.961960
  0
VERTEX
  8
0
  6
CONTINUOUS
 10
1.864720
 20
1.988360
  0
SEQEND
  8
0
  0
SOLID
  8
0
 62
    15
 10
1.891120
 20
1.961960
 11
1.890680
 21
2.718320
 12
1.925880
 22
1.939960
 13
1.925880
 23
2.696320
  0
POLYLINE
  8
0
  6
CONTINUOUS
 66
     1
 40
0.000000
 41
0.000000
  0
VERTEX
  8
0
  6
CONTINUOUS
 10
1.891120
 20
1.961960
  0
VERTEX
  8
0
  6
CONTINUOUS
 10
1.890680
 20
2.718320
  0
VERTEX
  8
0
  6
CONTINUOUS
 10
1.925880
 20
2.696320
  0
VERTEX
  8
0
  6
CONTINUOUS
 10
1.925880
 20
1.939960
  0
VERTEX
  8
0
  6
CONTINUOUS
 10
1.891120
 20
1.961960
  0
SEQEND
  8
0
  0
SOLID
  8
0
 62
    15
 10
1.925880
 20
1.939960
 11
1.925880
 21
2.696320
 12
1.968120
 22
1.923240
 13
1.967680
 23
2.679600
  0
POLYLINE
  8
0
  6
CONTINUOUS
 66
     1
 40
0.000000
 41
0.000000
  0
VERTEX
  8
0
  6
CONTINUOUS
 10
1.925880
 20
1.939960
  0
VERTEX
  8
0
  6
CONTINUOUS
 10
1.925880
 20
2.696320
  0
VERTEX
  8
0
  6
CONTINUOUS
 10
1.967680
 20
2.679600
  0
VERTEX
  8
0
  6
CONTINUOUS
 10
1.968120
 20
1.923240
  0
VERTEX
  8
0
  6
CONTINUOUS
 10
1.925880
 20
1.939960
  0
SEQEND
  8
0
  0
SOLID
  8
0
 62
    15
 10
1.968120
 20
1.923240
 11
1.967680
 21
2.679600
 12
2.015200
 22
1.910920
 13
2.014760
 23
2.667280
  0
POLYLINE
  8
0
  6
CONTINUOUS
 66
     1
 40
0.000000
 41
0.000000
  0
VERTEX
  8
0
  6
CONTINUOUS
 10
1.968120
 20
1.923240
  0
VERTEX
  8
0
  6
CONTINUOUS
 10
1.967680
 20
2.679600
  0
VERTEX
  8
0
  6
CONTINUOUS
 10
2.014760
 20
2.667280
  0
VERTEX
  8
0
  6
CONTINUOUS
 10
2.015200
 20
1.910920
  0
VERTEX
  8
0
  6
CONTINUOUS
 10
1.968120
 20
1.923240
  0
SEQEND
  8
0
  0
SOLID
  8
0
 62
    15
 10
2.015200
 20
1.910920
 11
2.014760
 21
2.667280
 12
2.065800
 22
1.903000
 13
2.065800
 23
2.659360
  0
POLYLINE
  8
0
  6
CONTINUOUS
 66
     1
 40
0.000000
 41
0.000000
  0
VERTEX
  8
0
  6
CONTINUOUS
 10
2.015200
 20
1.910920
  0
VERTEX
  8
0
  6
CONTINUOUS
 10
2.014760
 20
2.667280
  0
VERTEX
  8
0
  6
CONTINUOUS
 10
2.065800
 20
2.659360
  0
VERTEX
  8
0
  6
CONTINUOUS
 10
2.065800
 20
1.903000
  0
VERTEX
  8
0
  6
CONTINUOUS
 10
2.015200
 20
1.910920
  0
SEQEND
  8
0
  0
SOLID
  8
0
 62
    15
 10
2.065800
 20
1.903000
 11
2.065800
 21
2.659360
 12
2.118600
 22
1.900360
 13
2.118160
 23
2.656720
  0
POLYLINE
  8
0
  6
CONTINUOUS
 66
     1
 40
0.000000
 41
0.000000
  0
VERTEX
  8
0
  6
CONTINUOUS
 10
2.065800
 20
1.903000
  0
VERTEX
  8
0
  6
CONTINUOUS
 10
2.065800
 20
2.659360
  0
VERTEX
  8
0
  6
CONTINUOUS
 10
2.118160
 20
2.656720
  0
VERTEX
  8
0
  6
CONTINUOUS
 10
2.118600
 20
1.900360
  0
VERTEX
  8
0
  6
CONTINUOUS
 10
2.065800
 20
1.903000
  0
SEQEND
  8
0
  0
SOLID
  8
0
 62
    15
 10
2.118600
 20
1.900360
 11
2.118160
 21
2.656720
 12
2.170960
 22
1.902560
 13
2.170520
 23
2.658920
  0
POLYLINE
  8
0
  6
CONTINUOUS
 66
     1
 40
0.000000
 41
0.000000
  0
VERTEX
  8
0
  6
CONTINUOUS
 10
2.118600
 20
1.900360
  0
VERTEX
  8
0
  6
CONTINUOUS
 10
2.118160
 20
2.656720
  0
VERTEX
  8
0
  6
CONTINUOUS
 10
2.170520
 20
2.658920
  0
VERTEX
  8
0
  6
CONTINUOUS
 10
2.170960
 20
1.902560
  0
VERTEX
  8
0
  6
CONTINUOUS
 10
2.118600
 20
1.900360
  0
SEQEND
  8
0
  0
SOLID
  8
0
 62
    15
 10
2.170960
 20
1.902560
 11
2.170520
 21
2.658920
 12
2.222000
 22
1.909600
 13
2.221560
 23
2.665960
  0
POLYLINE
  8
0
  6
CONTINUOUS
 66
     1
 40
0.000000
 41
0.000000
  0
VERTEX
  8
0
  6
CONTINUOUS
 10
2.170960
 20
1.902560
  0
VERTEX
  8
0
  6
CONTINUOUS
 10
2.170520
 20
2.658920
  0
VERTEX
  8
0
  6
CONTINUOUS
 10
2.221560
 20
2.665960
  0
VERTEX
  8
0
  6
CONTINUOUS
 10
2.222000
 20
1.909600
  0
VERTEX
  8
0
  6
CONTINUOUS
 10
2.170960
 20
1.902560
  0
SEQEND
  8
0
  0
SOLID
  8
0
 62
    15
 10
2.222000
 20
1.909600
 11
2.221560
 21
2.665960
 12
2.269080
 22
1.921480
 13
2.269080
 23
2.677840
  0
POLYLINE
  8
0
  6
CONTINUOUS
 66
     1
 40
0.000000
 41
0.000000
  0
VERTEX
  8
0
  6
CONTINUOUS
 10
2.222000
 20
1.909600
  0
VERTEX
  8
0
  6
CONTINUOUS
 10
2.221560
 20
2.665960
  0
VERTEX
  8
0
  6
CONTINUOUS
 10
2.269080
 20
2.677840
  0
VERTEX
  8
0
  6
CONTINUOUS
 10
2.269080
 20
1.921480
  0
VERTEX
  8
0
  6
CONTINUOUS
 10
2.222000
 20
1.909600
  0
SEQEND
  8
0
  0
SOLID
  8
0
 62
    15
 10
2.269080
 20
1.921480
 11
2.269080
 21
2.677840
 12
2.311320
 22
1.938200
 13
2.311320
 23
2.694560
  0
POLYLINE
  8
0
  6
CONTINUOUS
 66
     1
 40
0.000000
 41
0.000000
  0
VERTEX
  8
0
  6
CONTINUOUS
 10
2.269080
 20
1.921480
  0
VERTEX
  8
0
  6
CONTINUOUS
 10
2.269080
 20
2.677840
  0
VERTEX
  8
0
  6
CONTINUOUS
 10
2.311320
 20
2.694560
  0
VERTEX
  8
0
  6
CONTINUOUS
 10
2.311320
 20
1.938200
  0
VERTEX
  8
0
  6
CONTINUOUS
 10
2.269080
 20
1.921480
  0
SEQEND
  8
0
  0
SOLID
  8
0
 62
    15
 10
2.311320
 20
1.938200
 11
2.311320
 21
2.694560
 12
2.346960
 22
1.960200
 13
2.346520
 23
2.716560
  0
POLYLINE
  8
0
  6
CONTINUOUS
 66
     1
 40
0.000000
 41
0.000000
  0
VERTEX
  8
0
  6
CONTINUOUS
 10
2.311320
 20
1.938200
  0
VERTEX
  8
0
  6
CONTINUOUS
 10
2.311320
 20
2.694560
  0
VERTEX
  8
0
  6
CONTINUOUS
 10
2.346520
 20
2.716560
  0
VERTEX
  8
0
  6
CONTINUOUS
 10
2.346960
 20
1.960200
  0
VERTEX
  8
0
  6
CONTINUOUS
 10
2.311320
 20
1.938200
  0
SEQEND
  8
0
  0
SOLID
  8
0
 62
    15
 10
2.346960
 20
1.960200
 11
2.346520
 21
2.716560
 12
2.373800
 22
1.987040
 13
2.373360
 23
2.743400
  0
POLYLINE
  8
0
  6
CONTINUOUS
 66
     1
 40
0.000000
 41
0.000000
  0
VERTEX
  8
0
  6
CONTINUOUS
 10
2.346960
 20
1.960200
  0
VERTEX
  8
0
  6
CONTINUOUS
 10
2.346520
 20
2.716560
  0
VERTEX
  8
0
  6
CONTINUOUS
 10
2.373360
 20
2.743400
  0
VERTEX
  8
0
  6
CONTINUOUS
 10
2.373800
 20
1.987040
  0
VERTEX
  8
0
  6
CONTINUOUS
 10
2.346960
 20
1.960200
  0
SEQEND
  8
0
  0
SOLID
  8
0
 62
    15
 10
2.373800
 20
1.987040
 11
2.373360
 21
2.743400
 12
2.389640
 22
2.018720
 13
2.389640
 23
2.775080
  0
POLYLINE
  8
0
  6
CONTINUOUS
 66
     1
 40
0.000000
 41
0.000000
  0
VERTEX
  8
0
  6
CONTINUOUS
 10
2.373800
 20
1.987040
  0
VERTEX
  8
0
  6
CONTINUOUS
 10
2.373360
 20
2.743400
  0
VERTEX
  8
0
  6
CONTINUOUS
 10
2.389640
 20
2.775080
  0
VERTEX
  8
0
  6
CONTINUOUS
 10
2.389640
 20
2.018720
  0
VERTEX
  8
0
  6
CONTINUOUS
 10
2.373800
 20
1.987040
  0
SEQEND
  8
0
  0
SOLID
  8
0
 62
    15
 10
2.389640
 20
2.018720
 11
2.389640
 21
2.775080
 12
2.393600
 22
2.036760
 13
2.393160
 23
2.793120
  0
POLYLINE
  8
0
  6
CONTINUOUS
 66
     1
 40
0.000000
 41
0.000000
  0
VERTEX
  8
0
  6
CONTINUOUS
 10
2.389640
 20
2.018720
  0
VERTEX
  8
0
  6
CONTINUOUS
 10
2.389640
 20
2.775080
  0
VERTEX
  8
0
  6
CONTINUOUS
 10
2.393160
 20
2.793120
  0
VERTEX
  8
0
  6
CONTINUOUS
 10
2.393600
 20
2.036760
  0
VERTEX
  8
0
  6
CONTINUOUS
 10
2.389640
 20
2.018720
  0
SEQEND
  8
0
  0
SOLID
  8
0
 62
    15
 10
2.393600
 20
2.036760
 11
2.393160
 21
2.793120
 12
2.394040
 22
2.055680
 13
2.393600
 23
2.812040
  0
POLYLINE
  8
0
  6
CONTINUOUS
 66
     1
 40
0.000000
 41
0.000000
  0
VERTEX
  8
0
  6
CONTINUOUS
 10
2.393600
 20
2.036760
  0
VERTEX
  8
0
  6
CONTINUOUS
 10
2.393160
 20
2.793120
  0
VERTEX
  8
0
  6
CONTINUOUS
 10
2.393600
 20
2.812040
  0
VERTEX
  8
0
  6
CONTINUOUS
 10
2.394040
 20
2.055680
  0
VERTEX
  8
0
  6
CONTINUOUS
 10
2.393600
 20
2.036760
  0
SEQEND
  8
0
  0
SOLID
  8
0
 62
    15
 10
2.394040
 20
2.055680
 11
2.393600
 21
2.812040
 12
2.585440
 22
2.055680
 13
2.585000
 23
2.812040
  0
POLYLINE
  8
0
  6
CONTINUOUS
 66
     1
 40
0.000000
 41
0.000000
  0
VERTEX
  8
0
  6
CONTINUOUS
 10
2.394040
 20
2.055680
  0
VERTEX
  8
0
  6
CONTINUOUS
 10
2.393600
 20
2.812040
  0
VERTEX
  8
0
  6
CONTINUOUS
 10
2.585000
 20
2.812040
  0
VERTEX
  8
0
  6
CONTINUOUS
 10
2.585440
 20
2.055680
  0
VERTEX
  8
0
  6
CONTINUOUS
 10
2.394040
 20
2.055680
  0
SEQEND
  8
0
  0
SOLID
  8
0
 62
    15
 10
2.585440
 20
2.055680
 11
2.585000
 21
2.812040
 12
2.588960
 22
2.054800
 13
2.588520
 23
2.811160
  0
POLYLINE
  8
0
  6
CONTINUOUS
 66
     1
 40
0.000000
 41
0.000000
  0
VERTEX
  8
0
  6
CONTINUOUS
 10
2.585440
 20
2.055680
  0
VERTEX
  8
0
  6
CONTINUOUS
 10
2.585000
 20
2.812040
  0
VERTEX
  8
0
  6
CONTINUOUS
 10
2.588520
 20
2.811160
  0
VERTEX
  8
0
  6
CONTINUOUS
 10
2.588960
 20
2.054800
  0
VERTEX
  8
0
  6
CONTINUOUS
 10
2.585440
 20
2.055680
  0
SEQEND
  8
0
  0
SOLID
  8
0
 62
    15
 10
2.588960
 20
2.054800
 11
2.588520
 21
2.811160
 12
2.588960
 22
2.036320
 13
2.588960
 23
2.792680
  0
POLYLINE
  8
0
  6
CONTINUOUS
 66
     1
 40
0.000000
 41
0.000000
  0
VERTEX
  8
0
  6
CONTINUOUS
 10
2.588960
 20
2.054800
  0
VERTEX
  8
0
  6
CONTINUOUS
 10
2.588520
 20
2.811160
  0
VERTEX
  8
0
  6
CONTINUOUS
 10
2.588960
 20
2.792680
  0
VERTEX
  8
0
  6
CONTINUOUS
 10
2.588960
 20
2.036320
  0
VERTEX
  8
0
  6
CONTINUOUS
 10
2.588960
 20
2.054800
  0
SEQEND
  8
0
  0
SOLID
  8
0
 62
    15
 10
2.588960
 20
2.036320
 11
2.588960
 21
2.792680
 12
2.592480
 22
2.019160
 13
2.592040
 23
2.775520
  0
POLYLINE
  8
0
  6
CONTINUOUS
 66
     1
 40
0.000000
 41
0.000000
  0
VERTEX
  8
0
  6
CONTINUOUS
 10
2.588960
 20
2.036320
  0
VERTEX
  8
0
  6
CONTINUOUS
 10
2.588960
 20
2.792680
  0
VERTEX
  8
0
  6
CONTINUOUS
 10
2.592040
 20
2.775520
  0
VERTEX
  8
0
  6
CONTINUOUS
 10
2.592480
 20
2.019160
  0
VERTEX
  8
0
  6
CONTINUOUS
 10
2.588960
 20
2.036320
  0
SEQEND
  8
0
  0
SOLID
  8
0
 62
    15
 10
2.592480
 20
2.019160
 11
2.592040
 21
2.775520
 12
2.608320
 22
1.987920
 13
2.607880
 23
2.744280
  0
POLYLINE
  8
0
  6
CONTINUOUS
 66
     1
 40
0.000000
 41
0.000000
  0
VERTEX
  8
0
  6
CONTINUOUS
 10
2.592480
 20
2.019160
  0
VERTEX
  8
0
  6
CONTINUOUS
 10
2.592040
 20
2.775520
  0
VERTEX
  8
0
  6
CONTINUOUS
 10
2.607880
 20
2.744280
  0
VERTEX
  8
0
  6
CONTINUOUS
 10
2.608320
 20
1.987920
  0
VERTEX
  8
0
  6
CONTINUOUS
 10
2.592480
 20
2.019160
  0
SEQEND
  8
0
  0
SOLID
  8
0
 62
    15
 10
2.608320
 20
1.987920
 11
2.607880
 21
2.744280
 12
2.634720
 22
1.961520
 13
2.634280
 23
2.717880
  0
POLYLINE
  8
0
  6
CONTINUOUS
 66
     1
 40
0.000000
 41
0.000000
  0
VERTEX
  8
0
  6
CONTINUOUS
 10
2.608320
 20
1.987920
  0
VERTEX
  8
0
  6
CONTINUOUS
 10
2.607880
 20
2.744280
  0
VERTEX
  8
0
  6
CONTINUOUS
 10
2.634280
 20
2.717880
  0
VERTEX
  8
0
  6
CONTINUOUS
 10
2.634720
 20
1.961520
  0
VERTEX
  8
0
  6
CONTINUOUS
 10
2.608320
 20
1.987920
  0
SEQEND
  8
0
  0
SOLID
  8
0
 62
    15
 10
2.634720
 20
1.961520
 11
2.634280
 21
2.717880
 12
2.669480
 22
1.939520
 13
2.669480
 23
2.695880
  0
POLYLINE
  8
0
  6
CONTINUOUS
 66
     1
 40
0.000000
 41
0.000000
  0
VERTEX
  8
0
  6
CONTINUOUS
 10
2.634720
 20
1.961520
  0
VERTEX
  8
0
  6
CONTINUOUS
 10
2.634280
 20
2.717880
  0
VERTEX
  8
0
  6
CONTINUOUS
 10
2.669480
 20
2.695880
  0
VERTEX
  8
0
  6
CONTINUOUS
 10
2.669480
 20
1.939520
  0
VERTEX
  8
0
  6
CONTINUOUS
 10
2.634720
 20
1.961520
  0
SEQEND
  8
0
  0
SOLID
  8
0
 62
    15
 10
2.669480
 20
1.939520
 11
2.669480
 21
2.695880
 12
2.711720
 22
1.922800
 13
2.711280
 23
2.679160
  0
POLYLINE
  8
0
  6
CONTINUOUS
 66
     1
 40
0.000000
 41
0.000000
  0
VERTEX
  8
0
  6
CONTINUOUS
 10
2.669480
 20
1.939520
  0
VERTEX
  8
0
  6
CONTINUOUS
 10
2.669480
 20
2.695880
  0
VERTEX
  8
0
  6
CONTINUOUS
 10
2.711280
 20
2.679160
  0
VERTEX
  8
0
  6
CONTINUOUS
 10
2.711720
 20
1.922800
  0
VERTEX
  8
0
  6
CONTINUOUS
 10
2.669480
 20
1.939520
  0
SEQEND
  8
0
  0
SOLID
  8
0
 62
    15
 10
2.711720
 20
1.922800
 11
2.711280
 21
2.679160
 12
2.758800
 22
1.910480
 13
2.758800
 23
2.666840
  0
POLYLINE
  8
0
  6
CONTINUOUS
 66
     1
 40
0.000000
 41
0.000000
  0
VERTEX
  8
0
  6
CONTINUOUS
 10
2.711720
 20
1.922800
  0
VERTEX
  8
0
  6
CONTINUOUS
 10
2.711280
 20
2.679160
  0
VERTEX
  8
0
  6
CONTINUOUS
 10
2.758800
 20
2.666840
  0
VERTEX
  8
0
  6
CONTINUOUS
 10
2.758800
 20
1.910480
  0
VERTEX
  8
0
  6
CONTINUOUS
 10
2.711720
 20
1.922800
  0
SEQEND
  8
0
  0
SOLID
  8
0
 62
    15
 10
2.758800
 20
1.910480
 11
2.758800
 21
2.666840
 12
2.809840
 22
1.903440
 13
2.809400
 23
2.659800
  0
POLYLINE
  8
0
  6
CONTINUOUS
 66
     1
 40
0.000000
 41
0.000000
  0
VERTEX
  8
0
  6
CONTINUOUS
 10
2.758800
 20
1.910480
  0
VERTEX
  8
0
  6
CONTINUOUS
 10
2.758800
 20
2.666840
  0
VERTEX
  8
0
  6
CONTINUOUS
 10
2.809400
 20
2.659800
  0
VERTEX
  8
0
  6
CONTINUOUS
 10
2.809840
 20
1.903440
  0
VERTEX
  8
0
  6
CONTINUOUS
 10
2.758800
 20
1.910480
  0
SEQEND
  8
0
  0
SOLID
  8
0
 62
    15
 10
2.809840
 20
1.903440
 11
2.809400
 21
2.659800
 12
2.862200
 22
1.900800
 13
2.862200
 23
2.657160
  0
POLYLINE
  8
0
  6
CONTINUOUS
 66
     1
 40
0.000000
 41
0.000000
  0
VERTEX
  8
0
  6
CONTINUOUS
 10
2.809840
 20
1.903440
  0
VERTEX
  8
0
  6
CONTINUOUS
 10
2.809400
 20
2.659800
  0
VERTEX
  8
0
  6
CONTINUOUS
 10
2.862200
 20
2.657160
  0
VERTEX
  8
0
  6
CONTINUOUS
 10
2.862200
 20
1.900800
  0
VERTEX
  8
0
  6
CONTINUOUS
 10
2.809840
 20
1.903440
  0
SEQEND
  8
0
  0
SOLID
  8
0
 62
    15
 10
2.862200
 20
1.900800
 11
2.862200
 21
2.657160
 12
2.915000
 22
1.903440
 13
2.914560
 23
2.659800
  0
POLYLINE
  8
0
  6
CONTINUOUS
 66
     1
 40
0.000000
 41
0.000000
  0
VERTEX
  8
0
  6
CONTINUOUS
 10
2.862200
 20
1.900800
  0
VERTEX
  8
0
  6
CONTINUOUS
 10
2.862200
 20
2.657160
  0
VERTEX
  8
0
  6
CONTINUOUS
 10
2.914560
 20
2.659800
  0
VERTEX
  8
0
  6
CONTINUOUS
 10
2.915000
 20
1.903440
  0
VERTEX
  8
0
  6
CONTINUOUS
 10
2.862200
 20
1.900800
  0
SEQEND
  8
0
  0
SOLID
  8
0
 62
    15
 10
2.915000
 20
1.903440
 11
2.914560
 21
2.659800
 12
2.965600
 22
1.910480
 13
2.965600
 23
2.666840
  0
POLYLINE
  8
0
  6
CONTINUOUS
 66
     1
 40
0.000000
 41
0.000000
  0
VERTEX
  8
0
  6
CONTINUOUS
 10
2.915000
 20
1.903440
  0
VERTEX
  8
0
  6
CONTINUOUS
 10
2.914560
 20
2.659800
  0
VERTEX
  8
0
  6
CONTINUOUS
 10
2.965600
 20
2.666840
  0
VERTEX
  8
0
  6
CONTINUOUS
 10
2.965600
 20
1.910480
  0
VERTEX
  8
0
  6
CONTINUOUS
 10
2.915000
 20
1.903440
  0
SEQEND
  8
0
  0
SOLID
  8
0
 62
    15
 10
2.965600
 20
1.910480
 11
2.965600
 21
2.666840
 12
3.013120
 22
1.922800
 13
3.013120
 23
2.679160
  0
POLYLINE
  8
0
  6
CONTINUOUS
 66
     1
 40
0.000000
 41
0.000000
  0
VERTEX
  8
0
  6
CONTINUOUS
 10
2.965600
 20
1.910480
  0
VERTEX
  8
0
  6
CONTINUOUS
 10
2.965600
 20
2.666840
  0
VERTEX
  8
0
  6
CONTINUOUS
 10
3.013120
 20
2.679160
  0
VERTEX
  8
0
  6
CONTINUOUS
 10
3.013120
 20
1.922800
  0
VERTEX
  8
0
  6
CONTINUOUS
 10
2.965600
 20
1.910480
  0
SEQEND
  8
0
  0
SOLID
  8
0
 62
    15
 10
3.013120
 20
1.922800
 11
3.013120
 21
2.679160
 12
3.055800
 22
1.939520
 13
3.055360
 23
2.695880
  0
POLYLINE
  8
0
  6
CONTINUOUS
 66
     1
 40
0.000000
 41
0.000000
  0
VERTEX
  8
0
  6
CONTINUOUS
 10
3.013120
 20
1.922800
  0
VERTEX
  8
0
  6
CONTINUOUS
 10
3.013120
 20
2.679160
  0
VERTEX
  8
0
  6
CONTINUOUS
 10
3.055360
 20
2.695880
  0
VERTEX
  8
0
  6
CONTINUOUS
 10
3.055800
 20
1.939520
  0
VERTEX
  8
0
  6
CONTINUOUS
 10
3.013120
 20
1.922800
  0
SEQEND
  8
0
  0
SOLID
  8
0
 62
    15
 10
3.055800
 20
1.939520
 11
3.055360
 21
2.695880
 12
3.091000
 22
1.961520
 13
3.090560
 23
2.717880
  0
POLYLINE
  8
0
  6
CONTINUOUS
 66
     1
 40
0.000000
 41
0.000000
  0
VERTEX
  8
0
  6
CONTINUOUS
 10
3.055800
 20
1.939520
  0
VERTEX
  8
0
  6
CONTINUOUS
 10
3.055360
 20
2.695880
  0
VERTEX
  8
0
  6
CONTINUOUS
 10
3.090560
 20
2.717880
  0
VERTEX
  8
0
  6
CONTINUOUS
 10
3.091000
 20
1.961520
  0
VERTEX
  8
0
  6
CONTINUOUS
 10
3.055800
 20
1.939520
  0
SEQEND
  8
0
  0
SOLID
  8
0
 62
    15
 10
3.091000
 20
1.961520
 11
3.090560
 21
2.717880
 12
3.117840
 22
1.988360
 13
3.117400
 23
2.744720
  0
POLYLINE
  8
0
  6
CONTINUOUS
 66
     1
 40
0.000000
 41
0.000000
  0
VERTEX
  8
0
  6
CONTINUOUS
 10
3.091000
 20
1.961520
  0
VERTEX
  8
0
  6
CONTINUOUS
 10
3.090560
 20
2.717880
  0
VERTEX
  8
0
  6
CONTINUOUS
 10
3.117400
 20
2.744720
  0
VERTEX
  8
0
  6
CONTINUOUS
 10
3.117840
 20
1.988360
  0
VERTEX
  8
0
  6
CONTINUOUS
 10
3.091000
 20
1.961520
  0
SEQEND
  8
0
  0
SOLID
  8
0
 62
    15
 10
3.117840
 20
1.988360
 11
3.117400
 21
2.744720
 12
3.134120
 22
2.020480
 13
3.133680
 23
2.776840
  0
POLYLINE
  8
0
  6
CONTINUOUS
 66
     1
 40
0.000000
 41
0.000000
  0
VERTEX
  8
0
  6
CONTINUOUS
 10
3.117840
 20
1.988360
  0
VERTEX
  8
0
  6
CONTINUOUS
 10
3.117400
 20
2.744720
  0
VERTEX
  8
0
  6
CONTINUOUS
 10
3.133680
 20
2.776840
  0
VERTEX
  8
0
  6
CONTINUOUS
 10
3.134120
 20
2.020480
  0
VERTEX
  8
0
  6
CONTINUOUS
 10
3.117840
 20
1.988360
  0
SEQEND
  8
0
  0
SOLID
  8
0
 62
    15
 10
3.134120
 20
2.020480
 11
3.133680
 21
2.776840
 12
3.138080
 22
2.057440
 13
3.138080
 23
2.813800
  0
POLYLINE
  8
0
  6
CONTINUOUS
 66
     1
 40
0.000000
 41
0.000000
  0
VERTEX
  8
0
  6
CONTINUOUS
 10
3.134120
 20
2.020480
  0
VERTEX
  8
0
  6
CONTINUOUS
 10
3.133680
 20
2.776840
  0
VERTEX
  8
0
  6
CONTINUOUS
 10
3.138080
 20
2.813800
  0
VERTEX
  8
0
  6
CONTINUOUS
 10
3.138080
 20
2.057440
  0
VERTEX
  8
0
  6
CONTINUOUS
 10
3.134120
 20
2.020480
  0
SEQEND
  8
0
  0
SOLID
  8
0
 62
    15
 10
3.138080
 20
2.057440
 11
3.138080
 21
2.813800
 12
3.336960
 22
2.057440
 13
3.336960
 23
2.813800
  0
POLYLINE
  8
0
  6
CONTINUOUS
 66
     1
 40
0.000000
 41
0.000000
  0
VERTEX
  8
0
  6
CONTINUOUS
 10
3.138080
 20
2.057440
  0
VERTEX
  8
0
  6
CONTINUOUS
 10
3.138080
 20
2.813800
  0
VERTEX
  8
0
  6
CONTINUOUS
 10
3.336960
 20
2.813800
  0
VERTEX
  8
0
  6
CONTINUOUS
 10
3.336960
 20
2.057440
  0
VERTEX
  8
0
  6
CONTINUOUS
 10
3.138080
 20
2.057440
  0
SEQEND
  8
0
  0
SOLID
  8
0
 62
    15
 10
3.336960
 20
2.057440
 11
3.336960
 21
2.813800
 12
3.340480
 22
2.021360
 13
3.340480
 23
2.777720
  0
POLYLINE
  8
0
  6
CONTINUOUS
 66
     1
 40
0.000000
 41
0.000000
  0
VERTEX
  8
0
  6
CONTINUOUS
 10
3.336960
 20
2.057440
  0
VERTEX
  8
0
  6
CONTINUOUS
 10
3.336960
 20
2.813800
  0
VERTEX
  8
0
  6
CONTINUOUS
 10
3.340480
 20
2.777720
  0
VERTEX
  8
0
  6
CONTINUOUS
 10
3.340480
 20
2.021360
  0
VERTEX
  8
0
  6
CONTINUOUS
 10
3.336960
 20
2.057440
  0
SEQEND
  8
0
  0
SOLID
  8
0
 62
    15
 10
3.340480
 20
2.021360
 11
3.340480
 21
2.777720
 12
3.356320
 22
1.990120
 13
3.356320
 23
2.746480
  0
POLYLINE
  8
0
  6
CONTINUOUS
 66
     1
 40
0.000000
 41
0.000000
  0
VERTEX
  8
0
  6
CONTINUOUS
 10
3.340480
 20
2.021360
  0
VERTEX
  8
0
  6
CONTINUOUS
 10
3.340480
 20
2.777720
  0
VERTEX
  8
0
  6
CONTINUOUS
 10
3.356320
 20
2.746480
  0
VERTEX
  8
0
  6
CONTINUOUS
 10
3.356320
 20
1.990120
  0
VERTEX
  8
0
  6
CONTINUOUS
 10
3.340480
 20
2.021360
  0
SEQEND
  8
0
  0
SOLID
  8
0
 62
    15
 10
3.356320
 20
1.990120
 11
3.356320
 21
2.746480
 12
3.382720
 22
1.963720
 13
3.382280
 23
2.720080
  0
POLYLINE
  8
0
  6
CONTINUOUS
 66
     1
 40
0.000000
 41
0.000000
  0
VERTEX
  8
0
  6
CONTINUOUS
 10
3.356320
 20
1.990120
  0
VERTEX
  8
0
  6
CONTINUOUS
 10
3.356320
 20
2.746480
  0
VERTEX
  8
0
  6
CONTINUOUS
 10
3.382280
 20
2.720080
  0
VERTEX
  8
0
  6
CONTINUOUS
 10
3.382720
 20
1.963720
  0
VERTEX
  8
0
  6
CONTINUOUS
 10
3.356320
 20
1.990120
  0
SEQEND
  8
0
  0
SOLID
  8
0
 62
    15
 10
3.382720
 20
1.963720
 11
3.382280
 21
2.720080
 12
3.417920
 22
1.941720
 13
3.417480
 23
2.698080
  0
POLYLINE
  8
0
  6
CONTINUOUS
 66
     1
 40
0.000000
 41
0.000000
  0
VERTEX
  8
0
  6
CONTINUOUS
 10
3.382720
 20
1.963720
  0
VERTEX
  8
0
  6
CONTINUOUS
 10
3.382280
 20
2.720080
  0
VERTEX
  8
0
  6
CONTINUOUS
 10
3.417480
 20
2.698080
  0
VERTEX
  8
0
  6
CONTINUOUS
 10
3.417920
 20
1.941720
  0
VERTEX
  8
0
  6
CONTINUOUS
 10
3.382720
 20
1.963720
  0
SEQEND
  8
0
  0
SOLID
  8
0
 62
    15
 10
3.417920
 20
1.941720
 11
3.417480
 21
2.698080
 12
3.459720
 22
1.924560
 13
3.459280
 23
2.680920
  0
POLYLINE
  8
0
  6
CONTINUOUS
 66
     1
 40
0.000000
 41
0.000000
  0
VERTEX
  8
0
  6
CONTINUOUS
 10
3.417920
 20
1.941720
  0
VERTEX
  8
0
  6
CONTINUOUS
 10
3.417480
 20
2.698080
  0
VERTEX
  8
0
  6
CONTINUOUS
 10
3.459280
 20
2.680920
  0
VERTEX
  8
0
  6
CONTINUOUS
 10
3.459720
 20
1.924560
  0
VERTEX
  8
0
  6
CONTINUOUS
 10
3.417920
 20
1.941720
  0
SEQEND
  8
0
  0
SOLID
  8
0
 62
    15
 10
3.459720
 20
1.924560
 11
3.459280
 21
2.680920
 12
3.506800
 22
1.912240
 13
3.506360
 23
2.668600
  0
POLYLINE
  8
0
  6
CONTINUOUS
 66
     1
 40
0.000000
 41
0.000000
  0
VERTEX
  8
0
  6
CONTINUOUS
 10
3.459720
 20
1.924560
  0
VERTEX
  8
0
  6
CONTINUOUS
 10
3.459280
 20
2.680920
  0
VERTEX
  8
0
  6
CONTINUOUS
 10
3.506360
 20
2.668600
  0
VERTEX
  8
0
  6
CONTINUOUS
 10
3.506800
 20
1.912240
  0
VERTEX
  8
0
  6
CONTINUOUS
 10
3.459720
 20
1.924560
  0
SEQEND
  8
0
  0
SOLID
  8
0
 62
    15
 10
3.506800
 20
1.912240
 11
3.506360
 21
2.668600
 12
3.557840
 22
1.904760
 13
3.557400
 23
2.661120
  0
POLYLINE
  8
0
  6
CONTINUOUS
 66
     1
 40
0.000000
 41
0.000000
  0
VERTEX
  8
0
  6
CONTINUOUS
 10
3.506800
 20
1.912240
  0
VERTEX
  8
0
  6
CONTINUOUS
 10
3.506360
 20
2.668600
  0
VERTEX
  8
0
  6
CONTINUOUS
 10
3.557400
 20
2.661120
  0
VERTEX
  8
0
  6
CONTINUOUS
 10
3.557840
 20
1.904760
  0
VERTEX
  8
0
  6
CONTINUOUS
 10
3.506800
 20
1.912240
  0
SEQEND
  8
0
  0
SOLID
  8
0
 62
    15
 10
3.557840
 20
1.904760
 11
3.557400
 21
2.661120
 12
3.610200
 22
1.902120
 13
3.609760
 23
2.658480
  0
POLYLINE
  8
0
  6
CONTINUOUS
 66
     1
 40
0.000000
 41
0.000000
  0
VERTEX
  8
0
  6
CONTINUOUS
 10
3.557840
 20
1.904760
  0
VERTEX
  8
0
  6
CONTINUOUS
 10
3.557400
 20
2.661120
  0
VERTEX
  8
0
  6
CONTINUOUS
 10
3.609760
 20
2.658480
  0
VERTEX
  8
0
  6
CONTINUOUS
 10
3.610200
 20
1.902120
  0
VERTEX
  8
0
  6
CONTINUOUS
 10
3.557840
 20
1.904760
  0
SEQEND
  8
0
  0
SOLID
  8
0
 62
    15
 10
3.610200
 20
1.902120
 11
3.609760
 21
2.658480
 12
3.662560
 22
1.904320
 13
3.662560
 23
2.660680
  0
POLYLINE
  8
0
  6
CONTINUOUS
 66
     1
 40
0.000000
 41
0.000000
  0
VERTEX
  8
0
  6
CONTINUOUS
 10
3.610200
 20
1.902120
  0
VERTEX
  8
0
  6
CONTINUOUS
 10
3.609760
 20
2.658480
  0
VERTEX
  8
0
  6
CONTINUOUS
 10
3.662560
 20
2.660680
  0
VERTEX
  8
0
  6
CONTINUOUS
 10
3.662560
 20
1.904320
  0
VERTEX
  8
0
  6
CONTINUOUS
 10
3.610200
 20
1.902120
  0
SEQEND
  8
0
  0
SOLID
  8
0
 62
    15
 10
3.662560
 20
1.904320
 11
3.662560
 21
2.660680
 12
3.713600
 22
1.911360
 13
3.713160
 23
2.667720
  0
POLYLINE
  8
0
  6
CONTINUOUS
 66
     1
 40
0.000000
 41
0.000000
  0
VERTEX
  8
0
  6
CONTINUOUS
 10
3.662560
 20
1.904320
  0
VERTEX
  8
0
  6
CONTINUOUS
 10
3.662560
 20
2.660680
  0
VERTEX
  8
0
  6
CONTINUOUS
 10
3.713160
 20
2.667720
  0
VERTEX
  8
0
  6
CONTINUOUS
 10
3.713600
 20
1.911360
  0
VERTEX
  8
0
  6
CONTINUOUS
 10
3.662560
 20
1.904320
  0
SEQEND
  8
0
  0
SOLID
  8
0
 62
    15
 10
3.713600
 20
1.911360
 11
3.713160
 21
2.667720
 12
3.761120
 22
1.923240
 13
3.760680
 23
2.679600
  0
POLYLINE
  8
0
  6
CONTINUOUS
 66
     1
 40
0.000000
 41
0.000000
  0
VERTEX
  8
0
  6
CONTINUOUS
 10
3.713600
 20
1.911360
  0
VERTEX
  8
0
  6
CONTINUOUS
 10
3.713160
 20
2.667720
  0
VERTEX
  8
0
  6
CONTINUOUS
 10
3.760680
 20
2.679600
  0
VERTEX
  8
0
  6
CONTINUOUS
 10
3.761120
 20
1.923240
  0
VERTEX
  8
0
  6
CONTINUOUS
 10
3.713600
 20
1.911360
  0
SEQEND
  8
0
  0
SOLID
  8
0
 62
    15
 10
3.761120
 20
1.923240
 11
3.760680
 21
2.679600
 12
3.803360
 22
1.939960
 13
3.802920
 23
2.696320
  0
POLYLINE
  8
0
  6
CONTINUOUS
 66
     1
 40
0.000000
 41
0.000000
  0
VERTEX
  8
0
  6
CONTINUOUS
 10
3.761120
 20
1.923240
  0
VERTEX
  8
0
  6
CONTINUOUS
 10
3.760680
 20
2.679600
  0
VERTEX
  8
0
  6
CONTINUOUS
 10
3.802920
 20
2.696320
  0
VERTEX
  8
0
  6
CONTINUOUS
 10
3.803360
 20
1.939960
  0
VERTEX
  8
0
  6
CONTINUOUS
 10
3.761120
 20
1.923240
  0
SEQEND
  8
0
  0
SOLID
  8
0
 62
    15
 10
3.803360
 20
1.939960
 11
3.802920
 21
2.696320
 12
3.838560
 22
1.961960
 13
3.838120
 23
2.718320
  0
POLYLINE
  8
0
  6
CONTINUOUS
 66
     1
 40
0.000000
 41
0.000000
  0
VERTEX
  8
0
  6
CONTINUOUS
 10
3.803360
 20
1.939960
  0
VERTEX
  8
0
  6
CONTINUOUS
 10
3.802920
 20
2.696320
  0
VERTEX
  8
0
  6
CONTINUOUS
 10
3.838120
 20
2.718320
  0
VERTEX
  8
0
  6
CONTINUOUS
 10
3.838560
 20
1.961960
  0
VERTEX
  8
0
  6
CONTINUOUS
 10
3.803360
 20
1.939960
  0
SEQEND
  8
0
  0
SOLID
  8
0
 62
    15
 10
3.838560
 20
1.961960
 11
3.838120
 21
2.718320
 12
3.865400
 22
1.988800
 13
3.864960
 23
2.745160
  0
POLYLINE
  8
0
  6
CONTINUOUS
 66
     1
 40
0.000000
 41
0.000000
  0
VERTEX
  8
0
  6
CONTINUOUS
 10
3.838560
 20
1.961960
  0
VERTEX
  8
0
  6
CONTINUOUS
 10
3.838120
 20
2.718320
  0
VERTEX
  8
0
  6
CONTINUOUS
 10
3.864960
 20
2.745160
  0
VERTEX
  8
0
  6
CONTINUOUS
 10
3.865400
 20
1.988800
  0
VERTEX
  8
0
  6
CONTINUOUS
 10
3.838560
 20
1.961960
  0
SEQEND
  8
0
  0
SOLID
  8
0
 62
    15
 10
3.865400
 20
1.988800
 11
3.864960
 21
2.745160
 12
3.881680
 22
2.020480
 13
3.881240
 23
2.776840
  0
POLYLINE
  8
0
  6
CONTINUOUS
 66
     1
 40
0.000000
 41
0.000000
  0
VERTEX
  8
0
  6
CONTINUOUS
 10
3.865400
 20
1.988800
  0
VERTEX
  8
0
  6
CONTINUOUS
 10
3.864960
 20
2.745160
  0
VERTEX
  8
0
  6
CONTINUOUS
 10
3.881240
 20
2.776840
  0
VERTEX
  8
0
  6
CONTINUOUS
 10
3.881680
 20
2.020480
  0
VERTEX
  8
0
  6
CONTINUOUS
 10
3.865400
 20
1.988800
  0
SEQEND
  8
0
  0
SOLID
  8
0
 62
    15
 10
3.881680
 20
2.020480
 11
3.881240
 21
2.776840
 12
3.885200
 22
2.038080
 13
3.884760
 23
2.794440
  0
POLYLINE
  8
0
  6
CONTINUOUS
 66
     1
 40
0.000000
 41
0.000000
  0
VERTEX
  8
0
  6
CONTINUOUS
 10
3.881680
 20
2.020480
  0
VERTEX
  8
0
  6
CONTINUOUS
 10
3.881240
 20
2.776840
  0
VERTEX
  8
0
  6
CONTINUOUS
 10
3.884760
 20
2.794440
  0
VERTEX
  8
0
  6
CONTINUOUS
 10
3.885200
 20
2.038080
  0
VERTEX
  8
0
  6
CONTINUOUS
 10
3.881680
 20
2.020480
  0
SEQEND
  8
0
  0
SOLID
  8
0
 62
    15
 10
3.885200
 20
2.038080
 11
3.884760
 21
2.794440
 12
3.885640
 22
2.057440
 13
3.885200
 23
2.813800
  0
POLYLINE
  8
0
  6
CONTINUOUS
 66
     1
 40
0.000000
 41
0.000000
  0
VERTEX
  8
0
  6
CONTINUOUS
 10
3.885200
 20
2.038080
  0
VERTEX
  8
0
  6
CONTINUOUS
 10
3.884760
 20
2.794440
  0
VERTEX
  8
0
  6
CONTINUOUS
 10
3.885200
 20
2.813800
  0
VERTEX
  8
0
  6
CONTINUOUS
 10
3.885640
 20
2.057440
  0
VERTEX
  8
0
  6
CONTINUOUS
 10
3.885200
 20
2.038080
  0
SEQEND
  8
0
  0
SOLID
  8
0
 62
    15
 10
3.885640
 20
2.057440
 11
3.885200
 21
2.813800
 12
3.886520
 22
2.054800
 13
3.886080
 23
2.811160
  0
POLYLINE
  8
0
  6
CONTINUOUS
 66
     1
 40
0.000000
 41
0.000000
  0
VERTEX
  8
0
  6
CONTINUOUS
 10
3.885640
 20
2.057440
  0
VERTEX
  8
0
  6
CONTINUOUS
 10
3.885200
 20
2.813800
  0
VERTEX
  8
0
  6
CONTINUOUS
 10
3.886080
 20
2.811160
  0
VERTEX
  8
0
  6
CONTINUOUS
 10
3.886520
 20
2.054800
  0
VERTEX
  8
0
  6
CONTINUOUS
 10
3.885640
 20
2.057440
  0
SEQEND
  8
0
  0
SOLID
  8
0
 62
    15
 10
4.077480
 20
2.051280
 11
4.077040
 21
2.807640
 12
4.077480
 22
2.032800
 13
4.077480
 23
2.789160
  0
POLYLINE
  8
0
  6
CONTINUOUS
 66
     1
 40
0.000000
 41
0.000000
  0
VERTEX
  8
0
  6
CONTINUOUS
 10
4.077480
 20
2.051280
  0
VERTEX
  8
0
  6
CONTINUOUS
 10
4.077040
 20
2.807640
  0
VERTEX
  8
0
  6
CONTINUOUS
 10
4.077480
 20
2.789160
  0
VERTEX
  8
0
  6
CONTINUOUS
 10
4.077480
 20
2.032800
  0
VERTEX
  8
0
  6
CONTINUOUS
 10
4.077480
 20
2.051280
  0
SEQEND
  8
0
  0
SOLID
  8
0
 62
    15
 10
4.077480
 20
2.032800
 11
4.077480
 21
2.789160
 12
4.081000
 22
2.015200
 13
4.080560
 23
2.771560
  0
POLYLINE
  8
0
  6
CONTINUOUS
 66
     1
 40
0.000000
 41
0.000000
  0
VERTEX
  8
0
  6
CONTINUOUS
 10
4.077480
 20
2.032800
  0
VERTEX
  8
0
  6
CONTINUOUS
 10
4.077480
 20
2.789160
  0
VERTEX
  8
0
  6
CONTINUOUS
 10
4.080560
 20
2.771560
  0
VERTEX
  8
0
  6
CONTINUOUS
 10
4.081000
 20
2.015200
  0
VERTEX
  8
0
  6
CONTINUOUS
 10
4.077480
 20
2.032800
  0
SEQEND
  8
0
  0
SOLID
  8
0
 62
    15
 10
3.886520
 20
2.054800
 11
3.886080
 21
2.811160
 12
4.081000
 22
2.054800
 13
4.080560
 23
2.811160
  0
POLYLINE
  8
0
  6
CONTINUOUS
 66
     1
 40
0.000000
 41
0.000000
  0
VERTEX
  8
0
  6
CONTINUOUS
 10
3.886520
 20
2.054800
  0
VERTEX
  8
0
  6
CONTINUOUS
 10
3.886080
 20
2.811160
  0
VERTEX
  8
0
  6
CONTINUOUS
 10
4.080560
 20
2.811160
  0
VERTEX
  8
0
  6
CONTINUOUS
 10
4.081000
 20
2.054800
  0
VERTEX
  8
0
  6
CONTINUOUS
 10
3.886520
 20
2.054800
  0
SEQEND
  8
0
  0
SOLID
  8
0
 62
    15
 10
4.081000
 20
2.015200
 11
4.080560
 21
2.771560
 12
4.096840
 22
1.984400
 13
4.096400
 23
2.740760
  0
POLYLINE
  8
0
  6
CONTINUOUS
 66
     1
 40
0.000000
 41
0.000000
  0
VERTEX
  8
0
  6
CONTINUOUS
 10
4.081000
 20
2.015200
  0
VERTEX
  8
0
  6
CONTINUOUS
 10
4.080560
 20
2.771560
  0
VERTEX
  8
0
  6
CONTINUOUS
 10
4.096400
 20
2.740760
  0
VERTEX
  8
0
  6
CONTINUOUS
 10
4.096840
 20
1.984400
  0
VERTEX
  8
0
  6
CONTINUOUS
 10
4.081000
 20
2.015200
  0
SEQEND
  8
0
  0
SOLID
  8
0
 62
    15
 10
4.096840
 20
1.984400
 11
4.096400
 21
2.740760
 12
4.123240
 22
1.958000
 13
4.122800
 23
2.714360
  0
POLYLINE
  8
0
  6
CONTINUOUS
 66
     1
 40
0.000000
 41
0.000000
  0
VERTEX
  8
0
  6
CONTINUOUS
 10
4.096840
 20
1.984400
  0
VERTEX
  8
0
  6
CONTINUOUS
 10
4.096400
 20
2.740760
  0
VERTEX
  8
0
  6
CONTINUOUS
 10
4.122800
 20
2.714360
  0
VERTEX
  8
0
  6
CONTINUOUS
 10
4.123240
 20
1.958000
  0
VERTEX
  8
0
  6
CONTINUOUS
 10
4.096840
 20
1.984400
  0
SEQEND
  8
0
  0
SOLID
  8
0
 62
    15
 10
4.123240
 20
1.958000
 11
4.122800
 21
2.714360
 12
4.158000
 22
1.936880
 13
4.158000
 23
2.692800
  0
POLYLINE
  8
0
  6
CONTINUOUS
 66
     1
 40
0.000000
 41
0.000000
  0
VERTEX
  8
0
  6
CONTINUOUS
 10
4.123240
 20
1.958000
  0
VERTEX
  8
0
  6
CONTINUOUS
 10
4.122800
 20
2.714360
  0
VERTEX
  8
0
  6
CONTINUOUS
 10
4.158000
 20
2.692800
  0
VERTEX
  8
0
  6
CONTINUOUS
 10
4.158000
 20
1.936880
  0
VERTEX
  8
0
  6
CONTINUOUS
 10
4.123240
 20
1.958000
  0
SEQEND
  8
0
  0
SOLID
  8
0
 62
    15
 10
4.158000
 20
1.936880
 11
4.158000
 21
2.692800
 12
4.200240
 22
1.920160
 13
4.199800
 23
2.676520
  0
POLYLINE
  8
0
  6
CONTINUOUS
 66
     1
 40
0.000000
 41
0.000000
  0
VERTEX
  8
0
  6
CONTINUOUS
 10
4.158000
 20
1.936880
  0
VERTEX
  8
0
  6
CONTINUOUS
 10
4.158000
 20
2.692800
  0
VERTEX
  8
0
  6
CONTINUOUS
 10
4.199800
 20
2.676520
  0
VERTEX
  8
0
  6
CONTINUOUS
 10
4.200240
 20
1.920160
  0
VERTEX
  8
0
  6
CONTINUOUS
 10
4.158000
 20
1.936880
  0
SEQEND
  8
0
  0
SOLID
  8
0
 62
    15
 10
4.200240
 20
1.920160
 11
4.199800
 21
2.676520
 12
4.247320
 22
1.908280
 13
4.246880
 23
2.664640
  0
POLYLINE
  8
0
  6
CONTINUOUS
 66
     1
 40
0.000000
 41
0.000000
  0
VERTEX
  8
0
  6
CONTINUOUS
 10
4.200240
 20
1.920160
  0
VERTEX
  8
0
  6
CONTINUOUS
 10
4.199800
 20
2.676520
  0
VERTEX
  8
0
  6
CONTINUOUS
 10
4.246880
 20
2.664640
  0
VERTEX
  8
0
  6
CONTINUOUS
 10
4.247320
 20
1.908280
  0
VERTEX
  8
0
  6
CONTINUOUS
 10
4.200240
 20
1.920160
  0
SEQEND
  8
0
  0
SOLID
  8
0
 62
    15
 10
4.247320
 20
1.908280
 11
4.246880
 21
2.664640
 12
4.298360
 22
1.901240
 13
4.297920
 23
2.657600
  0
POLYLINE
  8
0
  6
CONTINUOUS
 66
     1
 40
0.000000
 41
0.000000
  0
VERTEX
  8
0
  6
CONTINUOUS
 10
4.247320
 20
1.908280
  0
VERTEX
  8
0
  6
CONTINUOUS
 10
4.246880
 20
2.664640
  0
VERTEX
  8
0
  6
CONTINUOUS
 10
4.297920
 20
2.657600
  0
VERTEX
  8
0
  6
CONTINUOUS
 10
4.298360
 20
1.901240
  0
VERTEX
  8
0
  6
CONTINUOUS
 10
4.247320
 20
1.908280
  0
SEQEND
  8
0
  0
SOLID
  8
0
 62
    15
 10
1.223640
 20
2.055680
 11
1.223200
 21
2.812040
 12
1.845360
 22
2.055680
 13
1.845360
 23
2.812040
  0
POLYLINE
  8
0
  6
CONTINUOUS
 66
     1
 40
0.000000
 41
0.000000
  0
VERTEX
  8
0
  6
CONTINUOUS
 10
1.223640
 20
2.055680
  0
VERTEX
  8
0
  6
CONTINUOUS
 10
1.223200
 20
2.812040
  0
VERTEX
  8
0
  6
CONTINUOUS
 10
1.845360
 20
2.812040
  0
VERTEX
  8
0
  6
CONTINUOUS
 10
1.845360
 20
2.055680
  0
VERTEX
  8
0
  6
CONTINUOUS
 10
1.223640
 20
2.055680
  0
SEQEND
  8
0
  0
SOLID
  8
0
 62
    15
 10
4.350720
 20
1.899040
 11
4.350280
 21
2.655400
 12
4.403520
 22
1.901680
 13
4.403080
 23
2.658040
  0
POLYLINE
  8
0
  6
CONTINUOUS
 66
     1
 40
0.000000
 41
0.000000
  0
VERTEX
  8
0
  6
CONTINUOUS
 10
4.350720
 20
1.899040
  0
VERTEX
  8
0
  6
CONTINUOUS
 10
4.350280
 20
2.655400
  0
VERTEX
  8
0
  6
CONTINUOUS
 10
4.403080
 20
2.658040
  0
VERTEX
  8
0
  6
CONTINUOUS
 10
4.403520
 20
1.901680
  0
VERTEX
  8
0
  6
CONTINUOUS
 10
4.350720
 20
1.899040
  0
SEQEND
  8
0
  0
SOLID
  8
0
 62
    15
 10
4.403520
 20
1.901680
 11
4.403080
 21
2.658040
 12
4.454120
 22
1.909160
 13
4.453680
 23
2.665520
  0
POLYLINE
  8
0
  6
CONTINUOUS
 66
     1
 40
0.000000
 41
0.000000
  0
VERTEX
  8
0
  6
CONTINUOUS
 10
4.403520
 20
1.901680
  0
VERTEX
  8
0
  6
CONTINUOUS
 10
4.403080
 20
2.658040
  0
VERTEX
  8
0
  6
CONTINUOUS
 10
4.453680
 20
2.665520
  0
VERTEX
  8
0
  6
CONTINUOUS
 10
4.454120
 20
1.909160
  0
VERTEX
  8
0
  6
CONTINUOUS
 10
4.403520
 20
1.901680
  0
SEQEND
  8
0
  0
SOLID
  8
0
 62
    15
 10
4.454120
 20
1.909160
 11
4.453680
 21
2.665520
 12
4.501640
 22
1.921920
 13
4.501200
 23
2.677840
  0
POLYLINE
  8
0
  6
CONTINUOUS
 66
     1
 40
0.000000
 41
0.000000
  0
VERTEX
  8
0
  6
CONTINUOUS
 10
4.454120
 20
1.909160
  0
VERTEX
  8
0
  6
CONTINUOUS
 10
4.453680
 20
2.665520
  0
VERTEX
  8
0
  6
CONTINUOUS
 10
4.501200
 20
2.677840
  0
VERTEX
  8
0
  6
CONTINUOUS
 10
4.501640
 20
1.921920
  0
VERTEX
  8
0
  6
CONTINUOUS
 10
4.454120
 20
1.909160
  0
SEQEND
  8
0
  0
SOLID
  8
0
 62
    15
 10
4.501640
 20
1.921920
 11
4.501200
 21
2.677840
 12
4.543880
 22
1.939080
 13
4.543440
 23
2.695440
  0
POLYLINE
  8
0
  6
CONTINUOUS
 66
     1
 40
0.000000
 41
0.000000
  0
VERTEX
  8
0
  6
CONTINUOUS
 10
4.501640
 20
1.921920
  0
VERTEX
  8
0
  6
CONTINUOUS
 10
4.501200
 20
2.677840
  0
VERTEX
  8
0
  6
CONTINUOUS
 10
4.543440
 20
2.695440
  0
VERTEX
  8
0
  6
CONTINUOUS
 10
4.543880
 20
1.939080
  0
VERTEX
  8
0
  6
CONTINUOUS
 10
4.501640
 20
1.921920
  0
SEQEND
  8
0
  0
SOLID
  8
0
 62
    15
 10
4.543880
 20
1.939080
 11
4.543440
 21
2.695440
 12
4.579080
 22
1.961080
 13
4.579080
 23
2.717440
  0
POLYLINE
  8
0
  6
CONTINUOUS
 66
     1
 40
0.000000
 41
0.000000
  0
VERTEX
  8
0
  6
CONTINUOUS
 10
4.543880
 20
1.939080
  0
VERTEX
  8
0
  6
CONTINUOUS
 10
4.543440
 20
2.695440
  0
VERTEX
  8
0
  6
CONTINUOUS
 10
4.579080
 20
2.717440
  0
VERTEX
  8
0
  6
CONTINUOUS
 10
4.579080
 20
1.961080
  0
VERTEX
  8
0
  6
CONTINUOUS
 10
4.543880
 20
1.939080
  0
SEQEND
  8
0
  0
SOLID
  8
0
 62
    15
 10
4.579080
 20
1.961080
 11
4.579080
 21
2.717440
 12
4.605920
 22
1.988360
 13
4.605920
 23
2.744720
  0
POLYLINE
  8
0
  6
CONTINUOUS
 66
     1
 40
0.000000
 41
0.000000
  0
VERTEX
  8
0
  6
CONTINUOUS
 10
4.579080
 20
1.961080
  0
VERTEX
  8
0
  6
CONTINUOUS
 10
4.579080
 20
2.717440
  0
VERTEX
  8
0
  6
CONTINUOUS
 10
4.605920
 20
2.744720
  0
VERTEX
  8
0
  6
CONTINUOUS
 10
4.605920
 20
1.988360
  0
VERTEX
  8
0
  6
CONTINUOUS
 10
4.579080
 20
1.961080
  0
SEQEND
  8
0
  0
SOLID
  8
0
 62
    15
 10
4.605920
 20
1.988360
 11
4.605920
 21
2.744720
 12
4.622200
 22
2.020480
 13
4.622200
 23
2.776840
  0
POLYLINE
  8
0
  6
CONTINUOUS
 66
     1
 40
0.000000
 41
0.000000
  0
VERTEX
  8
0
  6
CONTINUOUS
 10
4.605920
 20
1.988360
  0
VERTEX
  8
0
  6
CONTINUOUS
 10
4.605920
 20
2.744720
  0
VERTEX
  8
0
  6
CONTINUOUS
 10
4.622200
 20
2.776840
  0
VERTEX
  8
0
  6
CONTINUOUS
 10
4.622200
 20
2.020480
  0
VERTEX
  8
0
  6
CONTINUOUS
 10
4.605920
 20
1.988360
  0
SEQEND
  8
0
  0
SOLID
  8
0
 62
    15
 10
4.622200
 20
2.020480
 11
4.622200
 21
2.776840
 12
4.626160
 22
2.038080
 13
4.625720
 23
2.794440
  0
POLYLINE
  8
0
  6
CONTINUOUS
 66
     1
 40
0.000000
 41
0.000000
  0
VERTEX
  8
0
  6
CONTINUOUS
 10
4.622200
 20
2.020480
  0
VERTEX
  8
0
  6
CONTINUOUS
 10
4.622200
 20
2.776840
  0
VERTEX
  8
0
  6
CONTINUOUS
 10
4.625720
 20
2.794440
  0
VERTEX
  8
0
  6
CONTINUOUS
 10
4.626160
 20
2.038080
  0
VERTEX
  8
0
  6
CONTINUOUS
 10
4.622200
 20
2.020480
  0
SEQEND
  8
0
  0
SOLID
  8
0
 62
    15
 10
4.626160
 20
2.038080
 11
4.625720
 21
2.794440
 12
4.626600
 22
2.057440
 13
4.626160
 23
2.813800
  0
POLYLINE
  8
0
  6
CONTINUOUS
 66
     1
 40
0.000000
 41
0.000000
  0
VERTEX
  8
0
  6
CONTINUOUS
 10
4.626160
 20
2.038080
  0
VERTEX
  8
0
  6
CONTINUOUS
 10
4.625720
 20
2.794440
  0
VERTEX
  8
0
  6
CONTINUOUS
 10
4.626160
 20
2.813800
  0
VERTEX
  8
0
  6
CONTINUOUS
 10
4.626600
 20
2.057440
  0
VERTEX
  8
0
  6
CONTINUOUS
 10
4.626160
 20
2.038080
  0
SEQEND
  8
0
  0
SOLID
  8
0
 62
    15
 10
4.787200
 20
1.298440
 11
4.787200
 21
2.054800
 12
4.945160
 22
1.298440
 13
4.944720
 23
2.054800
  0
POLYLINE
  8
0
  6
CONTINUOUS
 66
     1
 40
0.000000
 41
0.000000
  0
VERTEX
  8
0
  6
CONTINUOUS
 10
4.787200
 20
1.298440
  0
VERTEX
  8
0
  6
CONTINUOUS
 10
4.787200
 20
2.054800
  0
VERTEX
  8
0
  6
CONTINUOUS
 10
4.944720
 20
2.054800
  0
VERTEX
  8
0
  6
CONTINUOUS
 10
4.945160
 20
1.298440
  0
VERTEX
  8
0
  6
CONTINUOUS
 10
4.787200
 20
1.298440
  0
SEQEND
  8
0
  0
SOLID
  8
0
 62
    15
 10
4.815360
 20
2.021360
 11
4.814920
 21
2.777720
 12
4.831200
 22
1.990120
 13
4.830760
 23
2.746480
  0
POLYLINE
  8
0
  6
CONTINUOUS
 66
     1
 40
0.000000
 41
0.000000
  0
VERTEX
  8
0
  6
CONTINUOUS
 10
4.815360
 20
2.021360
  0
VERTEX
  8
0
  6
CONTINUOUS
 10
4.814920
 20
2.777720
  0
VERTEX
  8
0
  6
CONTINUOUS
 10
4.830760
 20
2.746480
  0
VERTEX
  8
0
  6
CONTINUOUS
 10
4.831200
 20
1.990120
  0
VERTEX
  8
0
  6
CONTINUOUS
 10
4.815360
 20
2.021360
  0
SEQEND
  8
0
  0
SOLID
  8
0
 62
    15
 10
4.811840
 20
2.057440
 11
4.811400
 21
2.813800
 12
4.815360
 22
2.021360
 13
4.814920
 23
2.777720
  0
POLYLINE
  8
0
  6
CONTINUOUS
 66
     1
 40
0.000000
 41
0.000000
  0
VERTEX
  8
0
  6
CONTINUOUS
 10
4.811840
 20
2.057440
  0
VERTEX
  8
0
  6
CONTINUOUS
 10
4.811400
 20
2.813800
  0
VERTEX
  8
0
  6
CONTINUOUS
 10
4.814920
 20
2.777720
  0
VERTEX
  8
0
  6
CONTINUOUS
 10
4.815360
 20
2.021360
  0
VERTEX
  8
0
  6
CONTINUOUS
 10
4.811840
 20
2.057440
  0
SEQEND
  8
0
  0
SOLID
  8
0
 62
    15
 10
4.831200
 20
1.990120
 11
4.830760
 21
2.746480
 12
4.857600
 22
1.963720
 13
4.857160
 23
2.720080
  0
POLYLINE
  8
0
  6
CONTINUOUS
 66
     1
 40
0.000000
 41
0.000000
  0
VERTEX
  8
0
  6
CONTINUOUS
 10
4.831200
 20
1.990120
  0
VERTEX
  8
0
  6
CONTINUOUS
 10
4.830760
 20
2.746480
  0
VERTEX
  8
0
  6
CONTINUOUS
 10
4.857160
 20
2.720080
  0
VERTEX
  8
0
  6
CONTINUOUS
 10
4.857600
 20
1.963720
  0
VERTEX
  8
0
  6
CONTINUOUS
 10
4.831200
 20
1.990120
  0
SEQEND
  8
0
  0
SOLID
  8
0
 62
    15
 10
4.857600
 20
1.963720
 11
4.857160
 21
2.720080
 12
4.892360
 22
1.941720
 13
4.891920
 23
2.698080
  0
POLYLINE
  8
0
  6
CONTINUOUS
 66
     1
 40
0.000000
 41
0.000000
  0
VERTEX
  8
0
  6
CONTINUOUS
 10
4.857600
 20
1.963720
  0
VERTEX
  8
0
  6
CONTINUOUS
 10
4.857160
 20
2.720080
  0
VERTEX
  8
0
  6
CONTINUOUS
 10
4.891920
 20
2.698080
  0
VERTEX
  8
0
  6
CONTINUOUS
 10
4.892360
 20
1.941720
  0
VERTEX
  8
0
  6
CONTINUOUS
 10
4.857600
 20
1.963720
  0
SEQEND
  8
0
  0
SOLID
  8
0
 62
    15
 10
4.892360
 20
1.941720
 11
4.891920
 21
2.698080
 12
4.934600
 22
1.924560
 13
4.934160
 23
2.680920
  0
POLYLINE
  8
0
  6
CONTINUOUS
 66
     1
 40
0.000000
 41
0.000000
  0
VERTEX
  8
0
  6
CONTINUOUS
 10
4.892360
 20
1.941720
  0
VERTEX
  8
0
  6
CONTINUOUS
 10
4.891920
 20
2.698080
  0
VERTEX
  8
0
  6
CONTINUOUS
 10
4.934160
 20
2.680920
  0
VERTEX
  8
0
  6
CONTINUOUS
 10
4.934600
 20
1.924560
  0
VERTEX
  8
0
  6
CONTINUOUS
 10
4.892360
 20
1.941720
  0
SEQEND
  8
0
  0
SOLID
  8
0
 62
    15
 10
4.934600
 20
1.924560
 11
4.934160
 21
2.680920
 12
4.981680
 22
1.912240
 13
4.981240
 23
2.668600
  0
POLYLINE
  8
0
  6
CONTINUOUS
 66
     1
 40
0.000000
 41
0.000000
  0
VERTEX
  8
0
  6
CONTINUOUS
 10
4.934600
 20
1.924560
  0
VERTEX
  8
0
  6
CONTINUOUS
 10
4.934160
 20
2.680920
  0
VERTEX
  8
0
  6
CONTINUOUS
 10
4.981240
 20
2.668600
  0
VERTEX
  8
0
  6
CONTINUOUS
 10
4.981680
 20
1.912240
  0
VERTEX
  8
0
  6
CONTINUOUS
 10
4.934600
 20
1.924560
  0
SEQEND
  8
0
  0
SOLID
  8
0
 62
    15
 10
4.981680
 20
1.912240
 11
4.981240
 21
2.668600
 12
5.032280
 22
1.904760
 13
5.031840
 23
2.661120
  0
POLYLINE
  8
0
  6
CONTINUOUS
 66
     1
 40
0.000000
 41
0.000000
  0
VERTEX
  8
0
  6
CONTINUOUS
 10
4.981680
 20
1.912240
  0
VERTEX
  8
0
  6
CONTINUOUS
 10
4.981240
 20
2.668600
  0
VERTEX
  8
0
  6
CONTINUOUS
 10
5.031840
 20
2.661120
  0
VERTEX
  8
0
  6
CONTINUOUS
 10
5.032280
 20
1.904760
  0
VERTEX
  8
0
  6
CONTINUOUS
 10
4.981680
 20
1.912240
  0
SEQEND
  8
0
  0
SOLID
  8
0
 62
    15
 10
5.032280
 20
1.904760
 11
5.031840
 21
2.661120
 12
5.085080
 22
1.902120
 13
5.084640
 23
2.658480
  0
POLYLINE
  8
0
  6
CONTINUOUS
 66
     1
 40
0.000000
 41
0.000000
  0
VERTEX
  8
0
  6
CONTINUOUS
 10
5.032280
 20
1.904760
  0
VERTEX
  8
0
  6
CONTINUOUS
 10
5.031840
 20
2.661120
  0
VERTEX
  8
0
  6
CONTINUOUS
 10
5.084640
 20
2.658480
  0
VERTEX
  8
0
  6
CONTINUOUS
 10
5.085080
 20
1.902120
  0
VERTEX
  8
0
  6
CONTINUOUS
 10
5.032280
 20
1.904760
  0
SEQEND
  8
0
  0
SOLID
  8
0
 62
    15
 10
5.085080
 20
1.902120
 11
5.084640
 21
2.658480
 12
5.137440
 22
1.904320
 13
5.137000
 23
2.660680
  0
POLYLINE
  8
0
  6
CONTINUOUS
 66
     1
 40
0.000000
 41
0.000000
  0
VERTEX
  8
0
  6
CONTINUOUS
 10
5.085080
 20
1.902120
  0
VERTEX
  8
0
  6
CONTINUOUS
 10
5.084640
 20
2.658480
  0
VERTEX
  8
0
  6
CONTINUOUS
 10
5.137000
 20
2.660680
  0
VERTEX
  8
0
  6
CONTINUOUS
 10
5.137440
 20
1.904320
  0
VERTEX
  8
0
  6
CONTINUOUS
 10
5.085080
 20
1.902120
  0
SEQEND
  8
0
  0
SOLID
  8
0
 62
    15
 10
5.137440
 20
1.904320
 11
5.137000
 21
2.660680
 12
5.188480
 22
1.911360
 13
5.188040
 23
2.667720
  0
POLYLINE
  8
0
  6
CONTINUOUS
 66
     1
 40
0.000000
 41
0.000000
  0
VERTEX
  8
0
  6
CONTINUOUS
 10
5.137440
 20
1.904320
  0
VERTEX
  8
0
  6
CONTINUOUS
 10
5.137000
 20
2.660680
  0
VERTEX
  8
0
  6
CONTINUOUS
 10
5.188040
 20
2.667720
  0
VERTEX
  8
0
  6
CONTINUOUS
 10
5.188480
 20
1.911360
  0
VERTEX
  8
0
  6
CONTINUOUS
 10
5.137440
 20
1.904320
  0
SEQEND
  8
0
  0
SOLID
  8
0
 62
    15
 10
5.188480
 20
1.911360
 11
5.188040
 21
2.667720
 12
5.235560
 22
1.923240
 13
5.235560
 23
2.679600
  0
POLYLINE
  8
0
  6
CONTINUOUS
 66
     1
 40
0.000000
 41
0.000000
  0
VERTEX
  8
0
  6
CONTINUOUS
 10
5.188480
 20
1.911360
  0
VERTEX
  8
0
  6
CONTINUOUS
 10
5.188040
 20
2.667720
  0
VERTEX
  8
0
  6
CONTINUOUS
 10
5.235560
 20
2.679600
  0
VERTEX
  8
0
  6
CONTINUOUS
 10
5.235560
 20
1.923240
  0
VERTEX
  8
0
  6
CONTINUOUS
 10
5.188480
 20
1.911360
  0
SEQEND
  8
0
  0
SOLID
  8
0
 62
    15
 10
5.235560
 20
1.923240
 11
5.235560
 21
2.679600
 12
5.277800
 22
1.939960
 13
5.277800
 23
2.696320
  0
POLYLINE
  8
0
  6
CONTINUOUS
 66
     1
 40
0.000000
 41
0.000000
  0
VERTEX
  8
0
  6
CONTINUOUS
 10
5.235560
 20
1.923240
  0
VERTEX
  8
0
  6
CONTINUOUS
 10
5.235560
 20
2.679600
  0
VERTEX
  8
0
  6
CONTINUOUS
 10
5.277800
 20
2.696320
  0
VERTEX
  8
0
  6
CONTINUOUS
 10
5.277800
 20
1.939960
  0
VERTEX
  8
0
  6
CONTINUOUS
 10
5.235560
 20
1.923240
  0
SEQEND
  8
0
  0
SOLID
  8
0
 62
    15
 10
5.277800
 20
1.939960
 11
5.277800
 21
2.696320
 12
5.313440
 22
1.961960
 13
5.313000
 23
2.718320
  0
POLYLINE
  8
0
  6
CONTINUOUS
 66
     1
 40
0.000000
 41
0.000000
  0
VERTEX
  8
0
  6
CONTINUOUS
 10
5.277800
 20
1.939960
  0
VERTEX
  8
0
  6
CONTINUOUS
 10
5.277800
 20
2.696320
  0
VERTEX
  8
0
  6
CONTINUOUS
 10
5.313000
 20
2.718320
  0
VERTEX
  8
0
  6
CONTINUOUS
 10
5.313440
 20
1.961960
  0
VERTEX
  8
0
  6
CONTINUOUS
 10
5.277800
 20
1.939960
  0
SEQEND
  8
0
  0
SOLID
  8
0
 62
    15
 10
5.313440
 20
1.961960
 11
5.313000
 21
2.718320
 12
5.339840
 22
1.988800
 13
5.339840
 23
2.745160
  0
POLYLINE
  8
0
  6
CONTINUOUS
 66
     1
 40
0.000000
 41
0.000000
  0
VERTEX
  8
0
  6
CONTINUOUS
 10
5.313440
 20
1.961960
  0
VERTEX
  8
0
  6
CONTINUOUS
 10
5.313000
 20
2.718320
  0
VERTEX
  8
0
  6
CONTINUOUS
 10
5.339840
 20
2.745160
  0
VERTEX
  8
0
  6
CONTINUOUS
 10
5.339840
 20
1.988800
  0
VERTEX
  8
0
  6
CONTINUOUS
 10
5.313440
 20
1.961960
  0
SEQEND
  8
0
  0
SOLID
  8
0
 62
    15
 10
5.339840
 20
1.988800
 11
5.339840
 21
2.745160
 12
5.356120
 22
2.020480
 13
5.356120
 23
2.776840
  0
POLYLINE
  8
0
  6
CONTINUOUS
 66
     1
 40
0.000000
 41
0.000000
  0
VERTEX
  8
0
  6
CONTINUOUS
 10
5.339840
 20
1.988800
  0
VERTEX
  8
0
  6
CONTINUOUS
 10
5.339840
 20
2.745160
  0
VERTEX
  8
0
  6
CONTINUOUS
 10
5.356120
 20
2.776840
  0
VERTEX
  8
0
  6
CONTINUOUS
 10
5.356120
 20
2.020480
  0
VERTEX
  8
0
  6
CONTINUOUS
 10
5.339840
 20
1.988800
  0
SEQEND
  8
0
  0
SOLID
  8
0
 62
    15
 10
5.356120
 20
2.020480
 11
5.356120
 21
2.776840
 12
5.360080
 22
2.038080
 13
5.359640
 23
2.794440
  0
POLYLINE
  8
0
  6
CONTINUOUS
 66
     1
 40
0.000000
 41
0.000000
  0
VERTEX
  8
0
  6
CONTINUOUS
 10
5.356120
 20
2.020480
  0
VERTEX
  8
0
  6
CONTINUOUS
 10
5.356120
 20
2.776840
  0
VERTEX
  8
0
  6
CONTINUOUS
 10
5.359640
 20
2.794440
  0
VERTEX
  8
0
  6
CONTINUOUS
 10
5.360080
 20
2.038080
  0
VERTEX
  8
0
  6
CONTINUOUS
 10
5.356120
 20
2.020480
  0
SEQEND
  8
0
  0
SOLID
  8
0
 62
    15
 10
5.360080
 20
2.038080
 11
5.359640
 21
2.794440
 12
5.360520
 22
2.057440
 13
5.360080
 23
2.813800
  0
POLYLINE
  8
0
  6
CONTINUOUS
 66
     1
 40
0.000000
 41
0.000000
  0
VERTEX
  8
0
  6
CONTINUOUS
 10
5.360080
 20
2.038080
  0
VERTEX
  8
0
  6
CONTINUOUS
 10
5.359640
 20
2.794440
  0
VERTEX
  8
0
  6
CONTINUOUS
 10
5.360080
 20
2.813800
  0
VERTEX
  8
0
  6
CONTINUOUS
 10
5.360520
 20
2.057440
  0
VERTEX
  8
0
  6
CONTINUOUS
 10
5.360080
 20
2.038080
  0
SEQEND
  8
0
  0
SOLID
  8
0
 62
    15
 10
5.574360
 20
2.021360
 11
5.574360
 21
2.777720
 12
5.590200
 22
1.990120
 13
5.590200
 23
2.746480
  0
POLYLINE
  8
0
  6
CONTINUOUS
 66
     1
 40
0.000000
 41
0.000000
  0
VERTEX
  8
0
  6
CONTINUOUS
 10
5.574360
 20
2.021360
  0
VERTEX
  8
0
  6
CONTINUOUS
 10
5.574360
 20
2.777720
  0
VERTEX
  8
0
  6
CONTINUOUS
 10
5.590200
 20
2.746480
  0
VERTEX
  8
0
  6
CONTINUOUS
 10
5.590200
 20
1.990120
  0
VERTEX
  8
0
  6
CONTINUOUS
 10
5.574360
 20
2.021360
  0
SEQEND
  8
0
  0
SOLID
  8
0
 62
    15
 10
5.570840
 20
2.057440
 11
5.570840
 21
2.813800
 12
5.574360
 22
2.021360
 13
5.574360
 23
2.777720
  0
POLYLINE
  8
0
  6
CONTINUOUS
 66
     1
 40
0.000000
 41
0.000000
  0
VERTEX
  8
0
  6
CONTINUOUS
 10
5.570840
 20
2.057440
  0
VERTEX
  8
0
  6
CONTINUOUS
 10
5.570840
 20
2.813800
  0
VERTEX
  8
0
  6
CONTINUOUS
 10
5.574360
 20
2.777720
  0
VERTEX
  8
0
  6
CONTINUOUS
 10
5.574360
 20
2.021360
  0
VERTEX
  8
0
  6
CONTINUOUS
 10
5.570840
 20
2.057440
  0
SEQEND
  8
0
  0
SOLID
  8
0
 62
    15
 10
5.360520
 20
2.057440
 11
5.360080
 21
2.813800
 12
5.570840
 22
2.057440
 13
5.570840
 23
2.813800
  0
POLYLINE
  8
0
  6
CONTINUOUS
 66
     1
 40
0.000000
 41
0.000000
  0
VERTEX
  8
0
  6
CONTINUOUS
 10
5.360520
 20
2.057440
  0
VERTEX
  8
0
  6
CONTINUOUS
 10
5.360080
 20
2.813800
  0
VERTEX
  8
0
  6
CONTINUOUS
 10
5.570840
 20
2.813800
  0
VERTEX
  8
0
  6
CONTINUOUS
 10
5.570840
 20
2.057440
  0
VERTEX
  8
0
  6
CONTINUOUS
 10
5.360520
 20
2.057440
  0
SEQEND
  8
0
  0
SOLID
  8
0
 62
    15
 10
5.590200
 20
1.990120
 11
5.590200
 21
2.746480
 12
5.616600
 22
1.963720
 13
5.616160
 23
2.720080
  0
POLYLINE
  8
0
  6
CONTINUOUS
 66
     1
 40
0.000000
 41
0.000000
  0
VERTEX
  8
0
  6
CONTINUOUS
 10
5.590200
 20
1.990120
  0
VERTEX
  8
0
  6
CONTINUOUS
 10
5.590200
 20
2.746480
  0
VERTEX
  8
0
  6
CONTINUOUS
 10
5.616160
 20
2.720080
  0
VERTEX
  8
0
  6
CONTINUOUS
 10
5.616600
 20
1.963720
  0
VERTEX
  8
0
  6
CONTINUOUS
 10
5.590200
 20
1.990120
  0
SEQEND
  8
0
  0
SOLID
  8
0
 62
    15
 10
5.616600
 20
1.963720
 11
5.616160
 21
2.720080
 12
5.651360
 22
1.941720
 13
5.651360
 23
2.698080
  0
POLYLINE
  8
0
  6
CONTINUOUS
 66
     1
 40
0.000000
 41
0.000000
  0
VERTEX
  8
0
  6
CONTINUOUS
 10
5.616600
 20
1.963720
  0
VERTEX
  8
0
  6
CONTINUOUS
 10
5.616160
 20
2.720080
  0
VERTEX
  8
0
  6
CONTINUOUS
 10
5.651360
 20
2.698080
  0
VERTEX
  8
0
  6
CONTINUOUS
 10
5.651360
 20
1.941720
  0
VERTEX
  8
0
  6
CONTINUOUS
 10
5.616600
 20
1.963720
  0
SEQEND
  8
0
  0
SOLID
  8
0
 62
    15
 10
5.651360
 20
1.941720
 11
5.651360
 21
2.698080
 12
5.693600
 22
1.925000
 13
5.693160
 23
2.681360
  0
POLYLINE
  8
0
  6
CONTINUOUS
 66
     1
 40
0.000000
 41
0.000000
  0
VERTEX
  8
0
  6
CONTINUOUS
 10
5.651360
 20
1.941720
  0
VERTEX
  8
0
  6
CONTINUOUS
 10
5.651360
 20
2.698080
  0
VERTEX
  8
0
  6
CONTINUOUS
 10
5.693160
 20
2.681360
  0
VERTEX
  8
0
  6
CONTINUOUS
 10
5.693600
 20
1.925000
  0
VERTEX
  8
0
  6
CONTINUOUS
 10
5.651360
 20
1.941720
  0
SEQEND
  8
0
  0
SOLID
  8
0
 62
    15
 10
5.693600
 20
1.925000
 11
5.693160
 21
2.681360
 12
5.740680
 22
1.912680
 13
5.740240
 23
2.668600
  0
POLYLINE
  8
0
  6
CONTINUOUS
 66
     1
 40
0.000000
 41
0.000000
  0
VERTEX
  8
0
  6
CONTINUOUS
 10
5.693600
 20
1.925000
  0
VERTEX
  8
0
  6
CONTINUOUS
 10
5.693160
 20
2.681360
  0
VERTEX
  8
0
  6
CONTINUOUS
 10
5.740240
 20
2.668600
  0
VERTEX
  8
0
  6
CONTINUOUS
 10
5.740680
 20
1.912680
  0
VERTEX
  8
0
  6
CONTINUOUS
 10
5.693600
 20
1.925000
  0
SEQEND
  8
0
  0
SOLID
  8
0
 62
    15
 10
5.740680
 20
1.912680
 11
5.740240
 21
2.668600
 12
5.791280
 22
1.904760
 13
5.791280
 23
2.661120
  0
POLYLINE
  8
0
  6
CONTINUOUS
 66
     1
 40
0.000000
 41
0.000000
  0
VERTEX
  8
0
  6
CONTINUOUS
 10
5.740680
 20
1.912680
  0
VERTEX
  8
0
  6
CONTINUOUS
 10
5.740240
 20
2.668600
  0
VERTEX
  8
0
  6
CONTINUOUS
 10
5.791280
 20
2.661120
  0
VERTEX
  8
0
  6
CONTINUOUS
 10
5.791280
 20
1.904760
  0
VERTEX
  8
0
  6
CONTINUOUS
 10
5.740680
 20
1.912680
  0
SEQEND
  8
0
  0
SOLID
  8
0
 62
    15
 10
5.791280
 20
1.904760
 11
5.791280
 21
2.661120
 12
5.844080
 22
1.902120
 13
5.843640
 23
2.658480
  0
POLYLINE
  8
0
  6
CONTINUOUS
 66
     1
 40
0.000000
 41
0.000000
  0
VERTEX
  8
0
  6
CONTINUOUS
 10
5.791280
 20
1.904760
  0
VERTEX
  8
0
  6
CONTINUOUS
 10
5.791280
 20
2.661120
  0
VERTEX
  8
0
  6
CONTINUOUS
 10
5.843640
 20
2.658480
  0
VERTEX
  8
0
  6
CONTINUOUS
 10
5.844080
 20
1.902120
  0
VERTEX
  8
0
  6
CONTINUOUS
 10
5.791280
 20
1.904760
  0
SEQEND
  8
0
  0
SOLID
  8
0
 62
    15
 10
5.844080
 20
1.902120
 11
5.843640
 21
2.658480
 12
5.896440
 22
1.904320
 13
5.896440
 23
2.660680
  0
POLYLINE
  8
0
  6
CONTINUOUS
 66
     1
 40
0.000000
 41
0.000000
  0
VERTEX
  8
0
  6
CONTINUOUS
 10
5.844080
 20
1.902120
  0
VERTEX
  8
0
  6
CONTINUOUS
 10
5.843640
 20
2.658480
  0
VERTEX
  8
0
  6
CONTINUOUS
 10
5.896440
 20
2.660680
  0
VERTEX
  8
0
  6
CONTINUOUS
 10
5.896440
 20
1.904320
  0
VERTEX
  8
0
  6
CONTINUOUS
 10
5.844080
 20
1.902120
  0
SEQEND
  8
0
  0
SOLID
  8
0
 62
    15
 10
5.896440
 20
1.904320
 11
5.896440
 21
2.660680
 12
5.947480
 22
1.911360
 13
5.947040
 23
2.667720
  0
POLYLINE
  8
0
  6
CONTINUOUS
 66
     1
 40
0.000000
 41
0.000000
  0
VERTEX
  8
0
  6
CONTINUOUS
 10
5.896440
 20
1.904320
  0
VERTEX
  8
0
  6
CONTINUOUS
 10
5.896440
 20
2.660680
  0
VERTEX
  8
0
  6
CONTINUOUS
 10
5.947040
 20
2.667720
  0
VERTEX
  8
0
  6
CONTINUOUS
 10
5.947480
 20
1.911360
  0
VERTEX
  8
0
  6
CONTINUOUS
 10
5.896440
 20
1.904320
  0
SEQEND
  8
0
  0
SOLID
  8
0
 62
    15
 10
5.947480
 20
1.911360
 11
5.947040
 21
2.667720
 12
5.994560
 22
1.923240
 13
5.994560
 23
2.679600
  0
POLYLINE
  8
0
  6
CONTINUOUS
 66
     1
 40
0.000000
 41
0.000000
  0
VERTEX
  8
0
  6
CONTINUOUS
 10
5.947480
 20
1.911360
  0
VERTEX
  8
0
  6
CONTINUOUS
 10
5.947040
 20
2.667720
  0
VERTEX
  8
0
  6
CONTINUOUS
 10
5.994560
 20
2.679600
  0
VERTEX
  8
0
  6
CONTINUOUS
 10
5.994560
 20
1.923240
  0
VERTEX
  8
0
  6
CONTINUOUS
 10
5.947480
 20
1.911360
  0
SEQEND
  8
0
  0
SOLID
  8
0
 62
    15
 10
5.994560
 20
1.923240
 11
5.994560
 21
2.679600
 12
6.037240
 22
1.939960
 13
6.036800
 23
2.696320
  0
POLYLINE
  8
0
  6
CONTINUOUS
 66
     1
 40
0.000000
 41
0.000000
  0
VERTEX
  8
0
  6
CONTINUOUS
 10
5.994560
 20
1.923240
  0
VERTEX
  8
0
  6
CONTINUOUS
 10
5.994560
 20
2.679600
  0
VERTEX
  8
0
  6
CONTINUOUS
 10
6.036800
 20
2.696320
  0
VERTEX
  8
0
  6
CONTINUOUS
 10
6.037240
 20
1.939960
  0
VERTEX
  8
0
  6
CONTINUOUS
 10
5.994560
 20
1.923240
  0
SEQEND
  8
0
  0
SOLID
  8
0
 62
    15
 10
6.037240
 20
1.939960
 11
6.036800
 21
2.696320
 12
6.072440
 22
1.961960
 13
6.072000
 23
2.718320
  0
POLYLINE
  8
0
  6
CONTINUOUS
 66
     1
 40
0.000000
 41
0.000000
  0
VERTEX
  8
0
  6
CONTINUOUS
 10
6.037240
 20
1.939960
  0
VERTEX
  8
0
  6
CONTINUOUS
 10
6.036800
 20
2.696320
  0
VERTEX
  8
0
  6
CONTINUOUS
 10
6.072000
 20
2.718320
  0
VERTEX
  8
0
  6
CONTINUOUS
 10
6.072440
 20
1.961960
  0
VERTEX
  8
0
  6
CONTINUOUS
 10
6.037240
 20
1.939960
  0
SEQEND
  8
0
  0
SOLID
  8
0
 62
    15
 10
6.072440
 20
1.961960
 11
6.072000
 21
2.718320
 12
6.099280
 22
1.988800
 13
6.098840
 23
2.745160
  0
POLYLINE
  8
0
  6
CONTINUOUS
 66
     1
 40
0.000000
 41
0.000000
  0
VERTEX
  8
0
  6
CONTINUOUS
 10
6.072440
 20
1.961960
  0
VERTEX
  8
0
  6
CONTINUOUS
 10
6.072000
 20
2.718320
  0
VERTEX
  8
0
  6
CONTINUOUS
 10
6.098840
 20
2.745160
  0
VERTEX
  8
0
  6
CONTINUOUS
 10
6.099280
 20
1.988800
  0
VERTEX
  8
0
  6
CONTINUOUS
 10
6.072440
 20
1.961960
  0
SEQEND
  8
0
  0
SOLID
  8
0
 62
    15
 10
6.099280
 20
1.988800
 11
6.098840
 21
2.745160
 12
6.115560
 22
2.020480
 13
6.115120
 23
2.776840
  0
POLYLINE
  8
0
  6
CONTINUOUS
 66
     1
 40
0.000000
 41
0.000000
  0
VERTEX
  8
0
  6
CONTINUOUS
 10
6.099280
 20
1.988800
  0
VERTEX
  8
0
  6
CONTINUOUS
 10
6.098840
 20
2.745160
  0
VERTEX
  8
0
  6
CONTINUOUS
 10
6.115120
 20
2.776840
  0
VERTEX
  8
0
  6
CONTINUOUS
 10
6.115560
 20
2.020480
  0
VERTEX
  8
0
  6
CONTINUOUS
 10
6.099280
 20
1.988800
  0
SEQEND
  8
0
  0
SOLID
  8
0
 62
    15
 10
6.115560
 20
2.020480
 11
6.115120
 21
2.776840
 12
6.119080
 22
2.038520
 13
6.118640
 23
2.794880
  0
POLYLINE
  8
0
  6
CONTINUOUS
 66
     1
 40
0.000000
 41
0.000000
  0
VERTEX
  8
0
  6
CONTINUOUS
 10
6.115560
 20
2.020480
  0
VERTEX
  8
0
  6
CONTINUOUS
 10
6.115120
 20
2.776840
  0
VERTEX
  8
0
  6
CONTINUOUS
 10
6.118640
 20
2.794880
  0
VERTEX
  8
0
  6
CONTINUOUS
 10
6.119080
 20
2.038520
  0
VERTEX
  8
0
  6
CONTINUOUS
 10
6.115560
 20
2.020480
  0
SEQEND
  8
0
  0
SOLID
  8
0
 62
    15
 10
6.119080
 20
2.038520
 11
6.118640
 21
2.794880
 12
6.119520
 22
2.057440
 13
6.119080
 23
2.813800
  0
POLYLINE
  8
0
  6
CONTINUOUS
 66
     1
 40
0.000000
 41
0.000000
  0
VERTEX
  8
0
  6
CONTINUOUS
 10
6.119080
 20
2.038520
  0
VERTEX
  8
0
  6
CONTINUOUS
 10
6.118640
 20
2.794880
  0
VERTEX
  8
0
  6
CONTINUOUS
 10
6.119080
 20
2.813800
  0
VERTEX
  8
0
  6
CONTINUOUS
 10
6.119520
 20
2.057440
  0
VERTEX
  8
0
  6
CONTINUOUS
 10
6.119080
 20
2.038520
  0
SEQEND
  8
0
  0
SOLID
  8
0
 62
    15
 10
6.317080
 20
2.057440
 11
6.316640
 21
2.813800
 12
6.320600
 22
2.021360
 13
6.320160
 23
2.777720
  0
POLYLINE
  8
0
  6
CONTINUOUS
 66
     1
 40
0.000000
 41
0.000000
  0
VERTEX
  8
0
  6
CONTINUOUS
 10
6.317080
 20
2.057440
  0
VERTEX
  8
0
  6
CONTINUOUS
 10
6.316640
 20
2.813800
  0
VERTEX
  8
0
  6
CONTINUOUS
 10
6.320160
 20
2.777720
  0
VERTEX
  8
0
  6
CONTINUOUS
 10
6.320600
 20
2.021360
  0
VERTEX
  8
0
  6
CONTINUOUS
 10
6.317080
 20
2.057440
  0
SEQEND
  8
0
  0
SOLID
  8
0
 62
    15
 10
6.336440
 20
1.990120
 11
6.336000
 21
2.746480
 12
6.362400
 22
1.963720
 13
6.362400
 23
2.720080
  0
POLYLINE
  8
0
  6
CONTINUOUS
 66
     1
 40
0.000000
 41
0.000000
  0
VERTEX
  8
0
  6
CONTINUOUS
 10
6.336440
 20
1.990120
  0
VERTEX
  8
0
  6
CONTINUOUS
 10
6.336000
 20
2.746480
  0
VERTEX
  8
0
  6
CONTINUOUS
 10
6.362400
 20
2.720080
  0
VERTEX
  8
0
  6
CONTINUOUS
 10
6.362400
 20
1.963720
  0
VERTEX
  8
0
  6
CONTINUOUS
 10
6.336440
 20
1.990120
  0
SEQEND
  8
0
  0
SOLID
  8
0
 62
    15
 10
6.320600
 20
2.021360
 11
6.320160
 21
2.777720
 12
6.336440
 22
1.990120
 13
6.336000
 23
2.746480
  0
POLYLINE
  8
0
  6
CONTINUOUS
 66
     1
 40
0.000000
 41
0.000000
  0
VERTEX
  8
0
  6
CONTINUOUS
 10
6.320600
 20
2.021360
  0
VERTEX
  8
0
  6
CONTINUOUS
 10
6.320160
 20
2.777720
  0
VERTEX
  8
0
  6
CONTINUOUS
 10
6.336000
 20
2.746480
  0
VERTEX
  8
0
  6
CONTINUOUS
 10
6.336440
 20
1.990120
  0
VERTEX
  8
0
  6
CONTINUOUS
 10
6.320600
 20
2.021360
  0
SEQEND
  8
0
  0
SOLID
  8
0
 62
    15
 10
6.119520
 20
2.057440
 11
6.119080
 21
2.813800
 12
6.320600
 22
2.057440
 13
6.320160
 23
2.813800
  0
POLYLINE
  8
0
  6
CONTINUOUS
 66
     1
 40
0.000000
 41
0.000000
  0
VERTEX
  8
0
  6
CONTINUOUS
 10
6.119520
 20
2.057440
  0
VERTEX
  8
0
  6
CONTINUOUS
 10
6.119080
 20
2.813800
  0
VERTEX
  8
0
  6
CONTINUOUS
 10
6.320160
 20
2.813800
  0
VERTEX
  8
0
  6
CONTINUOUS
 10
6.320600
 20
2.057440
  0
VERTEX
  8
0
  6
CONTINUOUS
 10
6.119520
 20
2.057440
  0
SEQEND
  8
0
  0
SOLID
  8
0
 62
    15
 10
6.362400
 20
1.963720
 11
6.362400
 21
2.720080
 12
6.397600
 22
1.941720
 13
6.397160
 23
2.698080
  0
POLYLINE
  8
0
  6
CONTINUOUS
 66
     1
 40
0.000000
 41
0.000000
  0
VERTEX
  8
0
  6
CONTINUOUS
 10
6.362400
 20
1.963720
  0
VERTEX
  8
0
  6
CONTINUOUS
 10
6.362400
 20
2.720080
  0
VERTEX
  8
0
  6
CONTINUOUS
 10
6.397160
 20
2.698080
  0
VERTEX
  8
0
  6
CONTINUOUS
 10
6.397600
 20
1.941720
  0
VERTEX
  8
0
  6
CONTINUOUS
 10
6.362400
 20
1.963720
  0
SEQEND
  8
0
  0
SOLID
  8
0
 62
    15
 10
6.397600
 20
1.941720
 11
6.397160
 21
2.698080
 12
6.439400
 22
1.925000
 13
6.439400
 23
2.680920
  0
POLYLINE
  8
0
  6
CONTINUOUS
 66
     1
 40
0.000000
 41
0.000000
  0
VERTEX
  8
0
  6
CONTINUOUS
 10
6.397600
 20
1.941720
  0
VERTEX
  8
0
  6
CONTINUOUS
 10
6.397160
 20
2.698080
  0
VERTEX
  8
0
  6
CONTINUOUS
 10
6.439400
 20
2.680920
  0
VERTEX
  8
0
  6
CONTINUOUS
 10
6.439400
 20
1.925000
  0
VERTEX
  8
0
  6
CONTINUOUS
 10
6.397600
 20
1.941720
  0
SEQEND
  8
0
  0
SOLID
  8
0
 62
    15
 10
6.439400
 20
1.925000
 11
6.439400
 21
2.680920
 12
6.486920
 22
1.912240
 13
6.486480
 23
2.668600
  0
POLYLINE
  8
0
  6
CONTINUOUS
 66
     1
 40
0.000000
 41
0.000000
  0
VERTEX
  8
0
  6
CONTINUOUS
 10
6.439400
 20
1.925000
  0
VERTEX
  8
0
  6
CONTINUOUS
 10
6.439400
 20
2.680920
  0
VERTEX
  8
0
  6
CONTINUOUS
 10
6.486480
 20
2.668600
  0
VERTEX
  8
0
  6
CONTINUOUS
 10
6.486920
 20
1.912240
  0
VERTEX
  8
0
  6
CONTINUOUS
 10
6.439400
 20
1.925000
  0
SEQEND
  8
0
  0
SOLID
  8
0
 62
    15
 10
6.486920
 20
1.912240
 11
6.486480
 21
2.668600
 12
6.537520
 22
1.904760
 13
6.537080
 23
2.661120
  0
POLYLINE
  8
0
  6
CONTINUOUS
 66
     1
 40
0.000000
 41
0.000000
  0
VERTEX
  8
0
  6
CONTINUOUS
 10
6.486920
 20
1.912240
  0
VERTEX
  8
0
  6
CONTINUOUS
 10
6.486480
 20
2.668600
  0
VERTEX
  8
0
  6
CONTINUOUS
 10
6.537080
 20
2.661120
  0
VERTEX
  8
0
  6
CONTINUOUS
 10
6.537520
 20
1.904760
  0
VERTEX
  8
0
  6
CONTINUOUS
 10
6.486920
 20
1.912240
  0
SEQEND
  8
0
  0
SOLID
  8
0
 62
    15
 10
6.537520
 20
1.904760
 11
6.537080
 21
2.661120
 12
6.589880
 22
1.902120
 13
6.589880
 23
2.658480
  0
POLYLINE
  8
0
  6
CONTINUOUS
 66
     1
 40
0.000000
 41
0.000000
  0
VERTEX
  8
0
  6
CONTINUOUS
 10
6.537520
 20
1.904760
  0
VERTEX
  8
0
  6
CONTINUOUS
 10
6.537080
 20
2.661120
  0
VERTEX
  8
0
  6
CONTINUOUS
 10
6.589880
 20
2.658480
  0
VERTEX
  8
0
  6
CONTINUOUS
 10
6.589880
 20
1.902120
  0
VERTEX
  8
0
  6
CONTINUOUS
 10
6.537520
 20
1.904760
  0
SEQEND
  8
0
  0
SOLID
  8
0
 62
    15
 10
6.589880
 20
1.902120
 11
6.589880
 21
2.658480
 12
6.642680
 22
1.904320
 13
6.642240
 23
2.660680
  0
POLYLINE
  8
0
  6
CONTINUOUS
 66
     1
 40
0.000000
 41
0.000000
  0
VERTEX
  8
0
  6
CONTINUOUS
 10
6.589880
 20
1.902120
  0
VERTEX
  8
0
  6
CONTINUOUS
 10
6.589880
 20
2.658480
  0
VERTEX
  8
0
  6
CONTINUOUS
 10
6.642240
 20
2.660680
  0
VERTEX
  8
0
  6
CONTINUOUS
 10
6.642680
 20
1.904320
  0
VERTEX
  8
0
  6
CONTINUOUS
 10
6.589880
 20
1.902120
  0
SEQEND
  8
0
  0
SOLID
  8
0
 62
    15
 10
6.642680
 20
1.904320
 11
6.642240
 21
2.660680
 12
6.693280
 22
1.911360
 13
6.693280
 23
2.667720
  0
POLYLINE
  8
0
  6
CONTINUOUS
 66
     1
 40
0.000000
 41
0.000000
  0
VERTEX
  8
0
  6
CONTINUOUS
 10
6.642680
 20
1.904320
  0
VERTEX
  8
0
  6
CONTINUOUS
 10
6.642240
 20
2.660680
  0
VERTEX
  8
0
  6
CONTINUOUS
 10
6.693280
 20
2.667720
  0
VERTEX
  8
0
  6
CONTINUOUS
 10
6.693280
 20
1.911360
  0
VERTEX
  8
0
  6
CONTINUOUS
 10
6.642680
 20
1.904320
  0
SEQEND
  8
0
  0
SOLID
  8
0
 62
    15
 10
6.693280
 20
1.911360
 11
6.693280
 21
2.667720
 12
6.740800
 22
1.923240
 13
6.740360
 23
2.679600
  0
POLYLINE
  8
0
  6
CONTINUOUS
 66
     1
 40
0.000000
 41
0.000000
  0
VERTEX
  8
0
  6
CONTINUOUS
 10
6.693280
 20
1.911360
  0
VERTEX
  8
0
  6
CONTINUOUS
 10
6.693280
 20
2.667720
  0
VERTEX
  8
0
  6
CONTINUOUS
 10
6.740360
 20
2.679600
  0
VERTEX
  8
0
  6
CONTINUOUS
 10
6.740800
 20
1.923240
  0
VERTEX
  8
0
  6
CONTINUOUS
 10
6.693280
 20
1.911360
  0
SEQEND
  8
0
  0
SOLID
  8
0
 62
    15
 10
6.740800
 20
1.923240
 11
6.740360
 21
2.679600
 12
6.783040
 22
1.939960
 13
6.782600
 23
2.696320
  0
POLYLINE
  8
0
  6
CONTINUOUS
 66
     1
 40
0.000000
 41
0.000000
  0
VERTEX
  8
0
  6
CONTINUOUS
 10
6.740800
 20
1.923240
  0
VERTEX
  8
0
  6
CONTINUOUS
 10
6.740360
 20
2.679600
  0
VERTEX
  8
0
  6
CONTINUOUS
 10
6.782600
 20
2.696320
  0
VERTEX
  8
0
  6
CONTINUOUS
 10
6.783040
 20
1.939960
  0
VERTEX
  8
0
  6
CONTINUOUS
 10
6.740800
 20
1.923240
  0
SEQEND
  8
0
  0
SOLID
  8
0
 62
    15
 10
6.783040
 20
1.939960
 11
6.782600
 21
2.696320
 12
6.818240
 22
1.961960
 13
6.818240
 23
2.718320
  0
POLYLINE
  8
0
  6
CONTINUOUS
 66
     1
 40
0.000000
 41
0.000000
  0
VERTEX
  8
0
  6
CONTINUOUS
 10
6.783040
 20
1.939960
  0
VERTEX
  8
0
  6
CONTINUOUS
 10
6.782600
 20
2.696320
  0
VERTEX
  8
0
  6
CONTINUOUS
 10
6.818240
 20
2.718320
  0
VERTEX
  8
0
  6
CONTINUOUS
 10
6.818240
 20
1.961960
  0
VERTEX
  8
0
  6
CONTINUOUS
 10
6.783040
 20
1.939960
  0
SEQEND
  8
0
  0
SOLID
  8
0
 62
    15
 10
6.818240
 20
1.961960
 11
6.818240
 21
2.718320
 12
6.845080
 22
1.988800
 13
6.844640
 23
2.745160
  0
POLYLINE
  8
0
  6
CONTINUOUS
 66
     1
 40
0.000000
 41
0.000000
  0
VERTEX
  8
0
  6
CONTINUOUS
 10
6.818240
 20
1.961960
  0
VERTEX
  8
0
  6
CONTINUOUS
 10
6.818240
 20
2.718320
  0
VERTEX
  8
0
  6
CONTINUOUS
 10
6.844640
 20
2.745160
  0
VERTEX
  8
0
  6
CONTINUOUS
 10
6.845080
 20
1.988800
  0
VERTEX
  8
0
  6
CONTINUOUS
 10
6.818240
 20
1.961960
  0
SEQEND
  8
0
  0
SOLID
  8
0
 62
    15
 10
6.845080
 20
1.988800
 11
6.844640
 21
2.745160
 12
6.861360
 22
2.020480
 13
6.860920
 23
2.776840
  0
POLYLINE
  8
0
  6
CONTINUOUS
 66
     1
 40
0.000000
 41
0.000000
  0
VERTEX
  8
0
  6
CONTINUOUS
 10
6.845080
 20
1.988800
  0
VERTEX
  8
0
  6
CONTINUOUS
 10
6.844640
 20
2.745160
  0
VERTEX
  8
0
  6
CONTINUOUS
 10
6.860920
 20
2.776840
  0
VERTEX
  8
0
  6
CONTINUOUS
 10
6.861360
 20
2.020480
  0
VERTEX
  8
0
  6
CONTINUOUS
 10
6.845080
 20
1.988800
  0
SEQEND
  8
0
  0
SOLID
  8
0
 62
    15
 10
6.861360
 20
2.020480
 11
6.860920
 21
2.776840
 12
6.865320
 22
2.038080
 13
6.864880
 23
2.794440
  0
POLYLINE
  8
0
  6
CONTINUOUS
 66
     1
 40
0.000000
 41
0.000000
  0
VERTEX
  8
0
  6
CONTINUOUS
 10
6.861360
 20
2.020480
  0
VERTEX
  8
0
  6
CONTINUOUS
 10
6.860920
 20
2.776840
  0
VERTEX
  8
0
  6
CONTINUOUS
 10
6.864880
 20
2.794440
  0
VERTEX
  8
0
  6
CONTINUOUS
 10
6.865320
 20
2.038080
  0
VERTEX
  8
0
  6
CONTINUOUS
 10
6.861360
 20
2.020480
  0
SEQEND
  8
0
  0
SOLID
  8
0
 62
    15
 10
6.865320
 20
2.038080
 11
6.864880
 21
2.794440
 12
6.865760
 22
2.057440
 13
6.865320
 23
2.813800
  0
POLYLINE
  8
0
  6
CONTINUOUS
 66
     1
 40
0.000000
 41
0.000000
  0
VERTEX
  8
0
  6
CONTINUOUS
 10
6.865320
 20
2.038080
  0
VERTEX
  8
0
  6
CONTINUOUS
 10
6.864880
 20
2.794440
  0
VERTEX
  8
0
  6
CONTINUOUS
 10
6.865320
 20
2.813800
  0
VERTEX
  8
0
  6
CONTINUOUS
 10
6.865760
 20
2.057440
  0
VERTEX
  8
0
  6
CONTINUOUS
 10
6.865320
 20
2.038080
  0
SEQEND
  8
0
  0
SOLID
  8
0
 62
    15
 10
6.865760
 20
2.057440
 11
6.865320
 21
2.813800
 12
7.483080
 22
2.057440
 13
7.482640
 23
2.813800
  0
POLYLINE
  8
0
  6
CONTINUOUS
 66
     1
 40
0.000000
 41
0.000000
  0
VERTEX
  8
0
  6
CONTINUOUS
 10
6.865760
 20
2.057440
  0
VERTEX
  8
0
  6
CONTINUOUS
 10
6.865320
 20
2.813800
  0
VERTEX
  8
0
  6
CONTINUOUS
 10
7.482640
 20
2.813800
  0
VERTEX
  8
0
  6
CONTINUOUS
 10
7.483080
 20
2.057440
  0
VERTEX
  8
0
  6
CONTINUOUS
 10
6.865760
 20
2.057440
  0
SEQEND
  8
0
  0
SOLID
  8
0
 62
    15
 10
4.626600
 20
2.057440
 11
4.626160
 21
2.813800
 12
4.811840
 22
2.057440
 13
4.811400
 23
2.813800
  0
POLYLINE
  8
0
  6
CONTINUOUS
 66
     1
 40
0.000000
 41
0.000000
  0
VERTEX
  8
0
  6
CONTINUOUS
 10
4.626600
 20
2.057440
  0
VERTEX
  8
0
  6
CONTINUOUS
 10
4.626160
 20
2.813800
  0
VERTEX
  8
0
  6
CONTINUOUS
 10
4.811400
 20
2.813800
  0
VERTEX
  8
0
  6
CONTINUOUS
 10
4.811840
 20
2.057440
  0
VERTEX
  8
0
  6
CONTINUOUS
 10
4.626600
 20
2.057440
  0
SEQEND
  8
0
  0
POLYLINE
  8
0
  6
CONTINUOUS
 66
     1
 40
0.000000
 41
0.000000
  0
VERTEX
  8
0
  6
CONTINUOUS
 10
4.945160
 20
1.298440
  0
VERTEX
  8
0
  6
CONTINUOUS
 10
1.223640
 20
1.298440
  0
VERTEX
  8
0
  6
CONTINUOUS
 10
1.223640
 20
2.055680
  0
VERTEX
  8
0
  6
CONTINUOUS
 10
1.845360
 20
2.055680
  0
VERTEX
  8
0
  6
CONTINUOUS
 10
1.848880
 20
2.019600
  0
VERTEX
  8
0
  6
CONTINUOUS
 10
1.864720
 20
1.988360
  0
VERTEX
  8
0
  6
CONTINUOUS
 10
1.891120
 20
1.961960
  0
VERTEX
  8
0
  6
CONTINUOUS
 10
1.925880
 20
1.939960
  0
VERTEX
  8
0
  6
CONTINUOUS
 10
1.968120
 20
1.923240
  0
VERTEX
  8
0
  6
CONTINUOUS
 10
2.015200
 20
1.910920
  0
VERTEX
  8
0
  6
CONTINUOUS
 10
2.065800
 20
1.903000
  0
VERTEX
  8
0
  6
CONTINUOUS
 10
2.118600
 20
1.900360
  0
VERTEX
  8
0
  6
CONTINUOUS
 10
2.170960
 20
1.902560
  0
VERTEX
  8
0
  6
CONTINUOUS
 10
2.222000
 20
1.909600
  0
VERTEX
  8
0
  6
CONTINUOUS
 10
2.269080
 20
1.921480
  0
VERTEX
  8
0
  6
CONTINUOUS
 10
2.311320
 20
1.938200
  0
VERTEX
  8
0
  6
CONTINUOUS
 10
2.346960
 20
1.960200
  0
VERTEX
  8
0
  6
CONTINUOUS
 10
2.373800
 20
1.987040
  0
VERTEX
  8
0
  6
CONTINUOUS
 10
2.389640
 20
2.018720
  0
VERTEX
  8
0
  6
CONTINUOUS
 10
2.393600
 20
2.036760
  0
VERTEX
  8
0
  6
CONTINUOUS
 10
2.394040
 20
2.055680
  0
VERTEX
  8
0
  6
CONTINUOUS
 10
2.585440
 20
2.055680
  0
VERTEX
  8
0
  6
CONTINUOUS
 10
2.588960
 20
2.054800
  0
VERTEX
  8
0
  6
CONTINUOUS
 10
2.588960
 20
2.036320
  0
VERTEX
  8
0
  6
CONTINUOUS
 10
2.592480
 20
2.019160
  0
VERTEX
  8
0
  6
CONTINUOUS
 10
2.608320
 20
1.987920
  0
VERTEX
  8
0
  6
CONTINUOUS
 10
2.634720
 20
1.961520
  0
VERTEX
  8
0
  6
CONTINUOUS
 10
2.669480
 20
1.939520
  0
VERTEX
  8
0
  6
CONTINUOUS
 10
2.711720
 20
1.922800
  0
VERTEX
  8
0
  6
CONTINUOUS
 10
2.758800
 20
1.910480
  0
VERTEX
  8
0
  6
CONTINUOUS
 10
2.809840
 20
1.903440
  0
VERTEX
  8
0
  6
CONTINUOUS
 10
2.862200
 20
1.900800
  0
VERTEX
  8
0
  6
CONTINUOUS
 10
2.915000
 20
1.903440
  0
VERTEX
  8
0
  6
CONTINUOUS
 10
2.965600
 20
1.910480
  0
VERTEX
  8
0
  6
CONTINUOUS
 10
3.013120
 20
1.922800
  0
VERTEX
  8
0
  6
CONTINUOUS
 10
3.055800
 20
1.939520
  0
VERTEX
  8
0
  6
CONTINUOUS
 10
3.091000
 20
1.961520
  0
VERTEX
  8
0
  6
CONTINUOUS
 10
3.117840
 20
1.988360
  0
VERTEX
  8
0
  6
CONTINUOUS
 10
3.134120
 20
2.020480
  0
VERTEX
  8
0
  6
CONTINUOUS
 10
3.138080
 20
2.057440
  0
VERTEX
  8
0
  6
CONTINUOUS
 10
3.336960
 20
2.057440
  0
VERTEX
  8
0
  6
CONTINUOUS
 10
3.340480
 20
2.021360
  0
VERTEX
  8
0
  6
CONTINUOUS
 10
3.356320
 20
1.990120
  0
VERTEX
  8
0
  6
CONTINUOUS
 10
3.382720
 20
1.963720
  0
VERTEX
  8
0
  6
CONTINUOUS
 10
3.417920
 20
1.941720
  0
VERTEX
  8
0
  6
CONTINUOUS
 10
3.459720
 20
1.924560
  0
VERTEX
  8
0
  6
CONTINUOUS
 10
3.506800
 20
1.912240
  0
VERTEX
  8
0
  6
CONTINUOUS
 10
3.557840
 20
1.904760
  0
VERTEX
  8
0
  6
CONTINUOUS
 10
3.610200
 20
1.902120
  0
VERTEX
  8
0
  6
CONTINUOUS
 10
3.662560
 20
1.904320
  0
VERTEX
  8
0
  6
CONTINUOUS
 10
3.713600
 20
1.911360
  0
VERTEX
  8
0
  6
CONTINUOUS
 10
3.761120
 20
1.923240
  0
VERTEX
  8
0
  6
CONTINUOUS
 10
3.803360
 20
1.939960
  0
VERTEX
  8
0
  6
CONTINUOUS
 10
3.838560
 20
1.961960
  0
VERTEX
  8
0
  6
CONTINUOUS
 10
3.865400
 20
1.988800
  0
VERTEX
  8
0
  6
CONTINUOUS
 10
3.881680
 20
2.020480
  0
VERTEX
  8
0
  6
CONTINUOUS
 10
3.885200
 20
2.038080
  0
VERTEX
  8
0
  6
CONTINUOUS
 10
3.885640
 20
2.057440
  0
VERTEX
  8
0
  6
CONTINUOUS
 10
3.886520
 20
2.054800
  0
VERTEX
  8
0
  6
CONTINUOUS
 10
4.081000
 20
2.054800
  0
VERTEX
  8
0
  6
CONTINUOUS
 10
4.077480
 20
2.051280
  0
VERTEX
  8
0
  6
CONTINUOUS
 10
4.077480
 20
2.032800
  0
VERTEX
  8
0
  6
CONTINUOUS
 10
4.081000
 20
2.015200
  0
VERTEX
  8
0
  6
CONTINUOUS
 10
4.096840
 20
1.984400
  0
VERTEX
  8
0
  6
CONTINUOUS
 10
4.123240
 20
1.958000
  0
VERTEX
  8
0
  6
CONTINUOUS
 10
4.158000
 20
1.936880
  0
VERTEX
  8
0
  6
CONTINUOUS
 10
4.200240
 20
1.920160
  0
VERTEX
  8
0
  6
CONTINUOUS
 10
4.247320
 20
1.908280
  0
VERTEX
  8
0
  6
CONTINUOUS
 10
4.298360
 20
1.901240
  0
VERTEX
  8
0
  6
CONTINUOUS
 10
4.350720
 20
1.899040
  0
VERTEX
  8
0
  6
CONTINUOUS
 10
4.403520
 20
1.901680
  0
VERTEX
  8
0
  6
CONTINUOUS
 10
4.454120
 20
1.909160
  0
VERTEX
  8
0
  6
CONTINUOUS
 10
4.501640
 20
1.921920
  0
VERTEX
  8
0
  6
CONTINUOUS
 10
4.543880
 20
1.939080
  0
VERTEX
  8
0
  6
CONTINUOUS
 10
4.579080
 20
1.961080
  0
VERTEX
  8
0
  6
CONTINUOUS
 10
4.605920
 20
1.988360
  0
VERTEX
  8
0
  6
CONTINUOUS
 10
4.622200
 20
2.020480
  0
VERTEX
  8
0
  6
CONTINUOUS
 10
4.626160
 20
2.038080
  0
VERTEX
  8
0
  6
CONTINUOUS
 10
4.626600
 20
2.057440
  0
VERTEX
  8
0
  6
CONTINUOUS
 10
4.811840
 20
2.057440
  0
VERTEX
  8
0
  6
CONTINUOUS
 10
4.815360
 20
2.021360
  0
VERTEX
  8
0
  6
CONTINUOUS
 10
4.831200
 20
1.990120
  0
VERTEX
  8
0
  6
CONTINUOUS
 10
4.857600
 20
1.963720
  0
VERTEX
  8
0
  6
CONTINUOUS
 10
4.892360
 20
1.941720
  0
VERTEX
  8
0
  6
CONTINUOUS
 10
4.934600
 20
1.924560
  0
VERTEX
  8
0
  6
CONTINUOUS
 10
4.981680
 20
1.912240
  0
VERTEX
  8
0
  6
CONTINUOUS
 10
5.032280
 20
1.904760
  0
VERTEX
  8
0
  6
CONTINUOUS
 10
5.085080
 20
1.902120
  0
VERTEX
  8
0
  6
CONTINUOUS
 10
5.137440
 20
1.904320
  0
VERTEX
  8
0
  6
CONTINUOUS
 10
5.188480
 20
1.911360
  0
VERTEX
  8
0
  6
CONTINUOUS
 10
5.235560
 20
1.923240
  0
VERTEX
  8
0
  6
CONTINUOUS
 10
5.277800
 20
1.939960
  0
VERTEX
  8
0
  6
CONTINUOUS
 10
5.313440
 20
1.961960
  0
VERTEX
  8
0
  6
CONTINUOUS
 10
5.339840
 20
1.988800
  0
VERTEX
  8
0
  6
CONTINUOUS
 10
5.356120
 20
2.020480
  0
VERTEX
  8
0
  6
CONTINUOUS
 10
5.360080
 20
2.038080
  0
VERTEX
  8
0
  6
CONTINUOUS
 10
5.360520
 20
2.057440
  0
VERTEX
  8
0
  6
CONTINUOUS
 10
5.570840
 20
2.057440
  0
VERTEX
  8
0
  6
CONTINUOUS
 10
5.574360
 20
2.021360
  0
VERTEX
  8
0
  6
CONTINUOUS
 10
5.590200
 20
1.990120
  0
VERTEX
  8
0
  6
CONTINUOUS
 10
5.616600
 20
1.963720
  0
VERTEX
  8
0
  6
CONTINUOUS
 10
5.651360
 20
1.941720
  0
VERTEX
  8
0
  6
CONTINUOUS
 10
5.693600
 20
1.925000
  0
VERTEX
  8
0
  6
CONTINUOUS
 10
5.740680
 20
1.912680
  0
VERTEX
  8
0
  6
CONTINUOUS
 10
5.791280
 20
1.904760
  0
VERTEX
  8
0
  6
CONTINUOUS
 10
5.844080
 20
1.902120
  0
VERTEX
  8
0
  6
CONTINUOUS
 10
5.896440
 20
1.904320
  0
VERTEX
  8
0
  6
CONTINUOUS
 10
5.947480
 20
1.911360
  0
VERTEX
  8
0
  6
CONTINUOUS
 10
5.994560
 20
1.923240
  0
VERTEX
  8
0
  6
CONTINUOUS
 10
6.037240
 20
1.939960
  0
VERTEX
  8
0
  6
CONTINUOUS
 10
6.072440
 20
1.961960
  0
VERTEX
  8
0
  6
CONTINUOUS
 10
6.099280
 20
1.988800
  0
VERTEX
  8
0
  6
CONTINUOUS
 10
6.115560
 20
2.020480
  0
VERTEX
  8
0
  6
CONTINUOUS
 10
6.119080
 20
2.038520
  0
VERTEX
  8
0
  6
CONTINUOUS
 10
6.119520
 20
2.057440
  0
VERTEX
  8
0
  6
CONTINUOUS
 10
6.320600
 20
2.057440
  0
VERTEX
  8
0
  6
CONTINUOUS
 10
6.317080
 20
2.057440
  0
VERTEX
  8
0
  6
CONTINUOUS
 10
6.320600
 20
2.021360
  0
VERTEX
  8
0
  6
CONTINUOUS
 10
6.336440
 20
1.990120
  0
VERTEX
  8
0
  6
CONTINUOUS
 10
6.362400
 20
1.963720
  0
VERTEX
  8
0
  6
CONTINUOUS
 10
6.397600
 20
1.941720
  0
VERTEX
  8
0
  6
CONTINUOUS
 10
6.439400
 20
1.925000
  0
VERTEX
  8
0
  6
CONTINUOUS
 10
6.486920
 20
1.912240
  0
VERTEX
  8
0
  6
CONTINUOUS
 10
6.537520
 20
1.904760
  0
VERTEX
  8
0
  6
CONTINUOUS
 10
6.589880
 20
1.902120
  0
VERTEX
  8
0
  6
CONTINUOUS
 10
6.642680
 20
1.904320
  0
VERTEX
  8
0
  6
CONTINUOUS
 10
6.693280
 20
1.911360
  0
VERTEX
  8
0
  6
CONTINUOUS
 10
6.740800
 20
1.923240
  0
VERTEX
  8
0
  6
CONTINUOUS
 10
6.783040
 20
1.939960
  0
VERTEX
  8
0
  6
CONTINUOUS
 10
6.818240
 20
1.961960
  0
VERTEX
  8
0
  6
CONTINUOUS
 10
6.845080
 20
1.988800
  0
VERTEX
  8
0
  6
CONTINUOUS
 10
6.861360
 20
2.020480
  0
VERTEX
  8
0
  6
CONTINUOUS
 10
6.865320
 20
2.038080
  0
VERTEX
  8
0
  6
CONTINUOUS
 10
6.865760
 20
2.057440
  0
VERTEX
  8
0
  6
CONTINUOUS
 10
7.483080
 20
2.057440
  0
VERTEX
  8
0
  6
CONTINUOUS
 10
7.483080
 20
1.298440
  0
VERTEX
  8
0
  6
CONTINUOUS
 10
4.787200
 20
1.298440
  0
VERTEX
  8
0
  6
CONTINUOUS
 10
4.945160
 20
1.298440
  0
SEQEND
  8
0
  0
TEXT
  8
0
 10
4.058560
 20
0.968000
 40
0.138045
  1
BA  546
 41
1.000000
  7
SN0
 71
     0
 72
     5
 11
4.648603
 21
0.968000
  0
TEXT
  8
0
 10
3.902800
 20
0.776600
 40
0.138045
  1
3/4" x 6-1/4"
 41
1.000000
  7
SN0
 71
     0
 72
     5
 11
4.802545
 21
0.776600
  0
ENDSEC
  0
EOF
