  0
SECTION
  2
HEADER
  9
$ACADVER
  1
AC1006
  9
$EXTMIN
 10
4.515720
 20
0.458920
  9
$EXTMAX
 10
6.704720
 20
4.384160
  9
$LTSCALE
 40
0.044000
  9
$PDMODE
 70
    35
  9
$PDSIZE
 40
0.035200
  0
ENDSEC
  0
SECTION
  2
TABLES
  0
TABLE
  2
LTYPE
 70
     9
  0
LTYPE
  2
CONTINUOUS
 70
    64
  3
Solid line
 72
    65
 73
     0
 40
0.000000
  0
LTYPE
  2
DASHED
 70
    64
  3
__ __ __ __ __ __ __ __ __ __ __ __ __ __ __
 72
    65
 73
     2
 40
0.000330
 49
0.000220
 49
-0.000110
  0
LTYPE
  2
HIDDEN
 70
    64
  3
 _ _ _ _ _ _ _ _ _ _ _ _ _ _ _ _ _ _ _ _ _ _
 72
    65
 73
     2
 40
0.000165
 49
0.000110
 49
-0.000055
  0
LTYPE
  2
CENTER
 70
    64
  3
____ _ ____ _ ____ _ ____ _ ____ _ ____ _ ____
 72
    65
 73
     4
 40
0.000880
 49
0.000550
 49
-0.000110
 49
0.000110
 49
-0.000110
  0
LTYPE
  2
PHANTOM
 70
    64
  3
_____ _ _ _____ _ _ _____ _ _ _____ _ _ ____
 72
    65
 73
     6
 40
0.001100
 49
0.000550
 49
-0.000110
 49
0.000110
 49
-0.000110
 49
0.000110
 49
-0.000110
  0
LTYPE
  2
DOT
 70
    64
  3
...............................................
 72
    65
 73
     2
 40
0.000110
 49
0.000000
 49
-0.000110
  0
LTYPE
  2
DASHDOT
 70
    64
  3
__ . __ . __ . __ . __ . __ . __ . __ . __ . __
 72
    65
 73
     4
 40
0.000440
 49
0.000220
 49
-0.000110
 49
0.000000
 49
-0.000110
  0
LTYPE
  2
BORDER
 70
    64
  3
__ __ . __ __ . __ __ . __ __ . __ __ . __ __
 72
    65
 73
     6
 40
0.000770
 49
0.000220
 49
-0.000110
 49
0.000220
 49
-0.000110
 49
0.000000
 49
-0.000110
  0
LTYPE
  2
DIVIDE
 70
    64
  3
__ . . __ . . __ . . __ . . __ . . __ . . __
 72
    65
 73
     6
 40
0.000550
 49
0.000220
 49
-0.000110
 49
0.000000
 49
-0.000110
 49
0.000000
 49
-0.000110
  0
LTYPE
  2
DOTDOT
 70
    64
  3
 . .  . .  . .  . .  . .  . . 
 72
    65
 73
     5
 40
0.000242
 49
-0.000110
 49
0.000000
 49
-0.000110
 49
0.000000
 49
-0.000110
  0
ENDTAB
  0
TABLE
  2
STYLE
 70
     2
  0
STYLE
 70
     0
  2
SN0
 40
0.000000
 41
0.000440
 50
0.000000
 71
     0
 42
0.000000
  3
ROMAND
  0
STYLE
 70
    68
  2
SV0
 40
0.000000
 41
0.000440
 50
0.000000
 71
     0
 42
0.000000
  3
ROMAND
  0
ENDTAB
  0
TABLE
  2
LAYER
 70
     3
  0
LAYER
  2
FOREGROUND
 70
    64
 62
     7
  6
CONTINUOUS
  0
LAYER
  2
BACKGROUND
 70
    65
 62
    -7
  6
CONTINUOUS
  0
LAYER
  2
0
 70
    64
 62
     7
  6
CONTINUOUS
  0
ENDTAB
  0
ENDSEC
  0
SECTION
  2
ENTITIES
  0
POLYLINE
  8
FOREGROUND
  6
CONTINUOUS
 66
     1
 40
0.000000
 41
0.000000
  0
VERTEX
  8
FOREGROUND
  6
CONTINUOUS
 10
0.000000
 20
4.843080
  0
VERTEX
  8
FOREGROUND
  6
CONTINUOUS
 10
8.499920
 20
4.843080
  0
VERTEX
  8
FOREGROUND
  6
CONTINUOUS
 10
8.499920
 20
-6.156920
  0
VERTEX
  8
FOREGROUND
  6
CONTINUOUS
 10
0.000000
 20
-6.156920
  0
VERTEX
  8
FOREGROUND
  6
CONTINUOUS
 10
0.000000
 20
4.843080
  0
SEQEND
  8
0
  0
POLYLINE
  8
FOREGROUND
  6
CONTINUOUS
 66
     1
 40
0.000000
 41
0.000000
  0
VERTEX
  8
FOREGROUND
  6
CONTINUOUS
 10
0.000000
 20
4.843080
  0
VERTEX
  8
FOREGROUND
  6
CONTINUOUS
 10
8.499920
 20
4.843080
  0
VERTEX
  8
FOREGROUND
  6
CONTINUOUS
 10
8.499920
 20
-6.156920
  0
VERTEX
  8
FOREGROUND
  6
CONTINUOUS
 10
0.000000
 20
-6.156920
  0
VERTEX
  8
FOREGROUND
  6
CONTINUOUS
 10
0.000000
 20
4.843080
  0
SEQEND
  8
0
  0
POLYLINE
  8
0
  6
CONTINUOUS
 66
     1
 40
0.014080
 41
0.014080
  0
VERTEX
  8
0
  6
CONTINUOUS
 10
6.431480
 20
4.375360
  0
VERTEX
  8
0
  6
CONTINUOUS
 10
6.422680
 20
4.357320
  0
VERTEX
  8
0
  6
CONTINUOUS
 10
6.414320
 20
4.339720
  0
VERTEX
  8
0
  6
CONTINUOUS
 10
6.407720
 20
4.321680
  0
VERTEX
  8
0
  6
CONTINUOUS
 10
6.402440
 20
4.304080
  0
VERTEX
  8
0
  6
CONTINUOUS
 10
6.398040
 20
4.286040
  0
VERTEX
  8
0
  6
CONTINUOUS
 10
6.395400
 20
4.268440
  0
VERTEX
  8
0
  6
CONTINUOUS
 10
6.394520
 20
4.250400
  0
VERTEX
  8
0
  6
CONTINUOUS
 10
6.395400
 20
4.232360
  0
VERTEX
  8
0
  6
CONTINUOUS
 10
6.397600
 20
4.214320
  0
VERTEX
  8
0
  6
CONTINUOUS
 10
6.402000
 20
4.196280
  0
VERTEX
  8
0
  6
CONTINUOUS
 10
6.408600
 20
4.177800
  0
VERTEX
  8
0
  6
CONTINUOUS
 10
6.417400
 20
4.159320
  0
VERTEX
  8
0
  6
CONTINUOUS
 10
6.428400
 20
4.140840
  0
VERTEX
  8
0
  6
CONTINUOUS
 10
6.442040
 20
4.121920
  0
VERTEX
  8
0
  6
CONTINUOUS
 10
6.449520
 20
4.112680
  0
VERTEX
  8
0
  6
CONTINUOUS
 10
6.457880
 20
4.103000
  0
VERTEX
  8
0
  6
CONTINUOUS
 10
6.466680
 20
4.093760
  0
VERTEX
  8
0
  6
CONTINUOUS
 10
6.476360
 20
4.084080
  0
VERTEX
  8
0
  6
CONTINUOUS
 10
6.495280
 20
4.065600
  0
VERTEX
  8
0
  6
CONTINUOUS
 10
6.512440
 20
4.048000
  0
VERTEX
  8
0
  6
CONTINUOUS
 10
6.527400
 20
4.031280
  0
VERTEX
  8
0
  6
CONTINUOUS
 10
6.541040
 20
4.015440
  0
VERTEX
  8
0
  6
CONTINUOUS
 10
6.552480
 20
3.999600
  0
VERTEX
  8
0
  6
CONTINUOUS
 10
6.562160
 20
3.984200
  0
VERTEX
  8
0
  6
CONTINUOUS
 10
6.570520
 20
3.968800
  0
VERTEX
  8
0
  6
CONTINUOUS
 10
6.577120
 20
3.953400
  0
VERTEX
  8
0
  6
CONTINUOUS
 10
6.581960
 20
3.937120
  0
VERTEX
  8
0
  6
CONTINUOUS
 10
6.585480
 20
3.920840
  0
VERTEX
  8
0
  6
CONTINUOUS
 10
6.587240
 20
3.903240
  0
VERTEX
  8
0
  6
CONTINUOUS
 10
6.587680
 20
3.884320
  0
VERTEX
  8
0
  6
CONTINUOUS
 10
6.586800
 20
3.864520
  0
VERTEX
  8
0
  6
CONTINUOUS
 10
6.584160
 20
3.842960
  0
VERTEX
  8
0
  6
CONTINUOUS
 10
6.580200
 20
3.819640
  0
VERTEX
  8
0
  6
CONTINUOUS
 10
6.575360
 20
3.794560
  0
VERTEX
  8
0
  6
CONTINUOUS
 10
6.697680
 20
3.783560
  0
VERTEX
  8
0
  6
CONTINUOUS
 10
6.697680
 20
1.336280
  0
VERTEX
  8
0
  6
CONTINUOUS
 10
6.233040
 20
1.336280
  0
VERTEX
  8
0
  6
CONTINUOUS
 10
6.233040
 20
4.268000
  0
VERTEX
  8
0
  6
CONTINUOUS
 10
6.233040
 20
4.376240
  0
VERTEX
  8
0
  6
CONTINUOUS
 10
6.431480
 20
4.376240
  0
VERTEX
  8
0
  6
CONTINUOUS
 10
6.431480
 20
4.375360
  0
SEQEND
  8
0
  0
SOLID
  8
0
 62
    15
 10
4.796000
 20
3.652440
 11
5.440600
 21
4.013240
 12
4.824600
 22
3.619880
 13
5.469200
 23
3.980680
  0
POLYLINE
  8
0
  6
CONTINUOUS
 66
     1
 40
0.000000
 41
0.000000
  0
VERTEX
  8
0
  6
CONTINUOUS
 10
4.796000
 20
3.652440
  0
VERTEX
  8
0
  6
CONTINUOUS
 10
5.440600
 20
4.013240
  0
VERTEX
  8
0
  6
CONTINUOUS
 10
5.469200
 20
3.980680
  0
VERTEX
  8
0
  6
CONTINUOUS
 10
4.824600
 20
3.619880
  0
VERTEX
  8
0
  6
CONTINUOUS
 10
4.796000
 20
3.652440
  0
SEQEND
  8
0
  0
SOLID
  8
0
 62
    15
 10
4.698320
 20
3.944160
 11
5.342480
 21
4.304960
 12
4.686000
 22
3.908520
 13
5.330600
 23
4.269320
  0
POLYLINE
  8
0
  6
CONTINUOUS
 66
     1
 40
0.000000
 41
0.000000
  0
VERTEX
  8
0
  6
CONTINUOUS
 10
4.698320
 20
3.944160
  0
VERTEX
  8
0
  6
CONTINUOUS
 10
5.342480
 20
4.304960
  0
VERTEX
  8
0
  6
CONTINUOUS
 10
5.330600
 20
4.269320
  0
VERTEX
  8
0
  6
CONTINUOUS
 10
4.686000
 20
3.908520
  0
VERTEX
  8
0
  6
CONTINUOUS
 10
4.698320
 20
3.944160
  0
SEQEND
  8
0
  0
SOLID
  8
0
 62
    15
 10
4.686000
 20
3.908520
 11
5.330600
 21
4.269320
 12
4.679400
 22
3.872880
 13
5.323560
 23
4.233680
  0
POLYLINE
  8
0
  6
CONTINUOUS
 66
     1
 40
0.000000
 41
0.000000
  0
VERTEX
  8
0
  6
CONTINUOUS
 10
4.686000
 20
3.908520
  0
VERTEX
  8
0
  6
CONTINUOUS
 10
5.330600
 20
4.269320
  0
VERTEX
  8
0
  6
CONTINUOUS
 10
5.323560
 20
4.233680
  0
VERTEX
  8
0
  6
CONTINUOUS
 10
4.679400
 20
3.872880
  0
VERTEX
  8
0
  6
CONTINUOUS
 10
4.686000
 20
3.908520
  0
SEQEND
  8
0
  0
SOLID
  8
0
 62
    15
 10
4.679400
 20
3.872880
 11
5.323560
 21
4.233680
 12
4.678960
 22
3.836800
 13
5.323560
 23
4.197600
  0
POLYLINE
  8
0
  6
CONTINUOUS
 66
     1
 40
0.000000
 41
0.000000
  0
VERTEX
  8
0
  6
CONTINUOUS
 10
4.679400
 20
3.872880
  0
VERTEX
  8
0
  6
CONTINUOUS
 10
5.323560
 20
4.233680
  0
VERTEX
  8
0
  6
CONTINUOUS
 10
5.323560
 20
4.197600
  0
VERTEX
  8
0
  6
CONTINUOUS
 10
4.678960
 20
3.836800
  0
VERTEX
  8
0
  6
CONTINUOUS
 10
4.679400
 20
3.872880
  0
SEQEND
  8
0
  0
SOLID
  8
0
 62
    15
 10
4.678960
 20
3.836800
 11
5.323560
 21
4.197600
 12
4.686000
 22
3.800720
 13
5.330160
 23
4.161520
  0
POLYLINE
  8
0
  6
CONTINUOUS
 66
     1
 40
0.000000
 41
0.000000
  0
VERTEX
  8
0
  6
CONTINUOUS
 10
4.678960
 20
3.836800
  0
VERTEX
  8
0
  6
CONTINUOUS
 10
5.323560
 20
4.197600
  0
VERTEX
  8
0
  6
CONTINUOUS
 10
5.330160
 20
4.161520
  0
VERTEX
  8
0
  6
CONTINUOUS
 10
4.686000
 20
3.800720
  0
VERTEX
  8
0
  6
CONTINUOUS
 10
4.678960
 20
3.836800
  0
SEQEND
  8
0
  0
SOLID
  8
0
 62
    15
 10
4.686000
 20
3.800720
 11
5.330160
 21
4.161520
 12
4.701400
 22
3.764200
 13
5.345560
 23
4.124560
  0
POLYLINE
  8
0
  6
CONTINUOUS
 66
     1
 40
0.000000
 41
0.000000
  0
VERTEX
  8
0
  6
CONTINUOUS
 10
4.686000
 20
3.800720
  0
VERTEX
  8
0
  6
CONTINUOUS
 10
5.330160
 20
4.161520
  0
VERTEX
  8
0
  6
CONTINUOUS
 10
5.345560
 20
4.124560
  0
VERTEX
  8
0
  6
CONTINUOUS
 10
4.701400
 20
3.764200
  0
VERTEX
  8
0
  6
CONTINUOUS
 10
4.686000
 20
3.800720
  0
SEQEND
  8
0
  0
SOLID
  8
0
 62
    15
 10
4.701400
 20
3.764200
 11
5.345560
 21
4.124560
 12
4.712400
 22
3.745280
 13
5.356560
 23
4.106080
  0
POLYLINE
  8
0
  6
CONTINUOUS
 66
     1
 40
0.000000
 41
0.000000
  0
VERTEX
  8
0
  6
CONTINUOUS
 10
4.701400
 20
3.764200
  0
VERTEX
  8
0
  6
CONTINUOUS
 10
5.345560
 20
4.124560
  0
VERTEX
  8
0
  6
CONTINUOUS
 10
5.356560
 20
4.106080
  0
VERTEX
  8
0
  6
CONTINUOUS
 10
4.712400
 20
3.745280
  0
VERTEX
  8
0
  6
CONTINUOUS
 10
4.701400
 20
3.764200
  0
SEQEND
  8
0
  0
SOLID
  8
0
 62
    15
 10
4.712400
 20
3.745280
 11
5.356560
 21
4.106080
 12
4.725600
 22
3.726800
 13
5.370200
 23
4.087600
  0
POLYLINE
  8
0
  6
CONTINUOUS
 66
     1
 40
0.000000
 41
0.000000
  0
VERTEX
  8
0
  6
CONTINUOUS
 10
4.712400
 20
3.745280
  0
VERTEX
  8
0
  6
CONTINUOUS
 10
5.356560
 20
4.106080
  0
VERTEX
  8
0
  6
CONTINUOUS
 10
5.370200
 20
4.087600
  0
VERTEX
  8
0
  6
CONTINUOUS
 10
4.725600
 20
3.726800
  0
VERTEX
  8
0
  6
CONTINUOUS
 10
4.712400
 20
3.745280
  0
SEQEND
  8
0
  0
SOLID
  8
0
 62
    15
 10
4.725600
 20
3.726800
 11
5.370200
 21
4.087600
 12
4.741440
 22
3.707880
 13
5.386040
 23
4.068680
  0
POLYLINE
  8
0
  6
CONTINUOUS
 66
     1
 40
0.000000
 41
0.000000
  0
VERTEX
  8
0
  6
CONTINUOUS
 10
4.725600
 20
3.726800
  0
VERTEX
  8
0
  6
CONTINUOUS
 10
5.370200
 20
4.087600
  0
VERTEX
  8
0
  6
CONTINUOUS
 10
5.386040
 20
4.068680
  0
VERTEX
  8
0
  6
CONTINUOUS
 10
4.741440
 20
3.707880
  0
VERTEX
  8
0
  6
CONTINUOUS
 10
4.725600
 20
3.726800
  0
SEQEND
  8
0
  0
SOLID
  8
0
 62
    15
 10
4.741440
 20
3.707880
 11
5.386040
 21
4.068680
 12
4.760360
 22
3.688520
 13
5.404520
 23
4.049320
  0
POLYLINE
  8
0
  6
CONTINUOUS
 66
     1
 40
0.000000
 41
0.000000
  0
VERTEX
  8
0
  6
CONTINUOUS
 10
4.741440
 20
3.707880
  0
VERTEX
  8
0
  6
CONTINUOUS
 10
5.386040
 20
4.068680
  0
VERTEX
  8
0
  6
CONTINUOUS
 10
5.404520
 20
4.049320
  0
VERTEX
  8
0
  6
CONTINUOUS
 10
4.760360
 20
3.688520
  0
VERTEX
  8
0
  6
CONTINUOUS
 10
4.741440
 20
3.707880
  0
SEQEND
  8
0
  0
SOLID
  8
0
 62
    15
 10
4.760360
 20
3.688520
 11
5.404520
 21
4.049320
 12
4.779280
 22
3.670040
 13
5.423440
 23
4.030840
  0
POLYLINE
  8
0
  6
CONTINUOUS
 66
     1
 40
0.000000
 41
0.000000
  0
VERTEX
  8
0
  6
CONTINUOUS
 10
4.760360
 20
3.688520
  0
VERTEX
  8
0
  6
CONTINUOUS
 10
5.404520
 20
4.049320
  0
VERTEX
  8
0
  6
CONTINUOUS
 10
5.423440
 20
4.030840
  0
VERTEX
  8
0
  6
CONTINUOUS
 10
4.779280
 20
3.670040
  0
VERTEX
  8
0
  6
CONTINUOUS
 10
4.760360
 20
3.688520
  0
SEQEND
  8
0
  0
SOLID
  8
0
 62
    15
 10
4.779280
 20
3.670040
 11
5.423440
 21
4.030840
 12
4.796000
 22
3.652440
 13
5.440600
 23
4.013240
  0
POLYLINE
  8
0
  6
CONTINUOUS
 66
     1
 40
0.000000
 41
0.000000
  0
VERTEX
  8
0
  6
CONTINUOUS
 10
4.779280
 20
3.670040
  0
VERTEX
  8
0
  6
CONTINUOUS
 10
5.423440
 20
4.030840
  0
VERTEX
  8
0
  6
CONTINUOUS
 10
5.440600
 20
4.013240
  0
VERTEX
  8
0
  6
CONTINUOUS
 10
4.796000
 20
3.652440
  0
VERTEX
  8
0
  6
CONTINUOUS
 10
4.779280
 20
3.670040
  0
SEQEND
  8
0
  0
SOLID
  8
0
 62
    15
 10
4.715040
 20
3.979800
 11
5.359640
 21
4.340600
 12
4.698320
 22
3.944160
 13
5.342480
 23
4.304960
  0
POLYLINE
  8
0
  6
CONTINUOUS
 66
     1
 40
0.000000
 41
0.000000
  0
VERTEX
  8
0
  6
CONTINUOUS
 10
4.715040
 20
3.979800
  0
VERTEX
  8
0
  6
CONTINUOUS
 10
5.359640
 20
4.340600
  0
VERTEX
  8
0
  6
CONTINUOUS
 10
5.342480
 20
4.304960
  0
VERTEX
  8
0
  6
CONTINUOUS
 10
4.698320
 20
3.944160
  0
VERTEX
  8
0
  6
CONTINUOUS
 10
4.715040
 20
3.979800
  0
SEQEND
  8
0
  0
SOLID
  8
0
 62
    15
 10
4.824600
 20
3.619880
 11
5.469200
 21
3.980680
 12
4.846160
 22
3.589080
 13
5.490760
 23
3.949880
  0
POLYLINE
  8
0
  6
CONTINUOUS
 66
     1
 40
0.000000
 41
0.000000
  0
VERTEX
  8
0
  6
CONTINUOUS
 10
4.824600
 20
3.619880
  0
VERTEX
  8
0
  6
CONTINUOUS
 10
5.469200
 20
3.980680
  0
VERTEX
  8
0
  6
CONTINUOUS
 10
5.490760
 20
3.949880
  0
VERTEX
  8
0
  6
CONTINUOUS
 10
4.846160
 20
3.589080
  0
VERTEX
  8
0
  6
CONTINUOUS
 10
4.824600
 20
3.619880
  0
SEQEND
  8
0
  0
SOLID
  8
0
 62
    15
 10
4.846160
 20
3.589080
 11
5.490760
 21
3.949880
 12
4.861120
 22
3.557840
 13
5.505280
 23
3.918640
  0
POLYLINE
  8
0
  6
CONTINUOUS
 66
     1
 40
0.000000
 41
0.000000
  0
VERTEX
  8
0
  6
CONTINUOUS
 10
4.846160
 20
3.589080
  0
VERTEX
  8
0
  6
CONTINUOUS
 10
5.490760
 20
3.949880
  0
VERTEX
  8
0
  6
CONTINUOUS
 10
5.505280
 20
3.918640
  0
VERTEX
  8
0
  6
CONTINUOUS
 10
4.861120
 20
3.557840
  0
VERTEX
  8
0
  6
CONTINUOUS
 10
4.846160
 20
3.589080
  0
SEQEND
  8
0
  0
SOLID
  8
0
 62
    15
 10
4.861120
 20
3.557840
 11
5.505280
 21
3.918640
 12
4.869040
 22
3.525280
 13
5.513640
 23
3.886080
  0
POLYLINE
  8
0
  6
CONTINUOUS
 66
     1
 40
0.000000
 41
0.000000
  0
VERTEX
  8
0
  6
CONTINUOUS
 10
4.861120
 20
3.557840
  0
VERTEX
  8
0
  6
CONTINUOUS
 10
5.505280
 20
3.918640
  0
VERTEX
  8
0
  6
CONTINUOUS
 10
5.513640
 20
3.886080
  0
VERTEX
  8
0
  6
CONTINUOUS
 10
4.869040
 20
3.525280
  0
VERTEX
  8
0
  6
CONTINUOUS
 10
4.861120
 20
3.557840
  0
SEQEND
  8
0
  0
SOLID
  8
0
 62
    15
 10
4.869040
 20
3.525280
 11
5.513640
 21
3.886080
 12
4.871240
 22
3.489200
 13
5.515840
 23
3.849560
  0
POLYLINE
  8
0
  6
CONTINUOUS
 66
     1
 40
0.000000
 41
0.000000
  0
VERTEX
  8
0
  6
CONTINUOUS
 10
4.869040
 20
3.525280
  0
VERTEX
  8
0
  6
CONTINUOUS
 10
5.513640
 20
3.886080
  0
VERTEX
  8
0
  6
CONTINUOUS
 10
5.515840
 20
3.849560
  0
VERTEX
  8
0
  6
CONTINUOUS
 10
4.871240
 20
3.489200
  0
VERTEX
  8
0
  6
CONTINUOUS
 10
4.869040
 20
3.525280
  0
SEQEND
  8
0
  0
SOLID
  8
0
 62
    15
 10
4.871240
 20
3.489200
 11
5.515840
 21
3.849560
 12
4.868160
 22
3.447400
 13
5.512320
 23
3.808200
  0
POLYLINE
  8
0
  6
CONTINUOUS
 66
     1
 40
0.000000
 41
0.000000
  0
VERTEX
  8
0
  6
CONTINUOUS
 10
4.871240
 20
3.489200
  0
VERTEX
  8
0
  6
CONTINUOUS
 10
5.515840
 20
3.849560
  0
VERTEX
  8
0
  6
CONTINUOUS
 10
5.512320
 20
3.808200
  0
VERTEX
  8
0
  6
CONTINUOUS
 10
4.868160
 20
3.447400
  0
VERTEX
  8
0
  6
CONTINUOUS
 10
4.871240
 20
3.489200
  0
SEQEND
  8
0
  0
SOLID
  8
0
 62
    15
 10
4.868160
 20
3.447400
 11
5.512320
 21
3.808200
 12
4.864200
 22
3.424080
 13
5.508800
 23
3.784880
  0
POLYLINE
  8
0
  6
CONTINUOUS
 66
     1
 40
0.000000
 41
0.000000
  0
VERTEX
  8
0
  6
CONTINUOUS
 10
4.868160
 20
3.447400
  0
VERTEX
  8
0
  6
CONTINUOUS
 10
5.512320
 20
3.808200
  0
VERTEX
  8
0
  6
CONTINUOUS
 10
5.508800
 20
3.784880
  0
VERTEX
  8
0
  6
CONTINUOUS
 10
4.864200
 20
3.424080
  0
VERTEX
  8
0
  6
CONTINUOUS
 10
4.868160
 20
3.447400
  0
SEQEND
  8
0
  0
SOLID
  8
0
 62
    15
 10
4.864200
 20
3.424080
 11
5.508800
 21
3.784880
 12
4.858920
 22
3.399000
 13
5.503520
 23
3.759800
  0
POLYLINE
  8
0
  6
CONTINUOUS
 66
     1
 40
0.000000
 41
0.000000
  0
VERTEX
  8
0
  6
CONTINUOUS
 10
4.864200
 20
3.424080
  0
VERTEX
  8
0
  6
CONTINUOUS
 10
5.508800
 20
3.784880
  0
VERTEX
  8
0
  6
CONTINUOUS
 10
5.503520
 20
3.759800
  0
VERTEX
  8
0
  6
CONTINUOUS
 10
4.858920
 20
3.399000
  0
VERTEX
  8
0
  6
CONTINUOUS
 10
4.864200
 20
3.424080
  0
SEQEND
  8
0
  0
SOLID
  8
0
 62
    15
 10
4.858920
 20
3.399000
 11
5.503520
 21
3.759800
 12
4.981240
 22
3.388000
 13
5.625840
 23
3.748800
  0
POLYLINE
  8
0
  6
CONTINUOUS
 66
     1
 40
0.000000
 41
0.000000
  0
VERTEX
  8
0
  6
CONTINUOUS
 10
4.858920
 20
3.399000
  0
VERTEX
  8
0
  6
CONTINUOUS
 10
5.503520
 20
3.759800
  0
VERTEX
  8
0
  6
CONTINUOUS
 10
5.625840
 20
3.748800
  0
VERTEX
  8
0
  6
CONTINUOUS
 10
4.981240
 20
3.388000
  0
VERTEX
  8
0
  6
CONTINUOUS
 10
4.858920
 20
3.399000
  0
SEQEND
  8
0
  0
SOLID
  8
0
 62
    15
 10
4.981240
 20
3.388000
 11
5.625840
 21
3.748800
 12
4.981240
 22
0.940720
 13
5.625840
 23
1.301520
  0
POLYLINE
  8
0
  6
CONTINUOUS
 66
     1
 40
0.000000
 41
0.000000
  0
VERTEX
  8
0
  6
CONTINUOUS
 10
4.981240
 20
3.388000
  0
VERTEX
  8
0
  6
CONTINUOUS
 10
5.625840
 20
3.748800
  0
VERTEX
  8
0
  6
CONTINUOUS
 10
5.625840
 20
1.301520
  0
VERTEX
  8
0
  6
CONTINUOUS
 10
4.981240
 20
0.940720
  0
VERTEX
  8
0
  6
CONTINUOUS
 10
4.981240
 20
3.388000
  0
SEQEND
  8
0
  0
SOLID
  8
0
 62
    15
 10
4.516600
 20
3.981120
 11
5.161200
 21
4.341920
 12
4.715040
 22
3.981120
 13
5.359640
 23
4.341920
  0
POLYLINE
  8
0
  6
CONTINUOUS
 66
     1
 40
0.000000
 41
0.000000
  0
VERTEX
  8
0
  6
CONTINUOUS
 10
4.516600
 20
3.981120
  0
VERTEX
  8
0
  6
CONTINUOUS
 10
5.161200
 20
4.341920
  0
VERTEX
  8
0
  6
CONTINUOUS
 10
5.359640
 20
4.341920
  0
VERTEX
  8
0
  6
CONTINUOUS
 10
4.715040
 20
3.981120
  0
VERTEX
  8
0
  6
CONTINUOUS
 10
4.516600
 20
3.981120
  0
SEQEND
  8
0
  0
SOLID
  8
0
 62
    15
 10
4.715040
 20
3.981120
 11
5.359640
 21
4.341920
 12
4.715040
 22
3.979800
 13
5.359640
 23
4.340600
  0
POLYLINE
  8
0
  6
CONTINUOUS
 66
     1
 40
0.000000
 41
0.000000
  0
VERTEX
  8
0
  6
CONTINUOUS
 10
4.715040
 20
3.981120
  0
VERTEX
  8
0
  6
CONTINUOUS
 10
5.359640
 20
4.341920
  0
VERTEX
  8
0
  6
CONTINUOUS
 10
5.359640
 20
4.340600
  0
VERTEX
  8
0
  6
CONTINUOUS
 10
4.715040
 20
3.979800
  0
VERTEX
  8
0
  6
CONTINUOUS
 10
4.715040
 20
3.981120
  0
SEQEND
  8
0
  0
POLYLINE
  8
0
  6
CONTINUOUS
 66
     1
 40
0.000000
 41
0.000000
  0
VERTEX
  8
0
  6
CONTINUOUS
 10
4.715040
 20
3.979800
  0
VERTEX
  8
0
  6
CONTINUOUS
 10
4.698320
 20
3.944160
  0
VERTEX
  8
0
  6
CONTINUOUS
 10
4.686000
 20
3.908520
  0
VERTEX
  8
0
  6
CONTINUOUS
 10
4.679400
 20
3.872880
  0
VERTEX
  8
0
  6
CONTINUOUS
 10
4.678960
 20
3.836800
  0
VERTEX
  8
0
  6
CONTINUOUS
 10
4.686000
 20
3.800720
  0
VERTEX
  8
0
  6
CONTINUOUS
 10
4.701400
 20
3.764200
  0
VERTEX
  8
0
  6
CONTINUOUS
 10
4.712400
 20
3.745280
  0
VERTEX
  8
0
  6
CONTINUOUS
 10
4.725600
 20
3.726800
  0
VERTEX
  8
0
  6
CONTINUOUS
 10
4.741440
 20
3.707880
  0
VERTEX
  8
0
  6
CONTINUOUS
 10
4.760360
 20
3.688520
  0
VERTEX
  8
0
  6
CONTINUOUS
 10
4.779280
 20
3.670040
  0
VERTEX
  8
0
  6
CONTINUOUS
 10
4.796000
 20
3.652440
  0
VERTEX
  8
0
  6
CONTINUOUS
 10
4.824600
 20
3.619880
  0
VERTEX
  8
0
  6
CONTINUOUS
 10
4.846160
 20
3.589080
  0
VERTEX
  8
0
  6
CONTINUOUS
 10
4.861120
 20
3.557840
  0
VERTEX
  8
0
  6
CONTINUOUS
 10
4.869040
 20
3.525280
  0
VERTEX
  8
0
  6
CONTINUOUS
 10
4.871240
 20
3.489200
  0
VERTEX
  8
0
  6
CONTINUOUS
 10
4.868160
 20
3.447400
  0
VERTEX
  8
0
  6
CONTINUOUS
 10
4.864200
 20
3.424080
  0
VERTEX
  8
0
  6
CONTINUOUS
 10
4.858920
 20
3.399000
  0
VERTEX
  8
0
  6
CONTINUOUS
 10
4.981240
 20
3.388000
  0
VERTEX
  8
0
  6
CONTINUOUS
 10
4.981240
 20
0.940720
  0
VERTEX
  8
0
  6
CONTINUOUS
 10
4.516600
 20
0.940720
  0
VERTEX
  8
0
  6
CONTINUOUS
 10
4.516600
 20
3.981120
  0
VERTEX
  8
0
  6
CONTINUOUS
 10
4.715040
 20
3.981120
  0
VERTEX
  8
0
  6
CONTINUOUS
 10
4.715040
 20
3.979800
  0
SEQEND
  8
0
  0
TEXT
  8
0
 10
4.775320
 20
0.693880
 40
0.138173
  1
BA  542
 41
1.000000
  7
SN0
 71
     0
 72
     5
 11
5.365676
 21
0.693880
  0
TEXT
  8
0
 10
4.619560
 20
0.502480
 40
0.138173
  1
1/2" x 3-1/8"
 41
1.000000
  7
SN0
 71
     0
 72
     5
 11
5.520010
 21
0.502480
  0
ENDSEC
  0
EOF
