  0
SECTION
  2
HEADER
  9
$ACADVER
  1
AC1006
  9
$EXTMIN
 10
4.450600
 20
0.388960
  9
$EXTMAX
 10
7.153520
 20
1.994520
  9
$LTSCALE
 40
0.044000
  9
$PDMODE
 70
    35
  9
$PDSIZE
 40
0.035200
  0
ENDSEC
  0
SECTION
  2
TABLES
  0
TABLE
  2
LTYPE
 70
     9
  0
LTYPE
  2
CONTINUOUS
 70
    64
  3
Solid line
 72
    65
 73
     0
 40
0.000000
  0
LTYPE
  2
DASHED
 70
    64
  3
__ __ __ __ __ __ __ __ __ __ __ __ __ __ __
 72
    65
 73
     2
 40
0.000330
 49
0.000220
 49
-0.000110
  0
LTYPE
  2
HIDDEN
 70
    64
  3
 _ _ _ _ _ _ _ _ _ _ _ _ _ _ _ _ _ _ _ _ _ _
 72
    65
 73
     2
 40
0.000165
 49
0.000110
 49
-0.000055
  0
LTYPE
  2
CENTER
 70
    64
  3
____ _ ____ _ ____ _ ____ _ ____ _ ____ _ ____
 72
    65
 73
     4
 40
0.000880
 49
0.000550
 49
-0.000110
 49
0.000110
 49
-0.000110
  0
LTYPE
  2
PHANTOM
 70
    64
  3
_____ _ _ _____ _ _ _____ _ _ _____ _ _ ____
 72
    65
 73
     6
 40
0.001100
 49
0.000550
 49
-0.000110
 49
0.000110
 49
-0.000110
 49
0.000110
 49
-0.000110
  0
LTYPE
  2
DOT
 70
    64
  3
...............................................
 72
    65
 73
     2
 40
0.000110
 49
0.000000
 49
-0.000110
  0
LTYPE
  2
DASHDOT
 70
    64
  3
__ . __ . __ . __ . __ . __ . __ . __ . __ . __
 72
    65
 73
     4
 40
0.000440
 49
0.000220
 49
-0.000110
 49
0.000000
 49
-0.000110
  0
LTYPE
  2
BORDER
 70
    64
  3
__ __ . __ __ . __ __ . __ __ . __ __ . __ __
 72
    65
 73
     6
 40
0.000770
 49
0.000220
 49
-0.000110
 49
0.000220
 49
-0.000110
 49
0.000000
 49
-0.000110
  0
LTYPE
  2
DIVIDE
 70
    64
  3
__ . . __ . . __ . . __ . . __ . . __ . . __
 72
    65
 73
     6
 40
0.000550
 49
0.000220
 49
-0.000110
 49
0.000000
 49
-0.000110
 49
0.000000
 49
-0.000110
  0
LTYPE
  2
DOTDOT
 70
    64
  3
 . .  . .  . .  . .  . .  . . 
 72
    65
 73
     5
 40
0.000242
 49
-0.000110
 49
0.000000
 49
-0.000110
 49
0.000000
 49
-0.000110
  0
ENDTAB
  0
TABLE
  2
STYLE
 70
     2
  0
STYLE
 70
     0
  2
SN0
 40
0.000000
 41
0.000440
 50
0.000000
 71
     0
 42
0.000000
  3
ROMAND
  0
STYLE
 70
    68
  2
SV0
 40
0.000000
 41
0.000440
 50
0.000000
 71
     0
 42
0.000000
  3
ROMAND
  0
ENDTAB
  0
TABLE
  2
LAYER
 70
     3
  0
LAYER
  2
FOREGROUND
 70
    64
 62
     7
  6
CONTINUOUS
  0
LAYER
  2
BACKGROUND
 70
    65
 62
    -7
  6
CONTINUOUS
  0
LAYER
  2
0
 70
    64
 62
     7
  6
CONTINUOUS
  0
ENDTAB
  0
ENDSEC
  0
SECTION
  2
ENTITIES
  0
POLYLINE
  8
FOREGROUND
  6
CONTINUOUS
 66
     1
 40
0.000000
 41
0.000000
  0
VERTEX
  8
FOREGROUND
  6
CONTINUOUS
 10
0.000000
 20
2.383480
  0
VERTEX
  8
FOREGROUND
  6
CONTINUOUS
 10
8.499920
 20
2.383480
  0
VERTEX
  8
FOREGROUND
  6
CONTINUOUS
 10
8.499920
 20
-8.616520
  0
VERTEX
  8
FOREGROUND
  6
CONTINUOUS
 10
0.000000
 20
-8.616520
  0
VERTEX
  8
FOREGROUND
  6
CONTINUOUS
 10
0.000000
 20
2.383480
  0
SEQEND
  8
0
  0
POLYLINE
  8
FOREGROUND
  6
CONTINUOUS
 66
     1
 40
0.000000
 41
0.000000
  0
VERTEX
  8
FOREGROUND
  6
CONTINUOUS
 10
0.000000
 20
2.383480
  0
VERTEX
  8
FOREGROUND
  6
CONTINUOUS
 10
8.499920
 20
2.383480
  0
VERTEX
  8
FOREGROUND
  6
CONTINUOUS
 10
8.499920
 20
-8.616520
  0
VERTEX
  8
FOREGROUND
  6
CONTINUOUS
 10
0.000000
 20
-8.616520
  0
VERTEX
  8
FOREGROUND
  6
CONTINUOUS
 10
0.000000
 20
2.383480
  0
SEQEND
  8
0
  0
SOLID
  8
0
 62
    15
 10
5.320480
 20
1.061280
 11
5.320040
 21
1.801360
 12
5.339840
 22
1.074480
 13
5.339400
 23
1.814560
  0
POLYLINE
  8
0
  6
CONTINUOUS
 66
     1
 40
0.000000
 41
0.000000
  0
VERTEX
  8
0
  6
CONTINUOUS
 10
5.320480
 20
1.061280
  0
VERTEX
  8
0
  6
CONTINUOUS
 10
5.320040
 20
1.801360
  0
VERTEX
  8
0
  6
CONTINUOUS
 10
5.339400
 20
1.814560
  0
VERTEX
  8
0
  6
CONTINUOUS
 10
5.339840
 20
1.074480
  0
VERTEX
  8
0
  6
CONTINUOUS
 10
5.320480
 20
1.061280
  0
SEQEND
  8
0
  0
SOLID
  8
0
 62
    15
 10
4.883120
 20
1.107480
 11
4.883120
 21
1.847560
 12
4.901600
 22
1.078880
 13
4.901600
 23
1.818960
  0
POLYLINE
  8
0
  6
CONTINUOUS
 66
     1
 40
0.000000
 41
0.000000
  0
VERTEX
  8
0
  6
CONTINUOUS
 10
4.883120
 20
1.107480
  0
VERTEX
  8
0
  6
CONTINUOUS
 10
4.883120
 20
1.847560
  0
VERTEX
  8
0
  6
CONTINUOUS
 10
4.901600
 20
1.818960
  0
VERTEX
  8
0
  6
CONTINUOUS
 10
4.901600
 20
1.078880
  0
VERTEX
  8
0
  6
CONTINUOUS
 10
4.883120
 20
1.107480
  0
SEQEND
  8
0
  0
SOLID
  8
0
 62
    15
 10
4.901600
 20
1.078880
 11
4.901600
 21
1.818960
 12
4.922720
 22
1.054240
 13
4.922280
 23
1.793880
  0
POLYLINE
  8
0
  6
CONTINUOUS
 66
     1
 40
0.000000
 41
0.000000
  0
VERTEX
  8
0
  6
CONTINUOUS
 10
4.901600
 20
1.078880
  0
VERTEX
  8
0
  6
CONTINUOUS
 10
4.901600
 20
1.818960
  0
VERTEX
  8
0
  6
CONTINUOUS
 10
4.922280
 20
1.793880
  0
VERTEX
  8
0
  6
CONTINUOUS
 10
4.922720
 20
1.054240
  0
VERTEX
  8
0
  6
CONTINUOUS
 10
4.901600
 20
1.078880
  0
SEQEND
  8
0
  0
SOLID
  8
0
 62
    15
 10
4.922720
 20
1.054240
 11
4.922280
 21
1.793880
 12
4.945160
 22
1.033120
 13
4.945160
 23
1.772760
  0
POLYLINE
  8
0
  6
CONTINUOUS
 66
     1
 40
0.000000
 41
0.000000
  0
VERTEX
  8
0
  6
CONTINUOUS
 10
4.922720
 20
1.054240
  0
VERTEX
  8
0
  6
CONTINUOUS
 10
4.922280
 20
1.793880
  0
VERTEX
  8
0
  6
CONTINUOUS
 10
4.945160
 20
1.772760
  0
VERTEX
  8
0
  6
CONTINUOUS
 10
4.945160
 20
1.033120
  0
VERTEX
  8
0
  6
CONTINUOUS
 10
4.922720
 20
1.054240
  0
SEQEND
  8
0
  0
SOLID
  8
0
 62
    15
 10
4.945160
 20
1.033120
 11
4.945160
 21
1.772760
 12
4.969800
 22
1.015520
 13
4.969360
 23
1.755160
  0
POLYLINE
  8
0
  6
CONTINUOUS
 66
     1
 40
0.000000
 41
0.000000
  0
VERTEX
  8
0
  6
CONTINUOUS
 10
4.945160
 20
1.033120
  0
VERTEX
  8
0
  6
CONTINUOUS
 10
4.945160
 20
1.772760
  0
VERTEX
  8
0
  6
CONTINUOUS
 10
4.969360
 20
1.755160
  0
VERTEX
  8
0
  6
CONTINUOUS
 10
4.969800
 20
1.015520
  0
VERTEX
  8
0
  6
CONTINUOUS
 10
4.945160
 20
1.033120
  0
SEQEND
  8
0
  0
SOLID
  8
0
 62
    15
 10
4.969800
 20
1.015520
 11
4.969360
 21
1.755160
 12
4.995760
 22
1.001000
 13
4.995320
 23
1.740640
  0
POLYLINE
  8
0
  6
CONTINUOUS
 66
     1
 40
0.000000
 41
0.000000
  0
VERTEX
  8
0
  6
CONTINUOUS
 10
4.969800
 20
1.015520
  0
VERTEX
  8
0
  6
CONTINUOUS
 10
4.969360
 20
1.755160
  0
VERTEX
  8
0
  6
CONTINUOUS
 10
4.995320
 20
1.740640
  0
VERTEX
  8
0
  6
CONTINUOUS
 10
4.995760
 20
1.001000
  0
VERTEX
  8
0
  6
CONTINUOUS
 10
4.969800
 20
1.015520
  0
SEQEND
  8
0
  0
SOLID
  8
0
 62
    15
 10
4.995760
 20
1.001000
 11
4.995320
 21
1.740640
 12
5.022600
 22
0.989120
 13
5.022160
 23
1.729200
  0
POLYLINE
  8
0
  6
CONTINUOUS
 66
     1
 40
0.000000
 41
0.000000
  0
VERTEX
  8
0
  6
CONTINUOUS
 10
4.995760
 20
1.001000
  0
VERTEX
  8
0
  6
CONTINUOUS
 10
4.995320
 20
1.740640
  0
VERTEX
  8
0
  6
CONTINUOUS
 10
5.022160
 20
1.729200
  0
VERTEX
  8
0
  6
CONTINUOUS
 10
5.022600
 20
0.989120
  0
VERTEX
  8
0
  6
CONTINUOUS
 10
4.995760
 20
1.001000
  0
SEQEND
  8
0
  0
SOLID
  8
0
 62
    15
 10
5.022600
 20
0.989120
 11
5.022160
 21
1.729200
 12
5.050320
 22
0.980320
 13
5.050320
 23
1.719960
  0
POLYLINE
  8
0
  6
CONTINUOUS
 66
     1
 40
0.000000
 41
0.000000
  0
VERTEX
  8
0
  6
CONTINUOUS
 10
5.022600
 20
0.989120
  0
VERTEX
  8
0
  6
CONTINUOUS
 10
5.022160
 20
1.729200
  0
VERTEX
  8
0
  6
CONTINUOUS
 10
5.050320
 20
1.719960
  0
VERTEX
  8
0
  6
CONTINUOUS
 10
5.050320
 20
0.980320
  0
VERTEX
  8
0
  6
CONTINUOUS
 10
5.022600
 20
0.989120
  0
SEQEND
  8
0
  0
SOLID
  8
0
 62
    15
 10
5.050320
 20
0.980320
 11
5.050320
 21
1.719960
 12
5.078920
 22
0.973720
 13
5.078480
 23
1.713360
  0
POLYLINE
  8
0
  6
CONTINUOUS
 66
     1
 40
0.000000
 41
0.000000
  0
VERTEX
  8
0
  6
CONTINUOUS
 10
5.050320
 20
0.980320
  0
VERTEX
  8
0
  6
CONTINUOUS
 10
5.050320
 20
1.719960
  0
VERTEX
  8
0
  6
CONTINUOUS
 10
5.078480
 20
1.713360
  0
VERTEX
  8
0
  6
CONTINUOUS
 10
5.078920
 20
0.973720
  0
VERTEX
  8
0
  6
CONTINUOUS
 10
5.050320
 20
0.980320
  0
SEQEND
  8
0
  0
SOLID
  8
0
 62
    15
 10
5.078920
 20
0.973720
 11
5.078480
 21
1.713360
 12
5.107520
 22
0.968880
 13
5.107080
 23
1.708960
  0
POLYLINE
  8
0
  6
CONTINUOUS
 66
     1
 40
0.000000
 41
0.000000
  0
VERTEX
  8
0
  6
CONTINUOUS
 10
5.078920
 20
0.973720
  0
VERTEX
  8
0
  6
CONTINUOUS
 10
5.078480
 20
1.713360
  0
VERTEX
  8
0
  6
CONTINUOUS
 10
5.107080
 20
1.708960
  0
VERTEX
  8
0
  6
CONTINUOUS
 10
5.107520
 20
0.968880
  0
VERTEX
  8
0
  6
CONTINUOUS
 10
5.078920
 20
0.973720
  0
SEQEND
  8
0
  0
SOLID
  8
0
 62
    15
 10
5.107520
 20
0.968880
 11
5.107080
 21
1.708960
 12
5.164720
 22
0.964920
 13
5.164280
 23
1.705000
  0
POLYLINE
  8
0
  6
CONTINUOUS
 66
     1
 40
0.000000
 41
0.000000
  0
VERTEX
  8
0
  6
CONTINUOUS
 10
5.107520
 20
0.968880
  0
VERTEX
  8
0
  6
CONTINUOUS
 10
5.107080
 20
1.708960
  0
VERTEX
  8
0
  6
CONTINUOUS
 10
5.164280
 20
1.705000
  0
VERTEX
  8
0
  6
CONTINUOUS
 10
5.164720
 20
0.964920
  0
VERTEX
  8
0
  6
CONTINUOUS
 10
5.107520
 20
0.968880
  0
SEQEND
  8
0
  0
SOLID
  8
0
 62
    15
 10
5.164720
 20
0.964920
 11
5.164280
 21
1.705000
 12
5.219720
 22
0.965800
 13
5.219280
 23
1.705880
  0
POLYLINE
  8
0
  6
CONTINUOUS
 66
     1
 40
0.000000
 41
0.000000
  0
VERTEX
  8
0
  6
CONTINUOUS
 10
5.164720
 20
0.964920
  0
VERTEX
  8
0
  6
CONTINUOUS
 10
5.164280
 20
1.705000
  0
VERTEX
  8
0
  6
CONTINUOUS
 10
5.219280
 20
1.705880
  0
VERTEX
  8
0
  6
CONTINUOUS
 10
5.219720
 20
0.965800
  0
VERTEX
  8
0
  6
CONTINUOUS
 10
5.164720
 20
0.964920
  0
SEQEND
  8
0
  0
SOLID
  8
0
 62
    15
 10
5.219720
 20
0.965800
 11
5.219280
 21
1.705880
 12
5.269880
 22
0.969760
 13
5.269440
 23
1.709840
  0
POLYLINE
  8
0
  6
CONTINUOUS
 66
     1
 40
0.000000
 41
0.000000
  0
VERTEX
  8
0
  6
CONTINUOUS
 10
5.219720
 20
0.965800
  0
VERTEX
  8
0
  6
CONTINUOUS
 10
5.219280
 20
1.705880
  0
VERTEX
  8
0
  6
CONTINUOUS
 10
5.269440
 20
1.709840
  0
VERTEX
  8
0
  6
CONTINUOUS
 10
5.269880
 20
0.969760
  0
VERTEX
  8
0
  6
CONTINUOUS
 10
5.219720
 20
0.965800
  0
SEQEND
  8
0
  0
SOLID
  8
0
 62
    15
 10
5.269880
 20
0.969760
 11
5.269440
 21
1.709840
 12
5.277360
 22
0.998800
 13
5.276920
 23
1.738440
  0
POLYLINE
  8
0
  6
CONTINUOUS
 66
     1
 40
0.000000
 41
0.000000
  0
VERTEX
  8
0
  6
CONTINUOUS
 10
5.269880
 20
0.969760
  0
VERTEX
  8
0
  6
CONTINUOUS
 10
5.269440
 20
1.709840
  0
VERTEX
  8
0
  6
CONTINUOUS
 10
5.276920
 20
1.738440
  0
VERTEX
  8
0
  6
CONTINUOUS
 10
5.277360
 20
0.998800
  0
VERTEX
  8
0
  6
CONTINUOUS
 10
5.269880
 20
0.969760
  0
SEQEND
  8
0
  0
SOLID
  8
0
 62
    15
 10
5.277360
 20
0.998800
 11
5.276920
 21
1.738440
 12
5.288360
 22
1.023440
 13
5.288360
 23
1.763520
  0
POLYLINE
  8
0
  6
CONTINUOUS
 66
     1
 40
0.000000
 41
0.000000
  0
VERTEX
  8
0
  6
CONTINUOUS
 10
5.277360
 20
0.998800
  0
VERTEX
  8
0
  6
CONTINUOUS
 10
5.276920
 20
1.738440
  0
VERTEX
  8
0
  6
CONTINUOUS
 10
5.288360
 20
1.763520
  0
VERTEX
  8
0
  6
CONTINUOUS
 10
5.288360
 20
1.023440
  0
VERTEX
  8
0
  6
CONTINUOUS
 10
5.277360
 20
0.998800
  0
SEQEND
  8
0
  0
SOLID
  8
0
 62
    15
 10
5.288360
 20
1.023440
 11
5.288360
 21
1.763520
 12
5.303320
 22
1.044560
 13
5.302880
 23
1.784200
  0
POLYLINE
  8
0
  6
CONTINUOUS
 66
     1
 40
0.000000
 41
0.000000
  0
VERTEX
  8
0
  6
CONTINUOUS
 10
5.288360
 20
1.023440
  0
VERTEX
  8
0
  6
CONTINUOUS
 10
5.288360
 20
1.763520
  0
VERTEX
  8
0
  6
CONTINUOUS
 10
5.302880
 20
1.784200
  0
VERTEX
  8
0
  6
CONTINUOUS
 10
5.303320
 20
1.044560
  0
VERTEX
  8
0
  6
CONTINUOUS
 10
5.288360
 20
1.023440
  0
SEQEND
  8
0
  0
SOLID
  8
0
 62
    15
 10
5.303320
 20
1.044560
 11
5.302880
 21
1.784200
 12
5.320480
 22
1.061280
 13
5.320040
 23
1.801360
  0
POLYLINE
  8
0
  6
CONTINUOUS
 66
     1
 40
0.000000
 41
0.000000
  0
VERTEX
  8
0
  6
CONTINUOUS
 10
5.303320
 20
1.044560
  0
VERTEX
  8
0
  6
CONTINUOUS
 10
5.302880
 20
1.784200
  0
VERTEX
  8
0
  6
CONTINUOUS
 10
5.320040
 20
1.801360
  0
VERTEX
  8
0
  6
CONTINUOUS
 10
5.320480
 20
1.061280
  0
VERTEX
  8
0
  6
CONTINUOUS
 10
5.303320
 20
1.044560
  0
SEQEND
  8
0
  0
SOLID
  8
0
 62
    15
 10
4.867280
 20
1.140480
 11
4.866840
 21
1.880560
 12
4.883120
 22
1.107480
 13
4.883120
 23
1.847560
  0
POLYLINE
  8
0
  6
CONTINUOUS
 66
     1
 40
0.000000
 41
0.000000
  0
VERTEX
  8
0
  6
CONTINUOUS
 10
4.867280
 20
1.140480
  0
VERTEX
  8
0
  6
CONTINUOUS
 10
4.866840
 20
1.880560
  0
VERTEX
  8
0
  6
CONTINUOUS
 10
4.883120
 20
1.847560
  0
VERTEX
  8
0
  6
CONTINUOUS
 10
4.883120
 20
1.107480
  0
VERTEX
  8
0
  6
CONTINUOUS
 10
4.867280
 20
1.140480
  0
SEQEND
  8
0
  0
SOLID
  8
0
 62
    15
 10
5.339840
 20
1.074480
 11
5.339400
 21
1.814560
 12
5.360960
 22
1.083720
 13
5.360520
 23
1.823360
  0
POLYLINE
  8
0
  6
CONTINUOUS
 66
     1
 40
0.000000
 41
0.000000
  0
VERTEX
  8
0
  6
CONTINUOUS
 10
5.339840
 20
1.074480
  0
VERTEX
  8
0
  6
CONTINUOUS
 10
5.339400
 20
1.814560
  0
VERTEX
  8
0
  6
CONTINUOUS
 10
5.360520
 20
1.823360
  0
VERTEX
  8
0
  6
CONTINUOUS
 10
5.360960
 20
1.083720
  0
VERTEX
  8
0
  6
CONTINUOUS
 10
5.339840
 20
1.074480
  0
SEQEND
  8
0
  0
SOLID
  8
0
 62
    15
 10
5.360960
 20
1.083720
 11
5.360520
 21
1.823360
 12
5.382960
 22
1.088560
 13
5.382520
 23
1.828640
  0
POLYLINE
  8
0
  6
CONTINUOUS
 66
     1
 40
0.000000
 41
0.000000
  0
VERTEX
  8
0
  6
CONTINUOUS
 10
5.360960
 20
1.083720
  0
VERTEX
  8
0
  6
CONTINUOUS
 10
5.360520
 20
1.823360
  0
VERTEX
  8
0
  6
CONTINUOUS
 10
5.382520
 20
1.828640
  0
VERTEX
  8
0
  6
CONTINUOUS
 10
5.382960
 20
1.088560
  0
VERTEX
  8
0
  6
CONTINUOUS
 10
5.360960
 20
1.083720
  0
SEQEND
  8
0
  0
SOLID
  8
0
 62
    15
 10
5.382960
 20
1.088560
 11
5.382520
 21
1.828640
 12
5.404960
 22
1.089880
 13
5.404520
 23
1.829520
  0
POLYLINE
  8
0
  6
CONTINUOUS
 66
     1
 40
0.000000
 41
0.000000
  0
VERTEX
  8
0
  6
CONTINUOUS
 10
5.382960
 20
1.088560
  0
VERTEX
  8
0
  6
CONTINUOUS
 10
5.382520
 20
1.828640
  0
VERTEX
  8
0
  6
CONTINUOUS
 10
5.404520
 20
1.829520
  0
VERTEX
  8
0
  6
CONTINUOUS
 10
5.404960
 20
1.089880
  0
VERTEX
  8
0
  6
CONTINUOUS
 10
5.382960
 20
1.088560
  0
SEQEND
  8
0
  0
SOLID
  8
0
 62
    15
 10
5.404960
 20
1.089880
 11
5.404520
 21
1.829520
 12
5.426960
 22
1.086800
 13
5.426520
 23
1.826440
  0
POLYLINE
  8
0
  6
CONTINUOUS
 66
     1
 40
0.000000
 41
0.000000
  0
VERTEX
  8
0
  6
CONTINUOUS
 10
5.404960
 20
1.089880
  0
VERTEX
  8
0
  6
CONTINUOUS
 10
5.404520
 20
1.829520
  0
VERTEX
  8
0
  6
CONTINUOUS
 10
5.426520
 20
1.826440
  0
VERTEX
  8
0
  6
CONTINUOUS
 10
5.426960
 20
1.086800
  0
VERTEX
  8
0
  6
CONTINUOUS
 10
5.404960
 20
1.089880
  0
SEQEND
  8
0
  0
SOLID
  8
0
 62
    15
 10
5.426960
 20
1.086800
 11
5.426520
 21
1.826440
 12
5.447640
 22
1.079320
 13
5.447200
 23
1.819400
  0
POLYLINE
  8
0
  6
CONTINUOUS
 66
     1
 40
0.000000
 41
0.000000
  0
VERTEX
  8
0
  6
CONTINUOUS
 10
5.426960
 20
1.086800
  0
VERTEX
  8
0
  6
CONTINUOUS
 10
5.426520
 20
1.826440
  0
VERTEX
  8
0
  6
CONTINUOUS
 10
5.447200
 20
1.819400
  0
VERTEX
  8
0
  6
CONTINUOUS
 10
5.447640
 20
1.079320
  0
VERTEX
  8
0
  6
CONTINUOUS
 10
5.426960
 20
1.086800
  0
SEQEND
  8
0
  0
SOLID
  8
0
 62
    15
 10
5.447640
 20
1.079320
 11
5.447200
 21
1.819400
 12
5.467000
 22
1.067880
 13
5.466560
 23
1.807960
  0
POLYLINE
  8
0
  6
CONTINUOUS
 66
     1
 40
0.000000
 41
0.000000
  0
VERTEX
  8
0
  6
CONTINUOUS
 10
5.447640
 20
1.079320
  0
VERTEX
  8
0
  6
CONTINUOUS
 10
5.447200
 20
1.819400
  0
VERTEX
  8
0
  6
CONTINUOUS
 10
5.466560
 20
1.807960
  0
VERTEX
  8
0
  6
CONTINUOUS
 10
5.467000
 20
1.067880
  0
VERTEX
  8
0
  6
CONTINUOUS
 10
5.447640
 20
1.079320
  0
SEQEND
  8
0
  0
SOLID
  8
0
 62
    15
 10
5.467000
 20
1.067880
 11
5.466560
 21
1.807960
 12
5.484160
 22
1.052480
 13
5.484160
 23
1.792560
  0
POLYLINE
  8
0
  6
CONTINUOUS
 66
     1
 40
0.000000
 41
0.000000
  0
VERTEX
  8
0
  6
CONTINUOUS
 10
5.467000
 20
1.067880
  0
VERTEX
  8
0
  6
CONTINUOUS
 10
5.466560
 20
1.807960
  0
VERTEX
  8
0
  6
CONTINUOUS
 10
5.484160
 20
1.792560
  0
VERTEX
  8
0
  6
CONTINUOUS
 10
5.484160
 20
1.052480
  0
VERTEX
  8
0
  6
CONTINUOUS
 10
5.467000
 20
1.067880
  0
SEQEND
  8
0
  0
SOLID
  8
0
 62
    15
 10
5.484160
 20
1.052480
 11
5.484160
 21
1.792560
 12
5.498680
 22
1.032680
 13
5.498240
 23
1.772760
  0
POLYLINE
  8
0
  6
CONTINUOUS
 66
     1
 40
0.000000
 41
0.000000
  0
VERTEX
  8
0
  6
CONTINUOUS
 10
5.484160
 20
1.052480
  0
VERTEX
  8
0
  6
CONTINUOUS
 10
5.484160
 20
1.792560
  0
VERTEX
  8
0
  6
CONTINUOUS
 10
5.498240
 20
1.772760
  0
VERTEX
  8
0
  6
CONTINUOUS
 10
5.498680
 20
1.032680
  0
VERTEX
  8
0
  6
CONTINUOUS
 10
5.484160
 20
1.052480
  0
SEQEND
  8
0
  0
SOLID
  8
0
 62
    15
 10
5.498680
 20
1.032680
 11
5.498240
 21
1.772760
 12
5.509680
 22
1.008920
 13
5.509680
 23
1.748560
  0
POLYLINE
  8
0
  6
CONTINUOUS
 66
     1
 40
0.000000
 41
0.000000
  0
VERTEX
  8
0
  6
CONTINUOUS
 10
5.498680
 20
1.032680
  0
VERTEX
  8
0
  6
CONTINUOUS
 10
5.498240
 20
1.772760
  0
VERTEX
  8
0
  6
CONTINUOUS
 10
5.509680
 20
1.748560
  0
VERTEX
  8
0
  6
CONTINUOUS
 10
5.509680
 20
1.008920
  0
VERTEX
  8
0
  6
CONTINUOUS
 10
5.498680
 20
1.032680
  0
SEQEND
  8
0
  0
SOLID
  8
0
 62
    15
 10
5.509680
 20
1.008920
 11
5.509680
 21
1.748560
 12
5.516720
 22
0.980320
 13
5.516720
 23
1.720400
  0
POLYLINE
  8
0
  6
CONTINUOUS
 66
     1
 40
0.000000
 41
0.000000
  0
VERTEX
  8
0
  6
CONTINUOUS
 10
5.509680
 20
1.008920
  0
VERTEX
  8
0
  6
CONTINUOUS
 10
5.509680
 20
1.748560
  0
VERTEX
  8
0
  6
CONTINUOUS
 10
5.516720
 20
1.720400
  0
VERTEX
  8
0
  6
CONTINUOUS
 10
5.516720
 20
0.980320
  0
VERTEX
  8
0
  6
CONTINUOUS
 10
5.509680
 20
1.008920
  0
SEQEND
  8
0
  0
SOLID
  8
0
 62
    15
 10
5.516720
 20
0.980320
 11
5.516720
 21
1.720400
 12
5.519360
 22
0.947760
 13
5.518920
 23
1.687840
  0
POLYLINE
  8
0
  6
CONTINUOUS
 66
     1
 40
0.000000
 41
0.000000
  0
VERTEX
  8
0
  6
CONTINUOUS
 10
5.516720
 20
0.980320
  0
VERTEX
  8
0
  6
CONTINUOUS
 10
5.516720
 20
1.720400
  0
VERTEX
  8
0
  6
CONTINUOUS
 10
5.518920
 20
1.687840
  0
VERTEX
  8
0
  6
CONTINUOUS
 10
5.519360
 20
0.947760
  0
VERTEX
  8
0
  6
CONTINUOUS
 10
5.516720
 20
0.980320
  0
SEQEND
  8
0
  0
SOLID
  8
0
 62
    15
 10
5.519360
 20
0.947760
 11
5.518920
 21
1.687840
 12
5.607360
 22
0.947760
 13
5.606920
 23
1.687840
  0
POLYLINE
  8
0
  6
CONTINUOUS
 66
     1
 40
0.000000
 41
0.000000
  0
VERTEX
  8
0
  6
CONTINUOUS
 10
5.519360
 20
0.947760
  0
VERTEX
  8
0
  6
CONTINUOUS
 10
5.518920
 20
1.687840
  0
VERTEX
  8
0
  6
CONTINUOUS
 10
5.606920
 20
1.687840
  0
VERTEX
  8
0
  6
CONTINUOUS
 10
5.607360
 20
0.947760
  0
VERTEX
  8
0
  6
CONTINUOUS
 10
5.519360
 20
0.947760
  0
SEQEND
  8
0
  0
SOLID
  8
0
 62
    15
 10
4.508680
 20
0.816200
 11
4.508680
 21
1.555840
 12
4.508680
 22
1.253120
 13
4.508680
 23
1.992760
  0
POLYLINE
  8
0
  6
CONTINUOUS
 66
     1
 40
0.000000
 41
0.000000
  0
VERTEX
  8
0
  6
CONTINUOUS
 10
4.508680
 20
0.816200
  0
VERTEX
  8
0
  6
CONTINUOUS
 10
4.508680
 20
1.555840
  0
VERTEX
  8
0
  6
CONTINUOUS
 10
4.508680
 20
1.992760
  0
VERTEX
  8
0
  6
CONTINUOUS
 10
4.508680
 20
1.253120
  0
VERTEX
  8
0
  6
CONTINUOUS
 10
4.508680
 20
0.816200
  0
SEQEND
  8
0
  0
SOLID
  8
0
 62
    15
 10
4.508680
 20
1.253120
 11
4.508680
 21
1.992760
 12
4.745400
 22
1.253120
 13
4.745400
 23
1.992760
  0
POLYLINE
  8
0
  6
CONTINUOUS
 66
     1
 40
0.000000
 41
0.000000
  0
VERTEX
  8
0
  6
CONTINUOUS
 10
4.508680
 20
1.253120
  0
VERTEX
  8
0
  6
CONTINUOUS
 10
4.508680
 20
1.992760
  0
VERTEX
  8
0
  6
CONTINUOUS
 10
4.745400
 20
1.992760
  0
VERTEX
  8
0
  6
CONTINUOUS
 10
4.745400
 20
1.253120
  0
VERTEX
  8
0
  6
CONTINUOUS
 10
4.508680
 20
1.253120
  0
SEQEND
  8
0
  0
SOLID
  8
0
 62
    15
 10
4.745400
 20
1.253120
 11
4.745400
 21
1.992760
 12
4.760360
 22
1.143120
 13
4.759920
 23
1.883200
  0
POLYLINE
  8
0
  6
CONTINUOUS
 66
     1
 40
0.000000
 41
0.000000
  0
VERTEX
  8
0
  6
CONTINUOUS
 10
4.745400
 20
1.253120
  0
VERTEX
  8
0
  6
CONTINUOUS
 10
4.745400
 20
1.992760
  0
VERTEX
  8
0
  6
CONTINUOUS
 10
4.759920
 20
1.883200
  0
VERTEX
  8
0
  6
CONTINUOUS
 10
4.760360
 20
1.143120
  0
VERTEX
  8
0
  6
CONTINUOUS
 10
4.745400
 20
1.253120
  0
SEQEND
  8
0
  0
SOLID
  8
0
 62
    15
 10
4.760360
 20
1.143120
 11
4.759920
 21
1.883200
 12
4.867280
 22
1.140480
 13
4.866840
 23
1.880560
  0
POLYLINE
  8
0
  6
CONTINUOUS
 66
     1
 40
0.000000
 41
0.000000
  0
VERTEX
  8
0
  6
CONTINUOUS
 10
4.760360
 20
1.143120
  0
VERTEX
  8
0
  6
CONTINUOUS
 10
4.759920
 20
1.883200
  0
VERTEX
  8
0
  6
CONTINUOUS
 10
4.866840
 20
1.880560
  0
VERTEX
  8
0
  6
CONTINUOUS
 10
4.867280
 20
1.140480
  0
VERTEX
  8
0
  6
CONTINUOUS
 10
4.760360
 20
1.143120
  0
SEQEND
  8
0
  0
POLYLINE
  8
0
  6
CONTINUOUS
 66
     1
 40
0.000000
 41
0.000000
  0
VERTEX
  8
0
  6
CONTINUOUS
 10
4.867280
 20
1.140480
  0
VERTEX
  8
0
  6
CONTINUOUS
 10
4.883120
 20
1.107480
  0
VERTEX
  8
0
  6
CONTINUOUS
 10
4.901600
 20
1.078880
  0
VERTEX
  8
0
  6
CONTINUOUS
 10
4.922720
 20
1.054240
  0
VERTEX
  8
0
  6
CONTINUOUS
 10
4.945160
 20
1.033120
  0
VERTEX
  8
0
  6
CONTINUOUS
 10
4.969800
 20
1.015520
  0
VERTEX
  8
0
  6
CONTINUOUS
 10
4.995760
 20
1.001000
  0
VERTEX
  8
0
  6
CONTINUOUS
 10
5.022600
 20
0.989120
  0
VERTEX
  8
0
  6
CONTINUOUS
 10
5.050320
 20
0.980320
  0
VERTEX
  8
0
  6
CONTINUOUS
 10
5.078920
 20
0.973720
  0
VERTEX
  8
0
  6
CONTINUOUS
 10
5.107520
 20
0.968880
  0
VERTEX
  8
0
  6
CONTINUOUS
 10
5.164720
 20
0.964920
  0
VERTEX
  8
0
  6
CONTINUOUS
 10
5.219720
 20
0.965800
  0
VERTEX
  8
0
  6
CONTINUOUS
 10
5.269880
 20
0.969760
  0
VERTEX
  8
0
  6
CONTINUOUS
 10
5.277360
 20
0.998800
  0
VERTEX
  8
0
  6
CONTINUOUS
 10
5.288360
 20
1.023440
  0
VERTEX
  8
0
  6
CONTINUOUS
 10
5.303320
 20
1.044560
  0
VERTEX
  8
0
  6
CONTINUOUS
 10
5.320480
 20
1.061280
  0
VERTEX
  8
0
  6
CONTINUOUS
 10
5.339840
 20
1.074480
  0
VERTEX
  8
0
  6
CONTINUOUS
 10
5.360960
 20
1.083720
  0
VERTEX
  8
0
  6
CONTINUOUS
 10
5.382960
 20
1.088560
  0
VERTEX
  8
0
  6
CONTINUOUS
 10
5.404960
 20
1.089880
  0
VERTEX
  8
0
  6
CONTINUOUS
 10
5.426960
 20
1.086800
  0
VERTEX
  8
0
  6
CONTINUOUS
 10
5.447640
 20
1.079320
  0
VERTEX
  8
0
  6
CONTINUOUS
 10
5.467000
 20
1.067880
  0
VERTEX
  8
0
  6
CONTINUOUS
 10
5.484160
 20
1.052480
  0
VERTEX
  8
0
  6
CONTINUOUS
 10
5.498680
 20
1.032680
  0
VERTEX
  8
0
  6
CONTINUOUS
 10
5.509680
 20
1.008920
  0
VERTEX
  8
0
  6
CONTINUOUS
 10
5.516720
 20
0.980320
  0
VERTEX
  8
0
  6
CONTINUOUS
 10
5.519360
 20
0.947760
  0
VERTEX
  8
0
  6
CONTINUOUS
 10
5.607360
 20
0.947760
  0
VERTEX
  8
0
  6
CONTINUOUS
 10
5.607360
 20
0.816200
  0
VERTEX
  8
0
  6
CONTINUOUS
 10
4.508680
 20
0.816200
  0
VERTEX
  8
0
  6
CONTINUOUS
 10
4.508680
 20
1.253120
  0
VERTEX
  8
0
  6
CONTINUOUS
 10
4.745400
 20
1.253120
  0
VERTEX
  8
0
  6
CONTINUOUS
 10
4.760360
 20
1.143120
  0
VERTEX
  8
0
  6
CONTINUOUS
 10
4.867280
 20
1.140480
  0
SEQEND
  8
0
  0
TEXT
  8
0
 10
4.761680
 20
0.623480
 40
0.138135
  1
BA  541
 41
1.000000
  7
SN0
 71
     0
 72
     5
 11
5.351592
 21
0.623480
  0
TEXT
  8
0
 10
4.559720
 20
0.431640
 40
0.138135
  1
7/16" x 1-1/8"
 41
1.000000
  7
SN0
 71
     0
 72
     5
 11
5.551556
 21
0.431640
  0
POLYLINE
  8
0
  6
CONTINUOUS
 66
     1
 40
0.014080
 41
0.014080
  0
VERTEX
  8
0
  6
CONTINUOUS
 10
6.360640
 20
1.874840
  0
VERTEX
  8
0
  6
CONTINUOUS
 10
6.376480
 20
1.841840
  0
VERTEX
  8
0
  6
CONTINUOUS
 10
6.395400
 20
1.813240
  0
VERTEX
  8
0
  6
CONTINUOUS
 10
6.416080
 20
1.788160
  0
VERTEX
  8
0
  6
CONTINUOUS
 10
6.438960
 20
1.767040
  0
VERTEX
  8
0
  6
CONTINUOUS
 10
6.463160
 20
1.749440
  0
VERTEX
  8
0
  6
CONTINUOUS
 10
6.502320
 20
1.728760
  0
VERTEX
  8
0
  6
CONTINUOUS
 10
6.544120
 20
1.714240
  0
VERTEX
  8
0
  6
CONTINUOUS
 10
6.572280
 20
1.707640
  0
VERTEX
  8
0
  6
CONTINUOUS
 10
6.629480
 20
1.700160
  0
VERTEX
  8
0
  6
CONTINUOUS
 10
6.685800
 20
1.698840
  0
VERTEX
  8
0
  6
CONTINUOUS
 10
6.738600
 20
1.701480
  0
VERTEX
  8
0
  6
CONTINUOUS
 10
6.763240
 20
1.703680
  0
VERTEX
  8
0
  6
CONTINUOUS
 10
6.766320
 20
1.718640
  0
VERTEX
  8
0
  6
CONTINUOUS
 10
6.776000
 20
1.745480
  0
VERTEX
  8
0
  6
CONTINUOUS
 10
6.788760
 20
1.768360
  0
VERTEX
  8
0
  6
CONTINUOUS
 10
6.805040
 20
1.787280
  0
VERTEX
  8
0
  6
CONTINUOUS
 10
6.823520
 20
1.802240
  0
VERTEX
  8
0
  6
CONTINUOUS
 10
6.843760
 20
1.813680
  0
VERTEX
  8
0
  6
CONTINUOUS
 10
6.865320
 20
1.820720
  0
VERTEX
  8
0
  6
CONTINUOUS
 10
6.887320
 20
1.823800
  0
VERTEX
  8
0
  6
CONTINUOUS
 10
6.898320
 20
1.823800
  0
VERTEX
  8
0
  6
CONTINUOUS
 10
6.920320
 20
1.820720
  0
VERTEX
  8
0
  6
CONTINUOUS
 10
6.941000
 20
1.813240
  0
VERTEX
  8
0
  6
CONTINUOUS
 10
6.960360
 20
1.802240
  0
VERTEX
  8
0
  6
CONTINUOUS
 10
6.977520
 20
1.786400
  0
VERTEX
  8
0
  6
CONTINUOUS
 10
6.985440
 20
1.777160
  0
VERTEX
  8
0
  6
CONTINUOUS
 10
6.998200
 20
1.755160
  0
VERTEX
  8
0
  6
CONTINUOUS
 10
7.007000
 20
1.729200
  0
VERTEX
  8
0
  6
CONTINUOUS
 10
7.012280
 20
1.698400
  0
VERTEX
  8
0
  6
CONTINUOUS
 10
7.012720
 20
1.681680
  0
VERTEX
  8
0
  6
CONTINUOUS
 10
7.100720
 20
1.681680
  0
VERTEX
  8
0
  6
CONTINUOUS
 10
7.100720
 20
1.550120
  0
VERTEX
  8
0
  6
CONTINUOUS
 10
6.002040
 20
1.550120
  0
VERTEX
  8
0
  6
CONTINUOUS
 10
6.002040
 20
1.987040
  0
VERTEX
  8
0
  6
CONTINUOUS
 10
6.238760
 20
1.987040
  0
VERTEX
  8
0
  6
CONTINUOUS
 10
6.253720
 20
1.877040
  0
VERTEX
  8
0
  6
CONTINUOUS
 10
6.360640
 20
1.874840
  0
SEQEND
  8
0
  0
TEXT
  8
0
 10
6.253720
 20
1.320000
 40
0.138135
  1
BA  541
 41
1.000000
  7
SN0
 71
     0
 72
     5
 11
6.843632
 21
1.320000
  0
TEXT
  8
0
 10
6.051760
 20
1.128160
 40
0.138135
  1
7/16" x 1-1/8"
 41
1.000000
  7
SN0
 71
     0
 72
     5
 11
7.043596
 21
1.128160
  0
ENDSEC
  0
EOF
